  0
SECTION
  2
HEADER
  9
$ACADVER
  1
AC1009
  9
$INSBASE
 10
0.0
 20
0.0
 30
0.0
  9
$EXTMIN
 10
0.0
 20
-2.960436562073669
 30
0.0
  9
$EXTMAX
 10
247.5
 20
222.5
 30
0.0
  9
$LIMMIN
 10
0.0
 20
0.0
  9
$LIMMAX
 10
385.0
 20
270.0
  9
$ORTHOMODE
 70
     0
  9
$REGENMODE
 70
     1
  9
$FILLMODE
 70
     1
  9
$QTEXTMODE
 70
     0
  9
$MIRRTEXT
 70
     0
  9
$DRAGMODE
 70
     2
  9
$LTSCALE
 40
10.0
  9
$OSMODE
 70
  3071
  9
$ATTMODE
 70
     1
  9
$TEXTSIZE
 40
0.2
  9
$TRACEWID
 40
0.05
  9
$TEXTSTYLE
  7
STANDARD
  9
$CLAYER
  8
0
  9
$CELTYPE
  6
BYLAYER
  9
$CECOLOR
 62
   256
  9
$DIMSCALE
 40
1.0
  9
$DIMASZ
 40
3.0
  9
$DIMEXO
 40
1.0
  9
$DIMDLI
 40
6.0
  9
$DIMRND
 40
0.0
  9
$DIMDLE
 40
0.0
  9
$DIMEXE
 40
1.0
  9
$DIMTP
 40
495.0
  9
$DIMTM
 40
0.0
  9
$DIMTXT
 40
3.0
  9
$DIMCEN
 40
0.0
  9
$DIMTSZ
 40
0.0
  9
$DIMTOL
 70
     0
  9
$DIMLIM
 70
     0
  9
$DIMTIH
 70
     0
  9
$DIMTOH
 70
     0
  9
$DIMSE1
 70
     0
  9
$DIMSE2
 70
     0
  9
$DIMTAD
 70
     1
  9
$DIMZIN
 70
     0
  9
$DIMBLK
  1

  9
$DIMASO
 70
     0
  9
$DIMSHO
 70
     0
  9
$DIMPOST
  1

  9
$DIMAPOST
  1

  9
$DIMALT
 70
     0
  9
$DIMALTD
 70
     2
  9
$DIMALTF
 40
25.399999999999999
  9
$DIMLFAC
 40
1.0
  9
$DIMTOFL
 70
     1
  9
$DIMTVP
 40
0.0
  9
$DIMTIX
 70
     1
  9
$DIMSOXD
 70
     0
  9
$DIMSAH
 70
     0
  9
$DIMBLK1
  1

  9
$DIMBLK2
  1

  9
$DIMSTYLE
  2
STANDARD
  9
$DIMCLRD
 70
     0
  9
$DIMCLRE
 70
     0
  9
$DIMCLRT
 70
     4
  9
$DIMTFAC
 40
1.0
  9
$DIMGAP
 40
1.0
  9
$LUNITS
 70
     2
  9
$LUPREC
 70
     4
  9
$SKETCHINC
 40
0.1
  9
$FILLETRAD
 40
0.0
  9
$AUNITS
 70
     0
  9
$AUPREC
 70
     0
  9
$MENU
  1
E:\r13\win\SUPPORT\ACAD
  9
$ELEVATION
 40
0.0
  9
$PELEVATION
 40
0.0
  9
$THICKNESS
 40
0.0
  9
$LIMCHECK
 70
     0
  9
$BLIPMODE
 70
     0
  9
$CHAMFERA
 40
0.0
  9
$CHAMFERB
 40
0.0
  9
$SKPOLY
 70
     0
  9
$TDCREATE
 40
2450569.7088687499
  9
$TDUPDATE
 40
2456597.3557235422
  9
$TDINDWG
 40
0.0253728356
  9
$TDUSRTIMER
 40
0.0253728356
  9
$USRTIMER
 70
     1
  9
$ANGBASE
 50
0.0
  9
$ANGDIR
 70
     0
  9
$PDMODE
 70
     0
  9
$PDSIZE
 40
0.0
  9
$PLINEWID
 40
0.0
  9
$COORDS
 70
     1
  9
$SPLFRAME
 70
     0
  9
$SPLINETYPE
 70
     6
  9
$SPLINESEGS
 70
     8
  9
$ATTDIA
 70
     0
  9
$ATTREQ
 70
     1
  9
$HANDLING
 70
     1
  9
$HANDSEED
  5
4D16
  9
$SURFTAB1
 70
     6
  9
$SURFTAB2
 70
     6
  9
$SURFTYPE
 70
     6
  9
$SURFU
 70
     6
  9
$SURFV
 70
     6
  9
$UCSNAME
  2

  9
$UCSORG
 10
0.0
 20
0.0
 30
0.0
  9
$UCSXDIR
 10
1.0
 20
0.0
 30
0.0
  9
$UCSYDIR
 10
0.0
 20
1.0
 30
0.0
  9
$PUCSNAME
  2

  9
$PUCSORG
 10
0.0
 20
0.0
 30
0.0
  9
$PUCSXDIR
 10
1.0
 20
0.0
 30
0.0
  9
$PUCSYDIR
 10
0.0
 20
1.0
 30
0.0
  9
$USERI1
 70
     3
  9
$USERI2
 70
     1
  9
$USERI3
 70
     0
  9
$USERI4
 70
     0
  9
$USERI5
 70
     0
  9
$USERR1
 40
1.0
  9
$USERR2
 40
3.0
  9
$USERR3
 40
3.0
  9
$USERR4
 40
3.0
  9
$USERR5
 40
10.0
  9
$WORLDVIEW
 70
     1
  9
$SHADEDGE
 70
     3
  9
$SHADEDIF
 70
    70
  9
$TILEMODE
 70
     1
  9
$MAXACTVP
 70
    16
  9
$PLIMCHECK
 70
     0
  9
$PEXTMIN
 10
1.0000000000000000E+020
 20
1.0000000000000000E+020
 30
1.0000000000000000E+020
  9
$PEXTMAX
 10
-1.0000000000000000E+020
 20
-1.0000000000000000E+020
 30
-1.0000000000000000E+020
  9
$PLIMMIN
 10
0.0
 20
0.0
  9
$PLIMMAX
 10
12.0
 20
9.0
  9
$UNITMODE
 70
     0
  9
$VISRETAIN
 70
     0
  9
$PLINEGEN
 70
     0
  9
$PSLTSCALE
 70
     0
  0
ENDSEC
  0
SECTION
  2
TABLES
  0
TABLE
  2
VPORT
 70
     1
  0
VPORT
  2
*ACTIVE
 70
     0
 10
0.0
 20
0.0
 11
1.0
 21
1.0
 12
192.49119011110221
 22
191.8411735746825
 13
0.0
 23
0.0
 14
5.0
 24
5.0
 15
10.0
 25
10.0
 16
0.0
 26
0.0
 36
1.0
 17
0.0
 27
0.0
 37
0.0
 40
393.16966538972372
 41
1.831871345029239
 42
50.0
 43
0.0
 44
0.0
 50
0.0
 51
0.0
 71
     0
 72
   100
 73
     1
 74
     0
 75
     0
 76
     0
 77
     0
 78
     0
  0
ENDTAB
  0
TABLE
  2
LTYPE
 70
     3
  0
LTYPE
  2
CONTINUOUS
 70
     0
  3
Solid Line
 72
    65
 73
     0
 40
0.0
  0
LTYPE
  2
CENTER
 70
     0
  3
____ _ ____ _ ____ _ ____ _ ____ _ ____ _ ____
 72
    65
 73
     4
 40
2.0
 49
1.25
 49
-0.25
 49
0.25
 49
-0.25
  0
LTYPE
  2
PHANTOM2
 70
     0
  3
___ _ _ ___ _ _ ___ _ _ ___ _ _
 72
    65
 73
     6
 40
1.25
 49
0.625
 49
-0.125
 49
0.125
 49
-0.125
 49
0.125
 49
-0.125
  0
ENDTAB
  0
TABLE
  2
LAYER
 70
     2
  0
LAYER
  2
0
 70
     0
 62
     7
  6
CONTINUOUS
  0
LAYER
  2
1
 70
     0
 62
     1
  6
CENTER
  0
ENDTAB
  0
TABLE
  2
STYLE
 70
     3
  0
STYLE
  2
STANDARD
 70
     0
 40
0.0
 41
1.0
 50
0.0
 71
     0
 42
0.2
  3
simplex
  4
bigfont
  0
STYLE
  2
ISO8
 70
     0
 40
0.0
 41
1.0
 50
0.0
 71
     0
 42
7.0
  3
TXT.SHX
  4

  0
STYLE
  2
STANDARD1
 70
     0
 40
0.0
 41
1.0
 50
0.0
 71
     0
 42
3.0
  3
txt
  4

  0
ENDTAB
  0
TABLE
  2
VIEW
 70
     0
  0
ENDTAB
  0
TABLE
  2
UCS
 70
     0
  0
ENDTAB
  0
TABLE
  2
APPID
 70
     3
  0
APPID
  2
ACAD
 70
     0
  0
APPID
  2
ACAD_MLEADERVER
 70
     0
  0
APPID
  2
ACAD_NAV_VCDISPLAY
 70
     0
  0
ENDTAB
  0
TABLE
  2
DIMSTYLE
 70
     1
  0
DIMSTYLE
  2
STANDARD
 70
     0
  3

  4

  5

  6

  7

 40
1.0
 41
0.18
 42
0.0625
 43
0.38
 44
0.18
 45
0.0
 46
0.0
 47
0.0
 48
0.0
140
0.18
141
0.09
142
0.0
143
25.399999999999999
144
1.0
145
0.0
146
1.0
147
0.09
 71
     0
 72
     0
 73
     1
 74
     1
 75
     0
 76
     0
 77
     0
 78
     0
170
     0
171
     2
172
     0
173
     0
174
     0
175
     0
176
     0
177
     0
178
     0
  0
ENDTAB
  0
ENDSEC
  0
SECTION
  2
BLOCKS
  0
BLOCK
  8
0
  2
$MODEL_SPACE
 70
     0
 10
0.0
 20
0.0
 30
0.0
  3
$MODEL_SPACE
  1

  0
ENDBLK
  5
4AD9
  8
0
  0
BLOCK
 67
     1
  8
0
  2
$PAPER_SPACE
 70
     0
 10
0.0
 20
0.0
 30
0.0
  3
$PAPER_SPACE
  1

  0
ENDBLK
  5
4AD7
 67
     1
  8
0
  0
BLOCK
  8
0
  2
STDGX5
 70
     0
 10
0.0
 20
0.0
 30
0.0
  3
STDGX5
  1

  0
ENDBLK
  5
4F
  8
0
  0
ENDSEC
  0
SECTION
  2
ENTITIES
  0
INSERT
  5
DE
  8
0
  6
CONTINUOUS
 62
     7
  2
STDGX5
 10
0.0
 20
0.0
 30
0.0
  0
INSERT
  5
DF
  8
0
  6
CONTINUOUS
 62
     7
  2
STDGX5
 10
0.0
 20
0.0
 30
0.0
  0
INSERT
  5
15C
  8
0
  6
CONTINUOUS
 62
     7
  2
STDGX5
 10
275.0
 20
0.0
 30
0.0
  0
INSERT
  5
15D
  8
0
  6
CONTINUOUS
 62
     7
  2
STDGX5
 10
275.0
 20
0.0
 30
0.0
  0
INSERT
  5
25F
  8
0
  6
CONTINUOUS
 62
     7
  2
STDGX5
 10
45.499302106388193
 20
44.35714295772538
 30
0.0
  0
INSERT
  5
260
  8
0
  6
CONTINUOUS
 62
     7
  2
STDGX5
 10
45.499302106388193
 20
44.35714295772538
 30
0.0
  0
INSERT
  5
261
  8
0
  6
CONTINUOUS
 62
     7
  2
STDGX5
 10
320.4993021063882
 20
44.35714295772538
 30
0.0
  0
INSERT
  5
262
  8
0
  6
CONTINUOUS
 62
     7
  2
STDGX5
 10
320.4993021063882
 20
44.35714295772538
 30
0.0
  0
INSERT
  5
1166
  8
0
  6
CONTINUOUS
 62
     7
  2
STDGX5
 10
76.93518408898592
 20
52.071428596574037
 30
0.0
  0
INSERT
  5
1167
  8
0
  6
CONTINUOUS
 62
     7
  2
STDGX5
 10
76.93518408898592
 20
52.071428596574037
 30
0.0
  0
INSERT
  5
1168
  8
0
  6
CONTINUOUS
 62
     7
  2
STDGX5
 10
351.93518408898592
 20
52.071428596574037
 30
0.0
  0
INSERT
  5
1169
  8
0
  6
CONTINUOUS
 62
     7
  2
STDGX5
 10
351.93518408898592
 20
52.071428596574037
 30
0.0
  0
INSERT
  5
181C
  8
0
  6
CONTINUOUS
 62
     7
  2
STDGX5
 10
54.874915817415292
 20
49.867346805862212
 30
0.0
  0
INSERT
  5
181D
  8
0
  6
CONTINUOUS
 62
     7
  2
STDGX5
 10
54.874915817415292
 20
49.867346805862212
 30
0.0
  0
INSERT
  5
181E
  8
0
  6
CONTINUOUS
 62
     7
  2
STDGX5
 10
329.87491581741529
 20
49.867346805862212
 30
0.0
  0
INSERT
  5
181F
  8
0
  6
CONTINUOUS
 62
     7
  2
STDGX5
 10
329.87491581741529
 20
49.867346805862212
 30
0.0
  0
INSERT
  5
2728
  8
0
  6
CONTINUOUS
 62
     7
  2
STDGX5
 10
51.565876074773087
 20
48.765305910506299
 30
0.0
  0
INSERT
  5
2729
  8
0
  6
CONTINUOUS
 62
     7
  2
STDGX5
 10
51.565876074773087
 20
48.765305910506299
 30
0.0
  0
INSERT
  5
272A
  8
0
  6
CONTINUOUS
 62
     7
  2
STDGX5
 10
326.56587607477309
 20
48.765305910506299
 30
0.0
  0
INSERT
  5
272B
  8
0
  6
CONTINUOUS
 62
     7
  2
STDGX5
 10
326.56587607477309
 20
48.765305910506299
 30
0.0
  0
INSERT
  5
35A4
  8
0
  6
CONTINUOUS
 62
     7
  2
STDGX5
 10
16.26944661888513
 20
39.948979376301743
 30
0.0
  0
INSERT
  5
35A5
  8
0
  6
CONTINUOUS
 62
     7
  2
STDGX5
 10
16.26944661888513
 20
39.948979376301743
 30
0.0
  0
INSERT
  5
35A6
  8
0
  6
CONTINUOUS
 62
     7
  2
STDGX5
 10
291.26944661888513
 20
39.948979376301743
 30
0.0
  0
INSERT
  5
35A7
  8
0
  6
CONTINUOUS
 62
     7
  2
STDGX5
 10
291.26944661888513
 20
39.948979376301743
 30
0.0
  0
INSERT
  5
44B2
  8
0
  6
CONTINUOUS
 62
     7
  2
STDGX5
 10
25.645061436786371
 20
42.704081614691511
 30
0.0
  0
INSERT
  5
44B3
  8
0
  6
CONTINUOUS
 62
     7
  2
STDGX5
 10
25.645061436786371
 20
42.704081614691511
 30
0.0
  0
INSERT
  5
44B4
  8
0
  6
CONTINUOUS
 62
     7
  2
STDGX5
 10
300.64506143678642
 20
42.704081614691511
 30
0.0
  0
INSERT
  5
44B5
  8
0
  6
CONTINUOUS
 62
     7
  2
STDGX5
 10
300.64506143678642
 20
42.704081614691511
 30
0.0
  0
TEXT
  5
44B6
  8
0
 10
227.98738834367271
 20
154.20202465193751
 30
0.0
 40
4.4300218464920231
  1
R
 50
281.39577663450859
  7
ISO8
 72
     1
 11
228.2791570876083
 21
152.7544622349007
 31
0.0
  0
TEXT
  5
44B7
  8
0
 10
228.59671397755781
 20
151.16093928966481
 30
0.0
 40
4.4300218464920231
  1
O
 50
278.64333232456642
  7
ISO8
 72
     1
 11
228.81863309986721
 21
149.70103591809919
 31
0.0
  0
TEXT
  5
44B8
  8
0
 10
229.059301484743
 20
148.0941020414667
 30
0.0
 40
4.4300218464920231
  1
L
 50
275.89088801462418
  7
ISO8
 72
     1
 11
229.21085894645049
 21
146.62522618321461
 31
0.0
  0
TEXT
  5
44B9
  8
0
 10
229.3740835266822
 20
145.0085890898149
 30
0.0
 40
4.4300218464920231
  1
L
 50
273.138443704682
  7
ISO8
 72
     1
 11
229.4549296358521
 21
143.53412991513849
 31
0.0
  0
TEXT
  5
44BA
  8
0
 10
229.54033379969931
 20
141.9115197080508
 30
0.0
 40
4.4300218464920231
  1
-
 50
270.38599939473983
  7
ISO8
 72
     1
 11
229.5502820182877
 21
140.43487926972389
 31
0.0
  0
TEXT
  5
44BB
  8
0
 10
229.5576687108049
 20
138.81003983392691
 30
0.0
 40
4.4300218464920231
  1
R
 50
267.63355508479759
  7
ISO8
 72
     1
 11
229.49669608506369
 21
137.33462521760191
 31
0.0
  0
TEXT
  5
44BC
  8
0
 10
229.36017186948831
 20
134.9759133131048
 30
0.0
 40
4.4300218464920231
  1
I
 50
264.88111077485547
  7
ISO8
 72
     1
 11
229.2942954762074
 21
134.2405210445861
 31
0.0
  0
TEXT
  5
44BD
  8
0
 10
229.14577614640839
 20
132.62246673028639
 30
0.0
 40
4.4300218464920231
  1
N
 50
262.12866646491329
  7
ISO8
 72
     1
 11
228.94354719519001
 21
131.1597058467363
 31
0.0
  0
TEXT
  5
44BE
  8
0
 10
228.71749903987251
 20
129.5506502271802
 30
0.0
 40
4.4300218464920231
  1
G
 50
259.376222154971
  7
ISO8
 72
     1
 11
228.44526053139899
 21
128.09928805816131
 31
0.0
  0
POLYLINE
  5
44BF
  8
0
 66
     1
 10
0.0
 20
0.0
 30
0.0
  0
VERTEX
  5
44C0
  8
0
 10
90.202571394111189
 20
130.9179478787475
 30
0.0
 42
0.2230591094557833
  0
VERTEX
  5
44C1
  8
0
 10
91.025204068834796
 20
129.6051375056295
 30
0.0
  0
VERTEX
  5
44C2
  8
0
 10
94.409960439653787
 20
127.4255704477718
 30
0.0
 42
-0.0138643006725583
  0
VERTEX
  5
44C3
  8
0
 10
93.821527911313296
 20
131.35736875626139
 30
0.0
  0
SEQEND
  5
44C4
  8
0
  0
POLYLINE
  5
44C5
  8
0
 66
     1
 10
0.0
 20
0.0
 30
0.0
  0
VERTEX
  5
44C6
  8
0
 10
93.298745034028912
 20
140.0
 30
0.0
 42
-0.2770100220963358
  0
VERTEX
  5
44C7
  8
0
 10
89.236110189346618
 20
133.22968470569819
 30
0.0
 42
0.1940442857277115
  0
VERTEX
  5
44C8
  8
0
 10
88.561416694449846
 20
130.71867562034009
 30
0.0
 42
0.1940442857277115
  0
SEQEND
  5
44C9
  8
0
  0
POLYLINE
  5
44CA
  8
0
 66
     1
 10
0.0
 20
0.0
 30
0.0
  0
VERTEX
  5
44CB
  8
0
 10
95.392422429260066
 20
122.7995608071011
 30
0.0
 42
0.2770100220963358
  0
VERTEX
  5
44CC
  8
0
 10
89.824283254866415
 20
128.3975959266825
 30
0.0
 42
-0.1940442857277115
  0
VERTEX
  5
44CD
  8
0
 10
88.566923967210997
 20
130.67343106143051
 30
0.0
 42
-0.1940442857277115
  0
SEQEND
  5
44CE
  8
0
  0
POLYLINE
  5
44CF
  8
0
 66
     1
 10
0.0
 20
0.0
 30
0.0
  0
VERTEX
  5
44D0
  8
0
 10
90.207960424406451
 20
130.8736747313591
 30
0.0
 42
-0.2230591094557833
  0
VERTEX
  5
44D1
  8
0
 10
90.691641675730196
 20
132.3454926686079
 30
0.0
  0
VERTEX
  5
44D2
  8
0
 10
93.454706019420485
 20
135.27338673809291
 30
0.0
 42
0.0138643006725583
  0
VERTEX
  5
44D3
  8
0
 10
93.82665620181217
 20
131.3152376958171
 30
0.0
  0
SEQEND
  5
44D4
  8
0
  0
POLYLINE
  5
44D5
  8
0
 66
     1
 10
0.0
 20
0.0
 30
0.0
  0
VERTEX
  5
44D6
  8
0
 10
94.565353759641127
 20
113.23996252278999
 30
0.0
 42
-0.2230591094557833
  0
VERTEX
  5
44D7
  8
0
 10
94.682751025493246
 20
114.7847646056666
 30
0.0
  0
VERTEX
  5
44D8
  8
0
 10
96.664834826818534
 20
118.2888239736028
 30
0.0
 42
0.0138643006725583
  0
VERTEX
  5
44D9
  8
0
 10
97.973223880303365
 20
114.53470505383331
 30
0.0
  0
SEQEND
  5
44DA
  8
0
  0
POLYLINE
  5
44DB
  8
0
 66
     1
 10
0.0
 20
0.0
 30
0.0
  0
VERTEX
  5
44DC
  8
0
 10
101.53142665832711
 20
106.64119064373109
 30
0.0
 42
0.2770100220963358
  0
VERTEX
  5
44DD
  8
0
 10
94.785389995312514
 20
110.7440141113867
 30
0.0
 42
-0.1940442857277115
  0
VERTEX
  5
44DE
  8
0
 10
93.019924286317632
 20
112.6528118401076
 30
0.0
 42
-0.1940442857277115
  0
SEQEND
  5
44DF
  8
0
  0
POLYLINE
  5
44E0
  8
0
 66
     1
 10
0.0
 20
0.0
 30
0.0
  0
VERTEX
  5
44E1
  8
0
 10
95.382253191611255
 20
122.84076653756711
 30
0.0
 42
-0.2770100220963358
  0
VERTEX
  5
44E2
  8
0
 10
93.057913634069052
 20
115.29493214455729
 30
0.0
 42
0.1940442857277115
  0
VERTEX
  5
44E3
  8
0
 10
93.003749313223068
 20
112.69542369772471
 30
0.0
 42
0.1940442857277115
  0
SEQEND
  5
44E4
  8
0
  0
POLYLINE
  5
44E5
  8
0
 66
     1
 10
0.0
 20
0.0
 30
0.0
  0
VERTEX
  5
44E6
  8
0
 10
94.549526067094675
 20
113.2816594936135
 30
0.0
 42
0.2230591094557833
  0
VERTEX
  5
44E7
  8
0
 10
95.662430617891175
 20
112.2038658890186
 30
0.0
  0
VERTEX
  5
44E8
  8
0
 10
99.470436658429094
 20
110.8976583079944
 30
0.0
 42
-0.0138643006725583
  0
VERTEX
  5
44E9
  8
0
 10
97.958161985888694
 20
114.57438458198379
 30
0.0
  0
SEQEND
  5
44EA
  8
0
  0
POLYLINE
  5
44EB
  8
0
 66
     1
 10
0.0
 20
0.0
 30
0.0
  0
VERTEX
  5
44EC
  8
0
 10
103.0161527148434
 20
97.161446423617861
 30
0.0
 42
-0.2230591094557833
  0
VERTEX
  5
44ED
  8
0
 10
102.76044329285421
 20
98.689454370192493
 30
0.0
  0
VERTEX
  5
44EE
  8
0
 10
103.84635504586301
 20
102.5660358428531
 30
0.0
 42
0.0138643006725583
  0
VERTEX
  5
44EF
  8
0
 10
106.0151441544531
 20
99.23412279153986
 30
0.0
  0
SEQEND
  5
44F0
  8
0
  0
POLYLINE
  5
44F1
  8
0
 66
     1
 10
0.0
 20
0.0
 30
0.0
  0
VERTEX
  5
44F2
  8
0
 10
111.358993671135
 20
92.421513225809093
 30
0.0
 42
0.2770100220963358
  0
VERTEX
  5
44F3
  8
0
 10
103.8271146495082
 20
94.790683854755343
 30
0.0
 42
-0.1940442857277115
  0
VERTEX
  5
44F4
  8
0
 10
101.6561449689739
 20
96.221511791653313
 30
0.0
 42
-0.1940442857277115
  0
SEQEND
  5
44F5
  8
0
  0
POLYLINE
  5
44F6
  8
0
 66
     1
 10
0.0
 20
0.0
 30
0.0
  0
VERTEX
  5
44F7
  8
0
 10
101.51169174348379
 20
106.6787653526949
 30
0.0
 42
-0.2770100220963358
  0
VERTEX
  5
44F8
  8
0
 10
101.0607296395354
 20
98.795948327906956
 30
0.0
 42
0.1940442857277115
  0
VERTEX
  5
44F9
  8
0
 10
101.63024232618849
 20
96.259014501700975
 30
0.0
 42
0.1940442857277115
  0
SEQEND
  5
44FA
  8
0
  0
POLYLINE
  5
44FB
  8
0
 66
     1
 10
0.0
 20
0.0
 30
0.0
  0
VERTEX
  5
44FC
  8
0
 10
102.9908062080052
 20
97.19814394149455
 30
0.0
 42
0.2230591094557833
  0
VERTEX
  5
44FD
  8
0
 10
104.32930466762591
 20
96.418004552101465
 30
0.0
  0
VERTEX
  5
44FE
  8
0
 10
108.3392529083453
 20
96.061068484648587
 30
0.0
 42
-0.0138643006725583
  0
VERTEX
  5
44FF
  8
0
 10
105.9910239986783
 20
99.269044757449649
 30
0.0
  0
SEQEND
  5
4500
  8
0
  0
POLYLINE
  5
4501
  8
0
 66
     1
 10
0.0
 20
0.0
 30
0.0
  0
VERTEX
  5
4502
  8
0
 10
115.0692275721412
 20
83.5725513464985
 30
0.0
 42
-0.2230591094557833
  0
VERTEX
  5
4503
  8
0
 10
114.45527236445091
 20
84.994962888999169
 30
0.0
  0
VERTEX
  5
4504
  8
0
 10
114.5819028251869
 20
89.018773641993391
 30
0.0
 42
0.0138643006725583
  0
VERTEX
  5
4505
  8
0
 10
117.4850498491186
 20
86.302705134667576
 30
0.0
  0
SEQEND
  5
4506
  8
0
  0
POLYLINE
  5
4507
  8
0
 66
     1
 10
0.0
 20
0.0
 30
0.0
  0
VERTEX
  5
4508
  8
0
 10
124.3039809946517
 20
80.966924518440294
 30
0.0
 42
0.2770100220963358
  0
VERTEX
  5
4509
  8
0
 10
116.4239850458834
 20
81.464754723307678
 30
0.0
 42
-0.1940442857277115
  0
VERTEX
  5
450A
  8
0
 10
113.97368026048861
 20
82.334458349538124
 30
0.0
 42
-0.1940442857277115
  0
SEQEND
  5
450B
  8
0
  0
POLYLINE
  5
450C
  8
0
 66
     1
 10
0.0
 20
0.0
 30
0.0
  0
VERTEX
  5
450D
  8
0
 10
111.3308400006141
 20
92.453273207764198
 30
0.0
 42
-0.2770100220963358
  0
VERTEX
  5
450E
  8
0
 10
112.77946362856061
 20
84.691594223804714
 30
0.0
 42
0.1940442857277115
  0
VERTEX
  5
450F
  8
0
 10
113.9395553154588
 20
82.364672390825206
 30
0.0
 42
0.1940442857277115
  0
SEQEND
  5
4510
  8
0
  0
POLYLINE
  5
4511
  8
0
 66
     1
 10
0.0
 20
0.0
 30
0.0
  0
VERTEX
  5
4512
  8
0
 10
115.035835297858
 20
83.602116685079338
 30
0.0
 42
0.2230591094557833
  0
VERTEX
  5
4513
  8
0
 10
116.5221390010735
 20
83.164970376508364
 30
0.0
  0
VERTEX
  5
4514
  8
0
 10
120.5009858257927
 20
83.778049649457245
 30
0.0
 42
-0.0138643006725583
  0
VERTEX
  5
4515
  8
0
 10
117.4532732077641
 20
86.330840000614103
 30
0.0
  0
SEQEND
  5
4516
  8
0
  0
POLYLINE
  5
4517
  8
0
 66
     1
 10
0.0
 20
0.0
 30
0.0
  0
VERTEX
  5
4518
  8
0
 10
130.02409743197299
 20
73.263014479690085
 30
0.0
 42
-0.2230591094557833
  0
VERTEX
  5
4519
  8
0
 10
129.08757728361621
 20
74.497164229522298
 30
0.0
  0
VERTEX
  5
451A
  8
0
 10
128.24756714998449
 20
78.434355007843095
 30
0.0
 42
0.0138643006725583
  0
VERTEX
  5
451B
  8
0
 10
131.7163517367369
 20
76.491979073643165
 30
0.0
  0
SEQEND
  5
451C
  8
0
  0
POLYLINE
  5
451D
  8
0
 66
     1
 10
0.0
 20
0.0
 30
0.0
  0
VERTEX
  5
451E
  8
0
 10
139.614073018749
 20
72.943123581561096
 30
0.0
 42
0.2770100220963358
  0
VERTEX
  5
451F
  8
0
 10
131.84391686476181
 20
71.540681280381847
 30
0.0
 42
-0.1940442857277115
  0
VERTEX
  5
4520
  8
0
 10
129.25667978213809
 20
71.798716582432348
 30
0.0
 42
-0.1940442857277115
  0
SEQEND
  5
4521
  8
0
  0
POLYLINE
  5
4522
  8
0
 66
     1
 10
0.0
 20
0.0
 30
0.0
  0
VERTEX
  5
4523
  8
0
 10
124.26904475744971
 20
80.991023998678358
 30
0.0
 42
-0.2770100220963358
  0
VERTEX
  5
4524
  8
0
 10
127.5330653775675
 20
73.801563625539785
 30
0.0
 42
0.1940442857277115
  0
VERTEX
  5
4525
  8
0
 10
129.2163157526299
 20
71.819886024702825
 30
0.0
 42
0.1940442857277115
  0
SEQEND
  5
4526
  8
0
  0
POLYLINE
  5
4527
  8
0
 66
     1
 10
0.0
 20
0.0
 30
0.0
  0
VERTEX
  5
4528
  8
0
 10
129.98460002785009
 20
73.283729408962429
 30
0.0
 42
0.2230591094557833
  0
VERTEX
  5
4529
  8
0
 10
131.5323304059238
 20
73.214981535705505
 30
0.0
  0
VERTEX
  5
452A
  8
0
 10
135.24883969970981
 20
74.762446210164882
 30
0.0
 42
-0.0138643006725583
  0
VERTEX
  5
452B
  8
0
 10
131.67876535269491
 20
76.511691743483752
 30
0.0
  0
SEQEND
  5
452C
  8
0
  0
POLYLINE
  5
452D
  8
0
 66
     1
 10
0.0
 20
0.0
 30
0.0
  0
VERTEX
  5
452E
  8
0
 10
147.01163961682531
 20
66.831988632249931
 30
0.0
 42
-0.2230591094557833
  0
VERTEX
  5
452F
  8
0
 10
145.80698167471229
 20
67.806152291905221
 30
0.0
  0
VERTEX
  5
4530
  8
0
 10
144.0491492823669
 20
71.427907878622776
 30
0.0
 42
0.0138643006725583
  0
VERTEX
  5
4531
  8
0
 10
147.88197828027711
 20
70.372108346595141
 30
0.0
  0
SEQEND
  5
4532
  8
0
  0
POLYLINE
  5
4533
  8
0
 66
     1
 10
0.0
 20
0.0
 30
0.0
  0
VERTEX
  5
4534
  8
0
 10
156.39950284490641
 20
68.816424560293285
 30
0.0
 42
0.2770100220963358
  0
VERTEX
  5
4535
  8
0
 10
149.19075971800149
 20
65.59521460194162
 30
0.0
 42
-0.1940442857277115
  0
VERTEX
  5
4536
  8
0
 10
146.61695115316709
 20
65.226585505977155
 30
0.0
 42
-0.1940442857277115
  0
SEQEND
  5
4537
  8
0
  0
POLYLINE
  5
4538
  8
0
 66
     1
 10
0.0
 20
0.0
 30
0.0
  0
VERTEX
  5
4539
  8
0
 10
139.57438458198379
 20
72.958161985888822
 30
0.0
 42
-0.2770100220963358
  0
VERTEX
  5
453A
  8
0
 10
144.46410918006379
 20
66.758745527832829
 30
0.0
 42
0.1940442857277115
  0
VERTEX
  5
453B
  8
0
 10
146.57269384985801
 20
65.237480058194009
 30
0.0
 42
0.1940442857277115
  0
SEQEND
  5
453C
  8
0
  0
POLYLINE
  5
453D
  8
0
 66
     1
 10
0.0
 20
0.0
 30
0.0
  0
VERTEX
  5
453E
  8
0
 10
146.96833252842319
 20
66.842649275820165
 30
0.0
 42
0.2230591094557833
  0
VERTEX
  5
453F
  8
0
 10
148.4875411175523
 20
67.146295214382661
 30
0.0
  0
VERTEX
  5
4540
  8
0
 10
151.72572286921209
 20
69.538212268278144
 30
0.0
 42
-0.0138643006725583
  0
VERTEX
  5
4541
  8
0
 10
147.84076653756699
 20
70.382253191611312
 30
0.0
  0
SEQEND
  5
4542
  8
0
  0
POLYLINE
  5
4543
  8
0
 66
     1
 10
0.0
 20
0.0
 30
0.0
  0
VERTEX
  5
4544
  8
0
 10
165.04459992211829
 20
64.653221650603271
 30
0.0
 42
-0.2230591094557833
  0
VERTEX
  5
4545
  8
0
 10
163.6418145270911
 20
65.310784369123311
 30
0.0
  0
VERTEX
  5
4546
  8
0
 10
161.06831870521449
 20
68.406621494083495
 30
0.0
 42
0.0138643006725583
  0
VERTEX
  5
4547
  8
0
 10
165.04244202469019
 20
68.298757595354488
 30
0.0
  0
SEQEND
  5
4548
  8
0
  0
POLYLINE
  5
4549
  8
0
 66
     1
 10
0.0
 20
0.0
 30
0.0
  0
VERTEX
  5
454A
  8
0
 10
173.68476230418281
 20
68.826656201812213
 30
0.0
 42
0.2770100220963358
  0
VERTEX
  5
454B
  8
0
 10
167.4563781521808
 20
63.973883600445689
 30
0.0
 42
-0.1940442857277115
  0
VERTEX
  5
454C
  8
0
 10
165.04557850351
 20
63.000013489611469
 30
0.0
 42
-0.1940442857277115
  0
SEQEND
  5
454D
  8
0
  0
POLYLINE
  5
454E
  8
0
 66
     1
 10
0.0
 20
0.0
 30
0.0
  0
VERTEX
  5
454F
  8
0
 10
156.35736875626139
 20
68.821527911313353
 30
0.0
 42
-0.2770100220963358
  0
VERTEX
  5
4550
  8
0
 10
162.58862431208891
 20
63.972442918920237
 30
0.0
 42
0.1940442857277115
  0
VERTEX
  5
4551
  8
0
 10
165.0
 20
63.000000000000007
 30
0.0
 42
0.1940442857277115
  0
SEQEND
  5
4552
  8
0
  0
POLYLINE
  5
4553
  8
0
 66
     1
 10
0.0
 20
0.0
 30
0.0
  0
VERTEX
  5
4554
  8
0
 10
165.0
 20
64.653208450616972
 30
0.0
 42
0.2230591094557833
  0
VERTEX
  5
4555
  8
0
 10
166.40239591908301
 20
65.311601402757674
 30
0.0
  0
VERTEX
  5
4556
  8
0
 10
168.9740587755216
 20
68.408961311181613
 30
0.0
 42
-0.0138643006725583
  0
VERTEX
  5
4557
  8
0
 10
165.0
 20
68.298745034028897
 30
0.0
  0
SEQEND
  5
4558
  8
0
  0
POLYLINE
  5
4559
  8
0
 66
     1
 10
0.0
 20
0.0
 30
0.0
  0
VERTEX
  5
455A
  8
0
 10
183.07496824205191
 20
66.853335552227634
 30
0.0
 42
-0.2230591094557833
  0
VERTEX
  5
455B
  8
0
 10
181.555580182352
 20
67.156082174555294
 30
0.0
  0
VERTEX
  5
455C
  8
0
 10
178.31598315383491
 20
69.546082036965515
 30
0.0
 42
0.0138643006725583
  0
VERTEX
  5
455D
  8
0
 10
182.2004391928989
 20
70.392422429259952
 30
0.0
  0
SEQEND
  5
455E
  8
0
  0
POLYLINE
  5
455F
  8
0
 66
     1
 10
0.0
 20
0.0
 30
0.0
  0
VERTEX
  5
4560
  8
0
 10
190.46529494616649
 20
72.973223880303252
 30
0.0
 42
0.2770100220963358
  0
VERTEX
  5
4561
  8
0
 10
185.5792408167265
 20
66.770914140402667
 30
0.0
 42
-0.1940442857277115
  0
VERTEX
  5
4562
  8
0
 10
183.4715569969002
 20
65.248400805666535
 30
0.0
 42
-0.1940442857277115
  0
SEQEND
  5
4563
  8
0
  0
POLYLINE
  5
4564
  8
0
 66
     1
 10
0.0
 20
0.0
 30
0.0
  0
VERTEX
  5
4565
  8
0
 10
173.64263124373861
 20
68.821527911313268
 30
0.0
 42
-0.2770100220963358
  0
VERTEX
  5
4566
  8
0
 10
180.85327983410139
 20
65.604585578634087
 30
0.0
 42
0.1940442857277115
  0
VERTEX
  5
4567
  8
0
 10
183.4273061501419
 20
65.237480058193938
 30
0.0
 42
0.1940442857277115
  0
SEQEND
  5
4568
  8
0
  0
POLYLINE
  5
4569
  8
0
 66
     1
 10
0.0
 20
0.0
 30
0.0
  0
VERTEX
  5
456A
  8
0
 10
183.0316674715767
 20
66.842649275820051
 30
0.0
 42
0.2230591094557833
  0
VERTEX
  5
456B
  8
0
 10
184.23574856729829
 20
67.817525836321551
 30
0.0
  0
VERTEX
  5
456C
  8
0
 10
185.9914368309137
 20
71.440321299841543
 30
0.0
 42
-0.0138643006725583
  0
VERTEX
  5
456D
  8
0
 10
182.15923346243289
 20
70.382253191611198
 30
0.0
  0
SEQEND
  5
456E
  8
0
  0
POLYLINE
  5
456F
  8
0
 66
     1
 10
0.0
 20
0.0
 30
0.0
  0
VERTEX
  5
4570
  8
0
 10
200.05488510759389
 20
73.304467714249597
 30
0.0
 42
-0.2230591094557833
  0
VERTEX
  5
4571
  8
0
 10
198.5071956945003
 20
73.234803707134347
 30
0.0
  0
VERTEX
  5
4572
  8
0
 10
194.78977106318391
 20
74.780068202287339
 30
0.0
 42
0.0138643006725583
  0
VERTEX
  5
4573
  8
0
 10
198.35880935626901
 20
76.531426658327234
 30
0.0
  0
SEQEND
  5
4574
  8
0
  0
POLYLINE
  5
4575
  8
0
 66
     1
 10
0.0
 20
0.0
 30
0.0
  0
VERTEX
  5
4576
  8
0
 10
205.7658772084601
 20
81.015144154453054
 30
0.0
 42
0.2770100220963358
  0
VERTEX
  5
4577
  8
0
 10
202.5061128075011
 20
73.823752973622788
 30
0.0
 42
-0.1940442857277115
  0
VERTEX
  5
4578
  8
0
 10
200.82403573900851
 20
71.841079355888809
 30
0.0
 42
-0.1940442857277115
  0
SEQEND
  5
4579
  8
0
  0
POLYLINE
  5
457A
  8
0
 66
     1
 10
0.0
 20
0.0
 30
0.0
  0
VERTEX
  5
457B
  8
0
 10
190.42561541801621
 20
72.958161985888793
 30
0.0
 42
-0.2770100220963358
  0
VERTEX
  5
457C
  8
0
 10
198.1966003564836
 20
71.560319308189307
 30
0.0
 42
0.1940442857277115
  0
VERTEX
  5
457D
  8
0
 10
200.78368424737019
 20
71.819886024702853
 30
0.0
 42
0.1940442857277115
  0
SEQEND
  5
457E
  8
0
  0
POLYLINE
  5
457F
  8
0
 66
     1
 10
0.0
 20
0.0
 30
0.0
  0
VERTEX
  5
4580
  8
0
 10
200.01539997214999
 20
73.283729408962429
 30
0.0
 42
0.2230591094557833
  0
VERTEX
  5
4581
  8
0
 10
200.95118942788341
 20
74.518433295660543
 30
0.0
  0
VERTEX
  5
4582
  8
0
 10
201.78886887846161
 20
78.456120610262474
 30
0.0
 42
-0.0138643006725583
  0
VERTEX
  5
4583
  8
0
 10
198.32123464730509
 20
76.511691743483723
 30
0.0
  0
SEQEND
  5
4584
  8
0
  0
POLYLINE
  5
4585
  8
0
 66
     1
 10
0.0
 20
0.0
 30
0.0
  0
VERTEX
  5
4586
  8
0
 10
214.99753947000519
 20
83.631701784323411
 30
0.0
 42
-0.2230591094557833
  0
VERTEX
  5
4587
  8
0
 10
213.51149478658471
 20
83.193675766640425
 30
0.0
  0
VERTEX
  5
4588
  8
0
 10
209.53228575975251
 20
83.804399738885806
 30
0.0
 42
0.0138643006725583
  0
VERTEX
  5
4589
  8
0
 10
212.57848677419099
 20
86.358993671135096
 30
0.0
  0
SEQEND
  5
458A
  8
0
  0
POLYLINE
  5
458B
  8
0
 66
     1
 10
0.0
 20
0.0
 30
0.0
  0
VERTEX
  5
458C
  8
0
 10
218.6972948653324
 20
92.485049849118596
 30
0.0
 42
0.2770100220963358
  0
VERTEX
  5
458D
  8
0
 10
217.25326585107649
 20
84.722514743145155
 30
0.0
 42
-0.1940442857277115
  0
VERTEX
  5
458E
  8
0
 10
216.09455173903709
 20
82.394906626350675
 30
0.0
 42
-0.1940442857277115
  0
SEQEND
  5
458F
  8
0
  0
POLYLINE
  5
4590
  8
0
 66
     1
 10
0.0
 20
0.0
 30
0.0
  0
VERTEX
  5
4591
  8
0
 10
205.73095524255041
 20
80.991023998678429
 30
0.0
 42
-0.2770100220963358
  0
VERTEX
  5
4592
  8
0
 10
213.61065513087951
 20
81.49351851143507
 30
0.0
 42
0.1940442857277115
  0
VERTEX
  5
4593
  8
0
 10
216.06044468454121
 20
82.364672390825277
 30
0.0
 42
0.1940442857277115
  0
SEQEND
  5
4594
  8
0
  0
POLYLINE
  5
4595
  8
0
 66
     1
 10
0.0
 20
0.0
 30
0.0
  0
VERTEX
  5
4596
  8
0
 10
214.96416470214189
 20
83.602116685079338
 30
0.0
 42
0.2230591094557833
  0
VERTEX
  5
4597
  8
0
 10
215.57727783617631
 20
85.024891396045106
 30
0.0
  0
VERTEX
  5
4598
  8
0
 10
215.44826558889039
 20
89.048626487915385
 30
0.0
 42
-0.0138643006725583
  0
VERTEX
  5
4599
  8
0
 10
212.54672679223569
 20
86.330840000614103
 30
0.0
  0
SEQEND
  5
459A
  8
0
  0
POLYLINE
  5
459B
  8
0
 66
     1
 10
0.0
 20
0.0
 30
0.0
  0
VERTEX
  5
459C
  8
0
 10
227.0345185720814
 20
97.234856456264893
 30
0.0
 42
-0.2230591094557833
  0
VERTEX
  5
459D
  8
0
 10
225.6964821337819
 20
96.453924908002136
 30
0.0
  0
VERTEX
  5
459E
  8
0
 10
221.68674587623701
 20
96.094615299964318
 30
0.0
 42
0.0138643006725583
  0
VERTEX
  5
459F
  8
0
 10
224.03307548155979
 20
99.303980994651795
 30
0.0
  0
SEQEND
  5
45A0
  8
0
  0
POLYLINE
  5
45A1
  8
0
 66
     1
 10
0.0
 20
0.0
 30
0.0
  0
VERTEX
  5
45A2
  8
0
 10
228.50802092635681
 20
106.7163517367368
 30
0.0
 42
0.2770100220963358
  0
VERTEX
  5
45A3
  8
0
 10
228.96364901628081
 20
98.833803030312254
 30
0.0
 42
-0.1940442857277115
  0
VERTEX
  5
45A4
  8
0
 10
228.39563811313181
 20
96.296532537694105
 30
0.0
 42
-0.1940442857277115
  0
SEQEND
  5
45A5
  8
0
  0
POLYLINE
  5
45A6
  8
0
 66
     1
 10
0.0
 20
0.0
 30
0.0
  0
VERTEX
  5
45A7
  8
0
 10
218.66915999938601
 20
92.453273207764198
 30
0.0
 42
-0.2770100220963358
  0
VERTEX
  5
45A8
  8
0
 10
226.1996353216108
 20
94.826901756388878
 30
0.0
 42
0.1940442857277115
  0
VERTEX
  5
45A9
  8
0
 10
228.36975767381159
 20
96.259014501701003
 30
0.0
 42
0.1940442857277115
  0
SEQEND
  5
45AA
  8
0
  0
POLYLINE
  5
45AB
  8
0
 66
     1
 10
0.0
 20
0.0
 30
0.0
  0
VERTEX
  5
45AC
  8
0
 10
227.00919379199479
 20
97.198143941494479
 30
0.0
 42
0.2230591094557833
  0
VERTEX
  5
45AD
  8
0
 10
227.26399869755551
 20
98.726302982102339
 30
0.0
  0
VERTEX
  5
45AE
  8
0
 10
226.17579247527749
 20
102.6022409933834
 30
0.0
 42
-0.0138643006725583
  0
VERTEX
  5
45AF
  8
0
 10
224.0089760013216
 20
99.269044757449507
 30
0.0
  0
SEQEND
  5
45B0
  8
0
  0
POLYLINE
  5
45B1
  8
0
 66
     1
 10
0.0
 20
0.0
 30
0.0
  0
VERTEX
  5
45B2
  8
0
 10
235.4662769410487
 20
113.3233658259964
 30
0.0
 42
-0.2230591094557833
  0
VERTEX
  5
45B3
  8
0
 10
234.35401056209949
 20
112.2449136501682
 30
0.0
  0
VERTEX
  5
45B4
  8
0
 10
230.54677837033211
 20
110.93645223022909
 30
0.0
 42
0.0138643006725583
  0
VERTEX
  5
45B5
  8
0
 10
232.056876418439
 20
114.6140730187491
 30
0.0
  0
SEQEND
  5
45B6
  8
0
  0
POLYLINE
  5
45B7
  8
0
 66
     1
 10
0.0
 20
0.0
 30
0.0
  0
VERTEX
  5
45B8
  8
0
 10
234.6278916534049
 20
122.881978280277
 30
0.0
 42
0.2770100220963358
  0
VERTEX
  5
45B9
  8
0
 10
236.9566973990631
 20
115.33752105232
 30
0.0
 42
-0.1940442857277115
  0
VERTEX
  5
45BA
  8
0
 10
237.01240043385991
 20
112.7380451223062
 30
0.0
 42
-0.1940442857277115
  0
SEQEND
  5
45BB
  8
0
  0
POLYLINE
  5
45BC
  8
0
 66
     1
 10
0.0
 20
0.0
 30
0.0
  0
VERTEX
  5
45BD
  8
0
 10
228.48830825651621
 20
106.6787653526949
 30
0.0
 42
-0.2770100220963358
  0
VERTEX
  5
45BE
  8
0
 10
235.23191515907331
 20
110.7855812737302
 30
0.0
 42
0.1940442857277115
  0
VERTEX
  5
45BF
  8
0
 10
236.99625068677699
 20
112.69542369772481
 30
0.0
 42
0.1940442857277115
  0
SEQEND
  5
45C0
  8
0
  0
POLYLINE
  5
45C1
  8
0
 66
     1
 10
0.0
 20
0.0
 30
0.0
  0
VERTEX
  5
45C2
  8
0
 10
235.45047393290531
 20
113.2816594936136
 30
0.0
 42
0.2230591094557833
  0
VERTEX
  5
45C3
  8
0
 10
235.33216227505949
 20
114.8263918150554
 30
0.0
  0
VERTEX
  5
45C4
  8
0
 10
233.34800466795949
 20
118.329277316993
 30
0.0
 42
-0.0138643006725583
  0
VERTEX
  5
45C5
  8
0
 10
232.04183801411131
 20
114.57438458198379
 30
0.0
  0
SEQEND
  5
45C6
  8
0
  0
POLYLINE
  5
45C7
  8
0
 66
     1
 10
0.0
 20
0.0
 30
0.0
  0
VERTEX
  5
45C8
  8
0
 10
239.80279142869699
 20
130.962224208301
 30
0.0
 42
-0.2230591094557833
  0
VERTEX
  5
45C9
  8
0
 10
238.98093598811889
 20
129.6489271253524
 30
0.0
  0
VERTEX
  5
45CA
  8
0
 10
235.59747035838879
 20
127.4673569151751
 30
0.0
 42
0.0138643006725583
  0
VERTEX
  5
45CB
  8
0
 10
236.1835754397068
 20
131.39950284490661
 30
0.0
  0
SEQEND
  5
45CC
  8
0
  0
POLYLINE
  5
45CD
  8
0
 66
     1
 10
0.0
 20
0.0
 30
0.0
  0
VERTEX
  5
45CE
  8
0
 10
236.7012424046454
 20
140.04244202469019
 30
0.0
 42
0.2770100220963358
  0
VERTEX
  5
45CF
  8
0
 10
240.76788408096471
 20
133.2745327063034
 30
0.0
 42
-0.1940442857277115
  0
VERTEX
  5
45D0
  8
0
 10
241.44406379579729
 20
130.7639234312357
 30
0.0
 42
-0.1940442857277115
  0
SEQEND
  5
45D1
  8
0
  0
POLYLINE
  5
45D2
  8
0
 66
     1
 10
0.0
 20
0.0
 30
0.0
  0
VERTEX
  5
45D3
  8
0
 10
234.61774680838869
 20
122.84076653756711
 30
0.0
 42
-0.2770100220963358
  0
VERTEX
  5
45D4
  8
0
 10
240.18257137011491
 20
128.4420966173509
 30
0.0
 42
0.1940442857277115
  0
VERTEX
  5
45D5
  8
0
 10
241.43858330555011
 20
130.71867562034021
 30
0.0
 42
0.1940442857277115
  0
SEQEND
  5
45D6
  8
0
  0
POLYLINE
  5
45D7
  8
0
 66
     1
 10
0.0
 20
0.0
 30
0.0
  0
VERTEX
  5
45D8
  8
0
 10
239.79742860588871
 20
130.9179478787475
 30
0.0
 42
0.2230591094557833
  0
VERTEX
  5
45D9
  8
0
 10
239.31287622814489
 20
132.3894792533747
 30
0.0
  0
VERTEX
  5
45DA
  8
0
 10
236.54807926422811
 20
135.31573727306699
 30
0.0
 42
-0.0138643006725583
  0
VERTEX
  5
45DB
  8
0
 10
236.17847208868659
 20
131.35736875626131
 30
0.0
  0
SEQEND
  5
45DC
  8
0
  0
POLYLINE
  5
45DD
  8
0
 66
     1
 10
0.0
 20
0.0
 30
0.0
  0
VERTEX
  5
45DE
  8
0
 10
239.79203957559361
 20
149.1263252686407
 30
0.0
 42
-0.2230591094557833
  0
VERTEX
  5
45DF
  8
0
 10
239.30835832426999
 20
147.65450733139201
 30
0.0
  0
VERTEX
  5
45E0
  8
0
 10
236.54529398057969
 20
144.72661326190689
 30
0.0
 42
0.0138643006725583
  0
VERTEX
  5
45E1
  8
0
 10
236.173343798188
 20
148.6847623041827
 30
0.0
  0
SEQEND
  5
45E2
  8
0
  0
POLYLINE
  5
45E3
  8
0
 66
     1
 10
0.0
 20
0.0
 30
0.0
  0
VERTEX
  5
45E4
  8
0
 10
234.60757757074001
 20
157.2004391928987
 30
0.0
 42
0.2770100220963358
  0
VERTEX
  5
45E5
  8
0
 10
240.17571674513371
 20
151.6024040733173
 30
0.0
 42
-0.1940442857277115
  0
VERTEX
  5
45E6
  8
0
 10
241.43307603278919
 20
149.32656893856941
 30
0.0
 42
-0.1940442857277115
  0
SEQEND
  5
45E7
  8
0
  0
POLYLINE
  5
45E8
  8
0
 66
     1
 10
0.0
 20
0.0
 30
0.0
  0
VERTEX
  5
45E9
  8
0
 10
236.70125496597109
 20
139.99999999999989
 30
0.0
 42
-0.2770100220963358
  0
VERTEX
  5
45EA
  8
0
 10
240.76388981065361
 20
146.77031529430161
 30
0.0
 42
0.1940442857277115
  0
VERTEX
  5
45EB
  8
0
 10
241.43858330555031
 20
149.28132437965979
 30
0.0
 42
0.1940442857277115
  0
SEQEND
  5
45EC
  8
0
  0
POLYLINE
  5
45ED
  8
0
 66
     1
 10
0.0
 20
0.0
 30
0.0
  0
VERTEX
  5
45EE
  8
0
 10
239.79742860588891
 20
149.0820521212523
 30
0.0
 42
0.2230591094557833
  0
VERTEX
  5
45EF
  8
0
 10
238.97479593116529
 20
150.39486249437039
 30
0.0
  0
VERTEX
  5
45F0
  8
0
 10
235.5900395603463
 20
152.574429552228
 30
0.0
 42
-0.0138643006725583
  0
VERTEX
  5
45F1
  8
0
 10
236.17847208868679
 20
148.64263124373849
 30
0.0
  0
SEQEND
  5
45F2
  8
0
  0
POLYLINE
  5
45F3
  8
0
 66
     1
 10
0.0
 20
0.0
 30
0.0
  0
VERTEX
  5
45F4
  8
0
 10
235.43464624035889
 20
166.76003747721001
 30
0.0
 42
-0.2230591094557833
  0
VERTEX
  5
45F5
  8
0
 10
235.31724897450681
 20
165.2152353943334
 30
0.0
  0
VERTEX
  5
45F6
  8
0
 10
233.33516517318159
 20
161.7111760263972
 30
0.0
 42
0.0138643006725583
  0
VERTEX
  5
45F7
  8
0
 10
232.02677611969671
 20
165.46529494616669
 30
0.0
  0
SEQEND
  5
45F8
  8
0
  0
POLYLINE
  5
45F9
  8
0
 66
     1
 10
0.0
 20
0.0
 30
0.0
  0
VERTEX
  5
45FA
  8
0
 10
228.46857334167291
 20
173.35880935626889
 30
0.0
 42
0.2770100220963358
  0
VERTEX
  5
45FB
  8
0
 10
235.21461000468759
 20
169.25598588861331
 30
0.0
 42
-0.1940442857277115
  0
VERTEX
  5
45FC
  8
0
 10
236.98007571368251
 20
167.34718815989231
 30
0.0
 42
-0.1940442857277115
  0
SEQEND
  5
45FD
  8
0
  0
POLYLINE
  5
45FE
  8
0
 66
     1
 10
0.0
 20
0.0
 30
0.0
  0
VERTEX
  5
45FF
  8
0
 10
234.6177468083888
 20
157.15923346243301
 30
0.0
 42
-0.2770100220963358
  0
VERTEX
  5
4600
  8
0
 10
236.942086365931
 20
164.70506785544259
 30
0.0
 42
0.1940442857277115
  0
VERTEX
  5
4601
  8
0
 10
236.99625068677699
 20
167.30457630227531
 30
0.0
 42
0.1940442857277115
  0
SEQEND
  5
4602
  8
0
  0
POLYLINE
  5
4603
  8
0
 66
     1
 10
0.0
 20
0.0
 30
0.0
  0
VERTEX
  5
4604
  8
0
 10
235.45047393290531
 20
166.7183405063864
 30
0.0
 42
0.2230591094557833
  0
VERTEX
  5
4605
  8
0
 10
234.33756938210891
 20
167.7961341109814
 30
0.0
  0
VERTEX
  5
4606
  8
0
 10
230.52956334157091
 20
169.1023416920055
 30
0.0
 42
-0.0138643006725583
  0
VERTEX
  5
4607
  8
0
 10
232.04183801411131
 20
165.42561541801621
 30
0.0
  0
SEQEND
  5
4608
  8
0
  0
POLYLINE
  5
4609
  8
0
 66
     1
 10
0.0
 20
0.0
 30
0.0
  0
VERTEX
  5
460A
  8
0
 10
226.9838472851566
 20
182.83855357638211
 30
0.0
 42
-0.2230591094557833
  0
VERTEX
  5
460B
  8
0
 10
227.23955670714579
 20
181.31054562980751
 30
0.0
  0
VERTEX
  5
460C
  8
0
 10
226.15364495413701
 20
177.4339641571469
 30
0.0
 42
0.0138643006725583
  0
VERTEX
  5
460D
  8
0
 10
223.984855845547
 20
180.7658772084601
 30
0.0
  0
SEQEND
  5
460E
  8
0
  0
POLYLINE
  5
460F
  8
0
 66
     1
 10
0.0
 20
0.0
 30
0.0
  0
VERTEX
  5
4610
  8
0
 10
218.64100632886499
 20
187.57848677419091
 30
0.0
 42
0.2770100220963358
  0
VERTEX
  5
4611
  8
0
 10
226.17288535049181
 20
185.20931614524471
 30
0.0
 42
-0.1940442857277115
  0
VERTEX
  5
4612
  8
0
 10
228.34385503102621
 20
183.77848820834669
 30
0.0
 42
-0.1940442857277115
  0
SEQEND
  5
4613
  8
0
  0
POLYLINE
  5
4614
  8
0
 66
     1
 10
0.0
 20
0.0
 30
0.0
  0
VERTEX
  5
4615
  8
0
 10
228.48830825651621
 20
173.3212346473052
 30
0.0
 42
-0.2770100220963358
  0
VERTEX
  5
4616
  8
0
 10
228.9392703604646
 20
181.2040516720931
 30
0.0
 42
0.1940442857277115
  0
VERTEX
  5
4617
  8
0
 10
228.36975767381159
 20
183.74098549829901
 30
0.0
 42
0.1940442857277115
  0
SEQEND
  5
4618
  8
0
  0
POLYLINE
  5
4619
  8
0
 66
     1
 10
0.0
 20
0.0
 30
0.0
  0
VERTEX
  5
461A
  8
0
 10
227.00919379199479
 20
182.80185605850551
 30
0.0
 42
0.2230591094557833
  0
VERTEX
  5
461B
  8
0
 10
225.67069533237421
 20
183.58199544789849
 30
0.0
  0
VERTEX
  5
461C
  8
0
 10
221.66074709165471
 20
183.9389315153515
 30
0.0
 42
-0.0138643006725583
  0
VERTEX
  5
461D
  8
0
 10
224.00897600132171
 20
180.73095524255041
 30
0.0
  0
SEQEND
  5
461E
  8
0
  0
POLYLINE
  5
461F
  8
0
 66
     1
 10
0.0
 20
0.0
 30
0.0
  0
VERTEX
  5
4620
  8
0
 10
214.9307724278589
 20
196.42744865350139
 30
0.0
 42
-0.2230591094557833
  0
VERTEX
  5
4621
  8
0
 10
215.54472763554929
 20
195.0050371110008
 30
0.0
  0
VERTEX
  5
4622
  8
0
 10
215.41809717481311
 20
190.9812263580065
 30
0.0
 42
0.0138643006725583
  0
VERTEX
  5
4623
  8
0
 10
212.51495015088139
 20
193.69729486533231
 30
0.0
  0
SEQEND
  5
4624
  8
0
  0
POLYLINE
  5
4625
  8
0
 66
     1
 10
0.0
 20
0.0
 30
0.0
  0
VERTEX
  5
4626
  8
0
 10
205.6960190053484
 20
199.03307548155959
 30
0.0
 42
0.2770100220963358
  0
VERTEX
  5
4627
  8
0
 10
213.5760149541168
 20
198.53524527669219
 30
0.0
 42
-0.1940442857277115
  0
VERTEX
  5
4628
  8
0
 10
216.02631973951159
 20
197.66554165046179
 30
0.0
 42
-0.1940442857277115
  0
SEQEND
  5
4629
  8
0
  0
POLYLINE
  5
462A
  8
0
 66
     1
 10
0.0
 20
0.0
 30
0.0
  0
VERTEX
  5
462B
  8
0
 10
218.66915999938601
 20
187.54672679223569
 30
0.0
 42
-0.2770100220963358
  0
VERTEX
  5
462C
  8
0
 10
217.22053637143949
 20
195.3084057761952
 30
0.0
 42
0.1940442857277115
  0
VERTEX
  5
462D
  8
0
 10
216.06044468454141
 20
197.63532760917471
 30
0.0
 42
0.1940442857277115
  0
SEQEND
  5
462E
  8
0
  0
POLYLINE
  5
462F
  8
0
 66
     1
 10
0.0
 20
0.0
 30
0.0
  0
VERTEX
  5
4630
  8
0
 10
214.9641647021422
 20
196.39788331492059
 30
0.0
 42
0.2230591094557833
  0
VERTEX
  5
4631
  8
0
 10
213.47786099892659
 20
196.83502962349149
 30
0.0
  0
VERTEX
  5
4632
  8
0
 10
209.49901417420739
 20
196.22195035054261
 30
0.0
 42
-0.0138643006725583
  0
VERTEX
  5
4633
  8
0
 10
212.54672679223589
 20
193.66915999938581
 30
0.0
  0
SEQEND
  5
4634
  8
0
  0
POLYLINE
  5
4635
  8
0
 66
     1
 10
0.0
 20
0.0
 30
0.0
  0
VERTEX
  5
4636
  8
0
 10
199.97590256802721
 20
206.7369855203099
 30
0.0
 42
-0.2230591094557833
  0
VERTEX
  5
4637
  8
0
 10
200.9124227163841
 20
205.50283577047759
 30
0.0
  0
VERTEX
  5
4638
  8
0
 10
201.75243285001571
 20
201.56564499215679
 30
0.0
 42
0.0138643006725583
  0
VERTEX
  5
4639
  8
0
 10
198.2836482632633
 20
203.50802092635681
 30
0.0
  0
SEQEND
  5
463A
  8
0
  0
POLYLINE
  5
463B
  8
0
 66
     1
 10
0.0
 20
0.0
 30
0.0
  0
VERTEX
  5
463C
  8
0
 10
190.38592698125109
 20
207.0568764184388
 30
0.0
 42
0.2770100220963358
  0
VERTEX
  5
463D
  8
0
 10
198.15608313523839
 20
208.4593187196181
 30
0.0
 42
-0.1940442857277115
  0
VERTEX
  5
463E
  8
0
 10
200.74332021786199
 20
208.20128341756771
 30
0.0
 42
-0.1940442857277115
  0
SEQEND
  5
463F
  8
0
  0
POLYLINE
  5
4640
  8
0
 66
     1
 10
0.0
 20
0.0
 30
0.0
  0
VERTEX
  5
4641
  8
0
 10
205.73095524255061
 20
199.00897600132151
 30
0.0
 42
-0.2770100220963358
  0
VERTEX
  5
4642
  8
0
 10
202.4669346224328
 20
206.1984363744601
 30
0.0
 42
0.1940442857277115
  0
VERTEX
  5
4643
  8
0
 10
200.7836842473703
 20
208.1801139752971
 30
0.0
 42
0.1940442857277115
  0
SEQEND
  5
4644
  8
0
  0
POLYLINE
  5
4645
  8
0
 66
     1
 10
0.0
 20
0.0
 30
0.0
  0
VERTEX
  5
4646
  8
0
 10
200.01539997215011
 20
206.7162705910375
 30
0.0
 42
0.2230591094557833
  0
VERTEX
  5
4647
  8
0
 10
198.4676695940764
 20
206.78501846429441
 30
0.0
  0
VERTEX
  5
4648
  8
0
 10
194.75116030029031
 20
205.237553789835
 30
0.0
 42
-0.0138643006725583
  0
VERTEX
  5
4649
  8
0
 10
198.32123464730529
 20
203.48830825651621
 30
0.0
  0
SEQEND
  5
464A
  8
0
  0
POLYLINE
  5
464B
  8
0
 66
     1
 10
0.0
 20
0.0
 30
0.0
  0
VERTEX
  5
464C
  8
0
 10
182.98836038317481
 20
213.1680113677501
 30
0.0
 42
-0.2230591094557833
  0
VERTEX
  5
464D
  8
0
 10
184.19301832528791
 20
212.19384770809481
 30
0.0
  0
VERTEX
  5
464E
  8
0
 10
185.95085071763319
 20
208.57209212137721
 30
0.0
 42
0.0138643006725583
  0
VERTEX
  5
464F
  8
0
 10
182.11802171972309
 20
209.62789165340479
 30
0.0
  0
SEQEND
  5
4650
  8
0
  0
POLYLINE
  5
4651
  8
0
 66
     1
 10
0.0
 20
0.0
 30
0.0
  0
VERTEX
  5
4652
  8
0
 10
173.60049715509371
 20
211.18357543970669
 30
0.0
 42
0.2770100220963358
  0
VERTEX
  5
4653
  8
0
 10
180.8092402819986
 20
214.40478539805841
 30
0.0
 42
-0.1940442857277115
  0
VERTEX
  5
4654
  8
0
 10
183.38304884683299
 20
214.77341449402289
 30
0.0
 42
-0.1940442857277115
  0
SEQEND
  5
4655
  8
0
  0
POLYLINE
  5
4656
  8
0
 66
     1
 10
0.0
 20
0.0
 30
0.0
  0
VERTEX
  5
4657
  8
0
 10
190.42561541801641
 20
207.04183801411119
 30
0.0
 42
-0.2770100220963358
  0
VERTEX
  5
4658
  8
0
 10
185.5358908199363
 20
213.24125447216721
 30
0.0
 42
0.1940442857277115
  0
VERTEX
  5
4659
  8
0
 10
183.4273061501421
 20
214.762519941806
 30
0.0
 42
0.1940442857277115
  0
SEQEND
  5
465A
  8
0
  0
POLYLINE
  5
465B
  8
0
 66
     1
 10
0.0
 20
0.0
 30
0.0
  0
VERTEX
  5
465C
  8
0
 10
183.03166747157681
 20
213.15735072417979
 30
0.0
 42
0.2230591094557833
  0
VERTEX
  5
465D
  8
0
 10
181.5124588824477
 20
212.85370478561731
 30
0.0
  0
VERTEX
  5
465E
  8
0
 10
178.27427713078811
 20
210.4617877317219
 30
0.0
 42
-0.0138643006725583
  0
VERTEX
  5
465F
  8
0
 10
182.15923346243309
 20
209.6177468083886
 30
0.0
  0
SEQEND
  5
4660
  8
0
  0
POLYLINE
  5
4661
  8
0
 66
     1
 10
0.0
 20
0.0
 30
0.0
  0
VERTEX
  5
4662
  8
0
 10
164.95540007788179
 20
215.3467783493968
 30
0.0
 42
-0.2230591094557833
  0
VERTEX
  5
4663
  8
0
 10
166.35818547290901
 20
214.6892156308767
 30
0.0
  0
VERTEX
  5
4664
  8
0
 10
168.93168129478559
 20
211.59337850591649
 30
0.0
 42
0.0138643006725583
  0
VERTEX
  5
4665
  8
0
 10
164.95755797530981
 20
211.7012424046456
 30
0.0
  0
SEQEND
  5
4666
  8
0
  0
POLYLINE
  5
4667
  8
0
 66
     1
 10
0.0
 20
0.0
 30
0.0
  0
VERTEX
  5
4668
  8
0
 10
156.3152376958173
 20
211.1733437981878
 30
0.0
 42
0.2770100220963358
  0
VERTEX
  5
4669
  8
0
 10
162.54362184781931
 20
216.0261163995543
 30
0.0
 42
-0.1940442857277115
  0
VERTEX
  5
466A
  8
0
 10
164.95442149649011
 20
216.9999865103886
 30
0.0
 42
-0.1940442857277115
  0
SEQEND
  5
466B
  8
0
  0
POLYLINE
  5
466C
  8
0
 66
     1
 10
0.0
 20
0.0
 30
0.0
  0
VERTEX
  5
466D
  8
0
 10
173.6426312437388
 20
211.17847208868679
 30
0.0
 42
-0.2770100220963358
  0
VERTEX
  5
466E
  8
0
 10
167.4113756879112
 20
216.02755708107989
 30
0.0
 42
0.1940442857277115
  0
VERTEX
  5
466F
  8
0
 10
165.00000000000011
 20
217.0
 30
0.0
 42
0.1940442857277115
  0
SEQEND
  5
4670
  8
0
  0
POLYLINE
  5
4671
  8
0
 66
     1
 10
0.0
 20
0.0
 30
0.0
  0
VERTEX
  5
4672
  8
0
 10
165.00000000000011
 20
215.346791549383
 30
0.0
 42
0.2230591094557833
  0
VERTEX
  5
4673
  8
0
 10
163.59760408091711
 20
214.6883985972423
 30
0.0
  0
VERTEX
  5
4674
  8
0
 10
161.02594122447849
 20
211.59103868881849
 30
0.0
 42
-0.0138643006725583
  0
VERTEX
  5
4675
  8
0
 10
165.0000000000002
 20
211.70125496597109
 30
0.0
  0
SEQEND
  5
4676
  8
0
  0
POLYLINE
  5
4677
  8
0
 66
     1
 10
0.0
 20
0.0
 30
0.0
  0
VERTEX
  5
4678
  8
0
 10
146.92503175794829
 20
213.14666444777231
 30
0.0
 42
-0.2230591094557833
  0
VERTEX
  5
4679
  8
0
 10
148.44441981764811
 20
212.84391782544461
 30
0.0
  0
VERTEX
  5
467A
  8
0
 10
151.68401684616529
 20
210.4539179630344
 30
0.0
 42
0.0138643006725583
  0
VERTEX
  5
467B
  8
0
 10
147.79956080710119
 20
209.60757757074001
 30
0.0
  0
SEQEND
  5
467C
  8
0
  0
POLYLINE
  5
467D
  8
0
 66
     1
 10
0.0
 20
0.0
 30
0.0
  0
VERTEX
  5
467E
  8
0
 10
139.53470505383359
 20
207.02677611969671
 30
0.0
 42
0.2770100220963358
  0
VERTEX
  5
467F
  8
0
 10
144.42075918327359
 20
213.2290858595974
 30
0.0
 42
-0.1940442857277115
  0
VERTEX
  5
4680
  8
0
 10
146.52844300309991
 20
214.75159919433349
 30
0.0
 42
-0.1940442857277115
  0
SEQEND
  5
4681
  8
0
  0
POLYLINE
  5
4682
  8
0
 66
     1
 10
0.0
 20
0.0
 30
0.0
  0
VERTEX
  5
4683
  8
0
 10
156.35736875626151
 20
211.17847208868679
 30
0.0
 42
-0.2770100220963358
  0
VERTEX
  5
4684
  8
0
 10
149.14672016589881
 20
214.39541442136581
 30
0.0
 42
0.1940442857277115
  0
VERTEX
  5
4685
  8
0
 10
146.57269384985821
 20
214.76251994180609
 30
0.0
 42
0.1940442857277115
  0
SEQEND
  5
4686
  8
0
  0
POLYLINE
  5
4687
  8
0
 66
     1
 10
0.0
 20
0.0
 30
0.0
  0
VERTEX
  5
4688
  8
0
 10
146.9683325284235
 20
213.15735072417991
 30
0.0
 42
0.2230591094557833
  0
VERTEX
  5
4689
  8
0
 10
145.7642514327018
 20
212.18247416367839
 30
0.0
  0
VERTEX
  5
468A
  8
0
 10
144.00856316908639
 20
208.5596787001584
 30
0.0
 42
-0.0138643006725583
  0
VERTEX
  5
468B
  8
0
 10
147.84076653756719
 20
209.6177468083888
 30
0.0
  0
SEQEND
  5
468C
  8
0
  0
POLYLINE
  5
468D
  8
0
 66
     1
 10
0.0
 20
0.0
 30
0.0
  0
VERTEX
  5
468E
  8
0
 10
129.94511489240639
 20
206.69553228575049
 30
0.0
 42
-0.2230591094557833
  0
VERTEX
  5
468F
  8
0
 10
131.49280430549999
 20
206.7651962928658
 30
0.0
  0
VERTEX
  5
4690
  8
0
 10
135.21022893681641
 20
205.21993179771269
 30
0.0
 42
0.0138643006725583
  0
VERTEX
  5
4691
  8
0
 10
131.64119064373119
 20
203.46857334167291
 30
0.0
  0
SEQEND
  5
4692
  8
0
  0
POLYLINE
  5
4693
  8
0
 66
     1
 10
0.0
 20
0.0
 30
0.0
  0
VERTEX
  5
4694
  8
0
 10
124.2341227915402
 20
198.984855845547
 30
0.0
 42
0.2770100220963358
  0
VERTEX
  5
4695
  8
0
 10
127.4938871924992
 20
206.1762470263773
 30
0.0
 42
-0.1940442857277115
  0
VERTEX
  5
4696
  8
0
 10
129.1759642609918
 20
208.1589206441113
 30
0.0
 42
-0.1940442857277115
  0
SEQEND
  5
4697
  8
0
  0
POLYLINE
  5
4698
  8
0
 66
     1
 10
0.0
 20
0.0
 30
0.0
  0
VERTEX
  5
4699
  8
0
 10
139.57438458198399
 20
207.04183801411131
 30
0.0
 42
-0.2770100220963358
  0
VERTEX
  5
469A
  8
0
 10
131.80339964351671
 20
208.43968069181079
 30
0.0
 42
0.1940442857277115
  0
VERTEX
  5
469B
  8
0
 10
129.21631575263001
 20
208.1801139752973
 30
0.0
 42
0.1940442857277115
  0
SEQEND
  5
469C
  8
0
  0
POLYLINE
  5
469D
  8
0
 66
     1
 10
0.0
 20
0.0
 30
0.0
  0
VERTEX
  5
469E
  8
0
 10
129.98460002785029
 20
206.7162705910377
 30
0.0
 42
0.2230591094557833
  0
VERTEX
  5
469F
  8
0
 10
129.04881057211679
 20
205.4815667043396
 30
0.0
  0
VERTEX
  5
46A0
  8
0
 10
128.2111311215387
 20
201.54387938973761
 30
0.0
 42
-0.0138643006725583
  0
VERTEX
  5
46A1
  8
0
 10
131.67876535269511
 20
203.48830825651629
 30
0.0
  0
SEQEND
  5
46A2
  8
0
  0
POLYLINE
  5
46A3
  8
0
 66
     1
 10
0.0
 20
0.0
 30
0.0
  0
VERTEX
  5
46A4
  8
0
 10
115.0024605299951
 20
196.36829821567679
 30
0.0
 42
-0.2230591094557833
  0
VERTEX
  5
46A5
  8
0
 10
116.48850521341549
 20
196.8063242333597
 30
0.0
  0
VERTEX
  5
46A6
  8
0
 10
120.4677142402477
 20
196.19560026111441
 30
0.0
 42
0.0138643006725583
  0
VERTEX
  5
46A7
  8
0
 10
117.42151322580931
 20
193.6410063288651
 30
0.0
  0
SEQEND
  5
46A8
  8
0
  0
POLYLINE
  5
46A9
  8
0
 66
     1
 10
0.0
 20
0.0
 30
0.0
  0
VERTEX
  5
46AA
  8
0
 10
111.3027051346679
 20
187.51495015088159
 30
0.0
 42
0.2770100220963358
  0
VERTEX
  5
46AB
  8
0
 10
112.74673414892369
 20
195.27748525685499
 30
0.0
 42
-0.1940442857277115
  0
VERTEX
  5
46AC
  8
0
 10
113.9054482609631
 20
197.60509337364951
 30
0.0
 42
-0.1940442857277115
  0
SEQEND
  5
46AD
  8
0
  0
POLYLINE
  5
46AE
  8
0
 66
     1
 10
0.0
 20
0.0
 30
0.0
  0
VERTEX
  5
46AF
  8
0
 10
124.26904475744981
 20
199.0089760013218
 30
0.0
 42
-0.2770100220963358
  0
VERTEX
  5
46B0
  8
0
 10
116.38934486912081
 20
198.5064814885651
 30
0.0
 42
0.1940442857277115
  0
VERTEX
  5
46B1
  8
0
 10
113.939555315459
 20
197.63532760917499
 30
0.0
 42
0.1940442857277115
  0
SEQEND
  5
46B2
  8
0
  0
POLYLINE
  5
46B3
  8
0
 66
     1
 10
0.0
 20
0.0
 30
0.0
  0
VERTEX
  5
46B4
  8
0
 10
115.0358352978583
 20
196.3978833149209
 30
0.0
 42
0.2230591094557833
  0
VERTEX
  5
46B5
  8
0
 10
114.42272216382391
 20
194.97510860395511
 30
0.0
  0
VERTEX
  5
46B6
  8
0
 10
114.55173441110971
 20
190.95137351208481
 30
0.0
 42
-0.0138643006725583
  0
VERTEX
  5
46B7
  8
0
 10
117.4532732077645
 20
193.6691599993861
 30
0.0
  0
SEQEND
  5
46B8
  8
0
  0
POLYLINE
  5
46B9
  8
0
 66
     1
 10
0.0
 20
0.0
 30
0.0
  0
VERTEX
  5
46BA
  8
0
 10
102.9654814279188
 20
182.76514354373529
 30
0.0
 42
-0.2230591094557833
  0
VERTEX
  5
46BB
  8
0
 10
104.3035178662182
 20
183.54607509199801
 30
0.0
  0
VERTEX
  5
46BC
  8
0
 10
108.3132541237632
 20
183.90538470003571
 30
0.0
 42
0.0138643006725583
  0
VERTEX
  5
46BD
  8
0
 10
105.96692451844039
 20
180.6960190053484
 30
0.0
  0
SEQEND
  5
46BE
  8
0
  0
POLYLINE
  5
46BF
  8
0
 66
     1
 10
0.0
 20
0.0
 30
0.0
  0
VERTEX
  5
46C0
  8
0
 10
101.49197907364341
 20
173.28364826326339
 30
0.0
 42
0.2770100220963358
  0
VERTEX
  5
46C1
  8
0
 10
101.0363509837194
 20
181.166196969688
 30
0.0
 42
-0.1940442857277115
  0
VERTEX
  5
46C2
  8
0
 10
101.6043618868683
 20
183.70346746230609
 30
0.0
 42
-0.1940442857277115
  0
SEQEND
  5
46C3
  8
0
  0
POLYLINE
  5
46C4
  8
0
 66
     1
 10
0.0
 20
0.0
 30
0.0
  0
VERTEX
  5
46C5
  8
0
 10
111.3308400006142
 20
187.546726792236
 30
0.0
 42
-0.2770100220963358
  0
VERTEX
  5
46C6
  8
0
 10
103.8003646783894
 20
185.17309824361129
 30
0.0
 42
0.1940442857277115
  0
VERTEX
  5
46C7
  8
0
 10
101.63024232618859
 20
183.7409854982991
 30
0.0
 42
0.1940442857277115
  0
SEQEND
  5
46C8
  8
0
  0
POLYLINE
  5
46C9
  8
0
 66
     1
 10
0.0
 20
0.0
 30
0.0
  0
VERTEX
  5
46CA
  8
0
 10
102.99080620800549
 20
182.80185605850559
 30
0.0
 42
0.2230591094557833
  0
VERTEX
  5
46CB
  8
0
 10
102.73600130244461
 20
181.2736970178978
 30
0.0
  0
VERTEX
  5
46CC
  8
0
 10
103.8242075247226
 20
177.39775900661681
 30
0.0
 42
-0.0138643006725583
  0
VERTEX
  5
46CD
  8
0
 10
105.9910239986785
 20
180.73095524255061
 30
0.0
  0
SEQEND
  5
46CE
  8
0
  0
POLYLINE
  5
46CF
  8
0
 66
     1
 10
0.0
 20
0.0
 30
0.0
  0
VERTEX
  5
46D0
  8
0
 10
94.533723058951523
 20
166.67663417400391
 30
0.0
 42
-0.2230591094557833
  0
VERTEX
  5
46D1
  8
0
 10
95.645989437900639
 20
167.755086349832
 30
0.0
  0
VERTEX
  5
46D2
  8
0
 10
99.453221629668008
 20
169.06354776977111
 30
0.0
 42
0.0138643006725583
  0
VERTEX
  5
46D3
  8
0
 10
97.943123581561167
 20
165.3859269812512
 30
0.0
  0
SEQEND
  5
46D4
  8
0
  0
POLYLINE
  5
46D5
  8
0
 66
     1
 10
0.0
 20
0.0
 30
0.0
  0
VERTEX
  5
46D6
  8
0
 10
95.372108346595212
 20
157.1180217197232
 30
0.0
 42
0.2770100220963358
  0
VERTEX
  5
46D7
  8
0
 10
93.043302600937011
 20
164.66247894768031
 30
0.0
 42
-0.1940442857277115
  0
VERTEX
  5
46D8
  8
0
 10
92.987599566140204
 20
167.26195487769411
 30
0.0
 42
-0.1940442857277115
  0
SEQEND
  5
46D9
  8
0
  0
POLYLINE
  5
46DA
  8
0
 66
     1
 10
0.0
 20
0.0
 30
0.0
  0
VERTEX
  5
46DB
  8
0
 10
101.51169174348389
 20
173.32123464730529
 30
0.0
 42
-0.2770100220963358
  0
VERTEX
  5
46DC
  8
0
 10
94.768084840926804
 20
169.21441872627011
 30
0.0
 42
0.1940442857277115
  0
VERTEX
  5
46DD
  8
0
 10
93.003749313223125
 20
167.30457630227539
 30
0.0
 42
0.1940442857277115
  0
SEQEND
  5
46DE
  8
0
  0
POLYLINE
  5
46DF
  8
0
 66
     1
 10
0.0
 20
0.0
 30
0.0
  0
VERTEX
  5
46E0
  8
0
 10
94.54952606709486
 20
166.71834050638671
 30
0.0
 42
0.2230591094557833
  0
VERTEX
  5
46E1
  8
0
 10
94.667837724940625
 20
165.17360818494481
 30
0.0
  0
VERTEX
  5
46E2
  8
0
 10
96.651995332040585
 20
161.6707226830072
 30
0.0
 42
-0.0138643006725583
  0
VERTEX
  5
46E3
  8
0
 10
97.958161985888864
 20
165.42561541801649
 30
0.0
  0
SEQEND
  5
46E4
  8
0
  0
POLYLINE
  5
46E5
  8
0
 66
     1
 10
0.0
 20
0.0
 30
0.0
  0
VERTEX
  5
46E6
  8
0
 10
90.197208571302994
 20
149.0377757916992
 30
0.0
 42
-0.2230591094557833
  0
VERTEX
  5
46E7
  8
0
 10
91.019064011881156
 20
150.35107287464791
 30
0.0
  0
VERTEX
  5
46E8
  8
0
 10
94.402529641611224
 20
152.53264308482511
 30
0.0
 42
0.0138643006725583
  0
VERTEX
  5
46E9
  8
0
 10
93.816424560293228
 20
148.60049715509359
 30
0.0
  0
SEQEND
  5
46EA
  8
0
  0
POLYLINE
  5
46EB
  8
0
 66
     1
 10
0.0
 20
0.0
 30
0.0
  0
VERTEX
  5
46EC
  8
0
 10
93.298757595354516
 20
139.95755797531001
 30
0.0
 42
0.2770100220963358
  0
VERTEX
  5
46ED
  8
0
 10
89.232115919035266
 20
146.72546729369679
 30
0.0
 42
-0.1940442857277115
  0
VERTEX
  5
46EE
  8
0
 10
88.555936204202794
 20
149.2360765687645
 30
0.0
 42
-0.1940442857277115
  0
SEQEND
  5
46EF
  8
0
  0
POLYLINE
  5
46F0
  8
0
 66
     1
 10
0.0
 20
0.0
 30
0.0
  0
VERTEX
  5
46F1
  8
0
 10
95.382253191611369
 20
157.15923346243309
 30
0.0
 42
-0.2770100220963358
  0
VERTEX
  5
46F2
  8
0
 10
89.817428629885057
 20
151.5579033826493
 30
0.0
 42
0.1940442857277115
  0
VERTEX
  5
46F3
  8
0
 10
88.561416694449917
 20
149.28132437966011
 30
0.0
 42
0.1940442857277115
  0
SEQEND
  5
46F4
  8
0
  0
POLYLINE
  5
46F5
  8
0
 66
     1
 10
0.0
 20
0.0
 30
0.0
  0
VERTEX
  5
46F6
  8
0
 10
90.202571394111274
 20
149.0820521212527
 30
0.0
 42
0.2230591094557833
  0
VERTEX
  5
46F7
  8
0
 10
90.687123771854999
 20
147.6105207466255
 30
0.0
  0
VERTEX
  5
46F8
  8
0
 10
93.451920735772035
 20
144.6842627269331
 30
0.0
 42
-0.0138643006725583
  0
VERTEX
  5
46F9
  8
0
 10
93.821527911313353
 20
148.64263124373889
 30
0.0
  0
SEQEND
  5
46FA
  8
0
  0
CIRCLE
  5
46FF
  8
0
 10
165.0
 20
140.0
 30
0.0
 40
63.79999999999999
  0
CIRCLE
  5
4700
  8
1
 10
165.0
 20
140.0
 30
0.0
 40
77.5
  0
LINE
  5
4701
  8
1
 10
247.5
 20
140.0
 30
0.0
 11
82.5
 21
140.0
 31
0.0
  0
LINE
  5
4702
  8
1
 10
165.0
 20
222.5
 30
0.0
 11
165.0
 21
57.5
 31
0.0
  0
INSERT
  5
477A
  8
0
  2
STDGX5
 10
292.0227961394595
 20
29.479591499063421
 30
0.0
  0
INSERT
  5
477B
  8
0
  2
STDGX5
 10
292.0227961394595
 20
29.479591499063421
 30
0.0
  0
INSERT
  5
477C
  8
0
  2
STDGX5
 10
567.02279613945939
 20
29.479591499063421
 30
0.0
  0
INSERT
  5
477D
  8
0
  2
STDGX5
 10
567.02279613945939
 20
29.479591499063421
 30
0.0
  0
INSERT
  5
478C
  8
0
  2
STDGX5
 10
337.5220982458477
 20
73.836734456788804
 30
0.0
  0
INSERT
  5
478D
  8
0
  2
STDGX5
 10
337.5220982458477
 20
73.836734456788804
 30
0.0
  0
INSERT
  5
478E
  8
0
  2
STDGX5
 10
612.52209824584759
 20
73.836734456788804
 30
0.0
  0
INSERT
  5
478F
  8
0
  2
STDGX5
 10
612.52209824584759
 20
73.836734456788804
 30
0.0
  0
INSERT
  5
4790
  8
0
  2
STDGX5
 10
368.95798022844542
 20
81.551020095637455
 30
0.0
  0
INSERT
  5
4791
  8
0
  2
STDGX5
 10
368.95798022844542
 20
81.551020095637455
 30
0.0
  0
INSERT
  5
4792
  8
0
  2
STDGX5
 10
643.95798022844542
 20
81.551020095637455
 30
0.0
  0
INSERT
  5
4793
  8
0
  2
STDGX5
 10
643.95798022844542
 20
81.551020095637455
 30
0.0
  0
INSERT
  5
4794
  8
0
  2
STDGX5
 10
346.89771195687479
 20
79.346938304925615
 30
0.0
  0
INSERT
  5
4795
  8
0
  2
STDGX5
 10
346.89771195687479
 20
79.346938304925615
 30
0.0
  0
INSERT
  5
4796
  8
0
  2
STDGX5
 10
621.89771195687479
 20
79.346938304925615
 30
0.0
  0
INSERT
  5
4797
  8
0
  2
STDGX5
 10
621.89771195687479
 20
79.346938304925615
 30
0.0
  0
INSERT
  5
4798
  8
0
  2
STDGX5
 10
343.58867221423259
 20
78.244897409569717
 30
0.0
  0
INSERT
  5
4799
  8
0
  2
STDGX5
 10
343.58867221423259
 20
78.244897409569717
 30
0.0
  0
INSERT
  5
479A
  8
0
  2
STDGX5
 10
618.58867221423259
 20
78.244897409569717
 30
0.0
  0
INSERT
  5
479B
  8
0
  2
STDGX5
 10
618.58867221423259
 20
78.244897409569717
 30
0.0
  0
INSERT
  5
479C
  8
0
  2
STDGX5
 10
308.29224275834463
 20
69.428570875365153
 30
0.0
  0
INSERT
  5
479D
  8
0
  2
STDGX5
 10
308.29224275834463
 20
69.428570875365153
 30
0.0
  0
INSERT
  5
479E
  8
0
  2
STDGX5
 10
583.29224275834463
 20
69.428570875365153
 30
0.0
  0
INSERT
  5
479F
  8
0
  2
STDGX5
 10
583.29224275834463
 20
69.428570875365153
 30
0.0
  0
TEXT
  5
4C01
  8
0
 62
     3
 10
0.0
 20
0.0
 30
0.0
 40
10.0
  1
912-026-01
  7
STANDARD1
  0
ENDSEC
  0
EOF
