  0
SECTION
  2
HEADER
  9
$ACADVER
  1
AC1009
  9
$INSBASE
 10
0.0
 20
0.0
 30
0.0
  9
$EXTMIN
 10
-0.0204638472032742
 20
-2.960436562073669
 30
0.0
  9
$EXTMAX
 10
276.54904299989971
 20
193.38866262042569
 30
0.0
  9
$LIMMIN
 10
0.0
 20
0.0
  9
$LIMMAX
 10
375.0
 20
270.0
  9
$ORTHOMODE
 70
     1
  9
$REGENMODE
 70
     1
  9
$FILLMODE
 70
     1
  9
$QTEXTMODE
 70
     0
  9
$MIRRTEXT
 70
     0
  9
$DRAGMODE
 70
     2
  9
$LTSCALE
 40
10.0
  9
$OSMODE
 70
  3071
  9
$ATTMODE
 70
     1
  9
$TEXTSIZE
 40
4.0
  9
$TRACEWID
 40
0.05
  9
$TEXTSTYLE
  7
STANDARD
  9
$CLAYER
  8
0
  9
$CELTYPE
  6
BYLAYER
  9
$CECOLOR
 62
   256
  9
$DIMSCALE
 40
1.0
  9
$DIMASZ
 40
3.0
  9
$DIMEXO
 40
2.0
  9
$DIMDLI
 40
0.38
  9
$DIMRND
 40
0.0
  9
$DIMDLE
 40
0.0
  9
$DIMEXE
 40
2.0
  9
$DIMTP
 40
0.0
  9
$DIMTM
 40
0.0
  9
$DIMTXT
 40
3.2000000000000002
  9
$DIMCEN
 40
0.0
  9
$DIMTSZ
 40
0.0
  9
$DIMTOL
 70
     0
  9
$DIMLIM
 70
     0
  9
$DIMTIH
 70
     0
  9
$DIMTOH
 70
     0
  9
$DIMSE1
 70
     0
  9
$DIMSE2
 70
     0
  9
$DIMTAD
 70
     1
  9
$DIMZIN
 70
     0
  9
$DIMBLK
  1

  9
$DIMASO
 70
     1
  9
$DIMSHO
 70
     0
  9
$DIMPOST
  1

  9
$DIMAPOST
  1

  9
$DIMALT
 70
     0
  9
$DIMALTD
 70
     2
  9
$DIMALTF
 40
25.399999999999999
  9
$DIMLFAC
 40
1.0
  9
$DIMTOFL
 70
     0
  9
$DIMTVP
 40
1.6000000000000001
  9
$DIMTIX
 70
     1
  9
$DIMSOXD
 70
     0
  9
$DIMSAH
 70
     0
  9
$DIMBLK1
  1

  9
$DIMBLK2
  1

  9
$DIMSTYLE
  2
STANDARD
  9
$DIMCLRD
 70
     4
  9
$DIMCLRE
 70
     4
  9
$DIMCLRT
 70
     4
  9
$DIMTFAC
 40
1.0
  9
$DIMGAP
 40
0.09
  9
$LUNITS
 70
     2
  9
$LUPREC
 70
     1
  9
$SKETCHINC
 40
0.1
  9
$FILLETRAD
 40
18.0
  9
$AUNITS
 70
     0
  9
$AUPREC
 70
     0
  9
$MENU
  1
E:\r13\win\SUPPORT\ACAD
  9
$ELEVATION
 40
0.0
  9
$PELEVATION
 40
0.0
  9
$THICKNESS
 40
0.0
  9
$LIMCHECK
 70
     0
  9
$BLIPMODE
 70
     0
  9
$CHAMFERA
 40
2.0
  9
$CHAMFERB
 40
2.0
  9
$SKPOLY
 70
     0
  9
$TDCREATE
 40
2449930.5759490738
  9
$TDUPDATE
 40
2456597.4996315511
  9
$TDINDWG
 40
0.0454649769
  9
$TDUSRTIMER
 40
0.0454649769
  9
$USRTIMER
 70
     1
  9
$ANGBASE
 50
0.0
  9
$ANGDIR
 70
     0
  9
$PDMODE
 70
     0
  9
$PDSIZE
 40
0.0
  9
$PLINEWID
 40
0.0
  9
$COORDS
 70
     1
  9
$SPLFRAME
 70
     0
  9
$SPLINETYPE
 70
     6
  9
$SPLINESEGS
 70
     8
  9
$ATTDIA
 70
     0
  9
$ATTREQ
 70
     1
  9
$HANDLING
 70
     1
  9
$HANDSEED
  5
4CE
  9
$SURFTAB1
 70
     6
  9
$SURFTAB2
 70
     6
  9
$SURFTYPE
 70
     6
  9
$SURFU
 70
     6
  9
$SURFV
 70
     6
  9
$UCSNAME
  2

  9
$UCSORG
 10
0.0
 20
0.0
 30
0.0
  9
$UCSXDIR
 10
1.0
 20
0.0
 30
0.0
  9
$UCSYDIR
 10
0.0
 20
1.0
 30
0.0
  9
$PUCSNAME
  2

  9
$PUCSORG
 10
0.0
 20
0.0
 30
0.0
  9
$PUCSXDIR
 10
1.0
 20
0.0
 30
0.0
  9
$PUCSYDIR
 10
0.0
 20
1.0
 30
0.0
  9
$USERI1
 70
     0
  9
$USERI2
 70
     1
  9
$USERI3
 70
     1
  9
$USERI4
 70
     0
  9
$USERI5
 70
     0
  9
$USERR1
 40
0.0
  9
$USERR2
 40
0.0
  9
$USERR3
 40
0.0
  9
$USERR4
 40
0.0
  9
$USERR5
 40
0.0
  9
$WORLDVIEW
 70
     1
  9
$SHADEDGE
 70
     3
  9
$SHADEDIF
 70
    70
  9
$TILEMODE
 70
     1
  9
$MAXACTVP
 70
    16
  9
$PLIMCHECK
 70
     0
  9
$PEXTMIN
 10
1.0000000000000000E+020
 20
1.0000000000000000E+020
 30
1.0000000000000000E+020
  9
$PEXTMAX
 10
-1.0000000000000000E+020
 20
-1.0000000000000000E+020
 30
-1.0000000000000000E+020
  9
$PLIMMIN
 10
0.0
 20
0.0
  9
$PLIMMAX
 10
12.0
 20
9.0
  9
$UNITMODE
 70
     0
  9
$VISRETAIN
 70
     0
  9
$PLINEGEN
 70
     0
  9
$PSLTSCALE
 70
     0
  0
ENDSEC
  0
SECTION
  2
TABLES
  0
TABLE
  2
VPORT
 70
     1
  0
VPORT
  2
*ACTIVE
 70
     0
 10
0.0
 20
0.0
 11
1.0
 21
1.0
 12
195.04380321732449
 22
133.5127261426681
 13
0.0
 23
0.0
 14
10.0
 24
10.0
 15
10.0
 25
10.0
 16
0.0
 26
0.0
 36
1.0
 17
0.0
 27
0.0
 37
0.0
 40
275.42274993631997
 41
1.831871345029239
 42
50.0
 43
0.0
 44
0.0
 50
0.0
 51
0.0
 71
     0
 72
   500
 73
     1
 74
     0
 75
     0
 76
     0
 77
     0
 78
     2
  0
ENDTAB
  0
TABLE
  2
LTYPE
 70
     4
  0
LTYPE
  2
CONTINUOUS
 70
     0
  3
Solid Line
 72
    65
 73
     0
 40
0.0
  0
LTYPE
  2
CENTER
 70
     0
  3
____ _ ____ _ ____ _ ____ _ ____ _ ____ _ ____
 72
    65
 73
     4
 40
2.0
 49
1.25
 49
-0.25
 49
0.25
 49
-0.25
  0
LTYPE
  2
HIDDEN
 70
     0
  3
_ _ _ _ _ _ _ _ _ _ _ _ _ _ _ _ _ _ _ _ _ _ _
 72
    65
 73
     2
 40
0.375
 49
0.25
 49
-0.125
  0
LTYPE
  2
PHANTOM2
 70
     0
  3
___ _ _ ___ _ _ ___ _ _ ___ _ _
 72
    65
 73
     6
 40
1.25
 49
0.625
 49
-0.125
 49
0.125
 49
-0.125
 49
0.125
 49
-0.125
  0
ENDTAB
  0
TABLE
  2
LAYER
 70
     4
  0
LAYER
  2
0
 70
     0
 62
     7
  6
CONTINUOUS
  0
LAYER
  2
1
 70
     0
 62
     1
  6
CENTER
  0
LAYER
  2
3
 70
     0
 62
     3
  6
CONTINUOUS
  0
LAYER
  2
2
 70
     0
 62
     2
  6
HIDDEN
  0
ENDTAB
  0
TABLE
  2
STYLE
 70
     2
  0
STYLE
  2
STANDARD
 70
     0
 40
0.0
 41
1.0
 50
0.0
 71
     0
 42
4.0
  3
SIMPLEX
  4
BIGFONT
  0
STYLE
  2
STANDARD1
 70
     0
 40
0.0
 41
1.0
 50
0.0
 71
     0
 42
3.0
  3
txt
  4

  0
ENDTAB
  0
TABLE
  2
VIEW
 70
     1
  0
VIEW
  2
ALL
 70
     0
 40
270.0
 10
220.78595317725751
 20
135.0
 41
441.57190635451502
 11
0.0
 21
0.0
 31
1.0
 12
0.0
 22
0.0
 32
0.0
 42
50.0
 43
0.0
 44
0.0
 50
0.0
 71
     0
  0
ENDTAB
  0
TABLE
  2
UCS
 70
     0
  0
ENDTAB
  0
TABLE
  2
APPID
 70
     4
  0
APPID
  2
ACAD
 70
     0
  0
APPID
  2
_FTCNV
 70
     0
  0
APPID
  2
ACAD_MLEADERVER
 70
     0
  0
APPID
  2
ACAD_NAV_VCDISPLAY
 70
     0
  0
ENDTAB
  0
TABLE
  2
DIMSTYLE
 70
     1
  0
DIMSTYLE
  2
STANDARD
 70
     0
  3

  4

  5

  6

  7

 40
1.0
 41
0.18
 42
0.0625
 43
0.38
 44
0.18
 45
0.0
 46
0.0
 47
0.0
 48
0.0
140
0.18
141
0.09
142
0.0
143
25.399999999999999
144
1.0
145
0.0
146
1.0
147
0.09
 71
     0
 72
     0
 73
     1
 74
     1
 75
     0
 76
     0
 77
     0
 78
     0
170
     0
171
     2
172
     0
173
     0
174
     0
175
     0
176
     0
177
     0
178
     0
  0
ENDTAB
  0
ENDSEC
  0
SECTION
  2
BLOCKS
  0
BLOCK
  8
0
  2
$MODEL_SPACE
 70
     0
 10
0.0
 20
0.0
 30
0.0
  3
$MODEL_SPACE
  1

  0
ENDBLK
  5
31C
  8
0
  0
BLOCK
 67
     1
  8
0
  2
$PAPER_SPACE
 70
     0
 10
0.0
 20
0.0
 30
0.0
  3
$PAPER_SPACE
  1

  0
ENDBLK
  5
31A
 67
     1
  8
0
  0
BLOCK
  8
0
  2
STDGX5
 70
     0
 10
0.0
 20
0.0
 30
0.0
  3
STDGX5
  1

  0
ENDBLK
  5
229
  8
0
  0
ENDSEC
  0
SECTION
  2
ENTITIES
  0
LINE
  5
2A
  8
0
 10
247.5490429999013
 20
76.719023360215417
 30
0.0
 11
247.5490429999013
 21
89.719023360215417
 31
0.0
  0
LINE
  5
2B
  8
1
 10
73.726686356043231
 20
127.7190390647493
 30
0.0
 11
73.726686356042975
 21
71.719023360215431
 31
0.0
  0
LINE
  5
2C
  8
1
 10
122.54733539027799
 20
182.38866262042561
 30
0.0
 11
276.54904299989971
 21
182.38866262042521
 31
0.0
  0
LINE
  5
2D
  8
0
 10
151.54904299990119
 20
76.719023360215417
 30
0.0
 11
127.5490429999012
 21
76.719023360215417
 31
0.0
  0
LINE
  5
2E
  8
0
 10
151.54904299990119
 20
76.719023360215417
 30
0.0
 11
151.54904299990119
 21
89.719023360215346
 31
0.0
  0
LINE
  5
2F
  8
0
 10
271.54904299990159
 20
76.719023360215417
 30
0.0
 11
247.5490429999013
 21
76.719023360215417
 31
0.0
  0
LINE
  5
43
  8
2
 10
136.5490429999013
 20
77.177523360215488
 30
0.0
 11
136.5490429999013
 21
88.719023360215431
 31
0.0
  0
LINE
  5
44
  8
2
 10
137.09054299990109
 20
77.719023360215417
 30
0.0
 11
137.09054299990109
 21
91.719023360215417
 31
0.0
  0
LINE
  5
45
  8
2
 10
142.0075429999014
 20
77.719023360215417
 30
0.0
 11
142.0075429999014
 21
91.719023360215417
 31
0.0
  0
LINE
  5
46
  8
2
 10
142.5490429999013
 20
77.177523360215488
 30
0.0
 11
142.5490429999013
 21
88.719023360215473
 31
0.0
  0
LINE
  5
47
  8
2
 10
136.5490429999013
 20
88.719023360215417
 30
0.0
 11
142.5490429999013
 21
88.719023360215417
 31
0.0
  0
LINE
  5
48
  8
2
 10
137.09054299990109
 20
91.719023360215417
 30
0.0
 11
142.0075429999014
 21
91.719023360215417
 31
0.0
  0
LINE
  5
49
  8
2
 10
137.09054299990129
 20
91.719023360215417
 30
0.0
 11
139.5490429999013
 21
93.196239192094737
 31
0.0
  0
LINE
  5
4A
  8
2
 10
142.0075429999014
 20
91.719023360215417
 30
0.0
 11
139.5490429999013
 21
93.196239192094737
 31
0.0
  0
LINE
  5
4B
  8
2
 10
142.5490429999013
 20
88.719023360215417
 30
0.0
 11
142.0075429999012
 21
89.656928872513774
 31
0.0
  0
LINE
  5
4C
  8
2
 10
136.5490429999013
 20
88.719023360215417
 30
0.0
 11
137.09054299990129
 21
89.656928872513774
 31
0.0
  0
LINE
  5
4D
  8
2
 10
136.09054299990109
 20
76.719023360215417
 30
0.0
 11
137.09054299990129
 21
77.719023360215417
 31
0.0
  0
LINE
  5
4E
  8
2
 10
142.0075429999014
 20
77.719023360215417
 30
0.0
 11
143.00754299990149
 21
76.719023360215417
 31
0.0
  0
LINE
  5
4F
  8
2
 10
137.09054299990109
 20
77.719023360215417
 30
0.0
 11
142.0075429999012
 21
77.719023360215417
 31
0.0
  0
LINE
  5
50
  8
1
 10
139.5490429999013
 20
71.719023360215417
 30
0.0
 11
139.5490429999013
 21
98.196239192094779
 31
0.0
  0
LINE
  5
51
  8
1
 10
259.5490429999013
 20
71.719023360215417
 30
0.0
 11
259.5490429999013
 21
98.196239192094765
 31
0.0
  0
LINE
  5
58
  8
0
 10
249.5490429999013
 20
76.719023360215417
 30
0.0
 11
249.5490429999013
 21
89.719023360215388
 31
0.0
  0
LINE
  5
5E
  8
0
 10
169.25132823404221
 20
109.7168073854065
 30
0.0
 11
229.8467577657629
 21
109.7168073854065
 31
0.0
  0
LINE
  5
5F
  8
0
 10
127.54733539027799
 20
173.38866262042561
 30
0.0
 11
127.54733539027799
 21
191.38866262042569
 31
0.0
  0
LINE
  5
60
  8
0
 10
271.54904299989971
 20
173.38866262042521
 30
0.0
 11
271.54904299989971
 21
191.38866262042509
 31
0.0
  0
LINE
  5
61
  8
0
 10
129.54733539027799
 20
193.38866262042561
 30
0.0
 11
269.54904299989971
 21
193.38866262042521
 31
0.0
  0
LINE
  5
62
  8
0
 10
129.54733539027799
 20
171.38866262042549
 30
0.0
 11
269.54904299989971
 21
171.38866262042521
 31
0.0
  0
LINE
  5
63
  8
0
 10
269.54904299989971
 20
193.38866262042521
 30
0.0
 11
271.54904299989971
 21
191.38866262042509
 31
0.0
  0
LINE
  5
64
  8
0
 10
271.54904299989971
 20
173.38866262042521
 30
0.0
 11
269.54904299989971
 21
171.38866262042521
 31
0.0
  0
LINE
  5
65
  8
0
 10
129.54733539027799
 20
171.38866262042561
 30
0.0
 11
127.54733539027799
 21
173.38866262042561
 31
0.0
  0
LINE
  5
66
  8
0
 10
129.54733539027799
 20
193.38866262042569
 30
0.0
 11
127.54733539027799
 21
191.38866262042569
 31
0.0
  0
LINE
  5
67
  8
0
 10
127.54733539027799
 20
191.38866262042561
 30
0.0
 11
271.54904299989971
 21
191.38866262042569
 31
0.0
  0
LINE
  5
68
  8
0
 10
127.54733539027799
 20
173.38866262042549
 30
0.0
 11
271.5490429999
 21
173.38866262042549
 31
0.0
  0
CIRCLE
  5
69
  8
2
 10
139.5490429999013
 20
182.38866262042561
 30
0.0
 40
3.0
  0
CIRCLE
  5
6A
  8
2
 10
139.5490429999013
 20
182.38866262042561
 30
0.0
 40
2.458499999999999
  0
LINE
  5
6B
  8
1
 10
139.5490429999013
 20
190.38866262042561
 30
0.0
 11
139.5490429999013
 21
174.38866262042561
 31
0.0
  0
LINE
  5
6C
  8
1
 10
259.5490429999013
 20
190.38866262042561
 30
0.0
 11
259.5490429999013
 21
174.38866262042561
 31
0.0
  0
CIRCLE
  5
6D
  8
2
 10
259.5490429999013
 20
182.38866262042561
 30
0.0
 40
2.458499999999999
  0
CIRCLE
  5
6E
  8
2
 10
259.5490429999013
 20
182.38866262042561
 30
0.0
 40
3.0
  0
LINE
  5
6F
  8
0
 10
82.726686356043203
 20
122.7190390647494
 30
0.0
 11
64.726686356043203
 21
122.7190390647493
 31
0.0
  0
LINE
  5
70
  8
0
 10
84.726686356042961
 20
76.719023360215417
 30
0.0
 11
62.726686356042961
 21
76.719023360215417
 31
0.0
  0
LINE
  5
71
  8
0
 10
62.726686356043238
 20
120.7190390647493
 30
0.0
 11
62.726686356042961
 21
76.719023360215417
 31
0.0
  0
LINE
  5
72
  8
0
 10
84.726686356043231
 20
120.7190390647493
 30
0.0
 11
84.726686356042961
 21
76.719023360215417
 31
0.0
  0
LINE
  5
73
  8
0
 10
64.726686356043203
 20
122.7190390647493
 30
0.0
 11
62.726686356043203
 21
120.7190390647493
 31
0.0
  0
LINE
  5
74
  8
0
 10
82.726686356043203
 20
122.7190390647494
 30
0.0
 11
84.726686356043189
 21
120.7190390647494
 31
0.0
  0
LINE
  5
75
  8
0
 10
82.726686356043174
 20
122.7190390647494
 30
0.0
 11
82.726686356043174
 21
76.719023360215417
 31
0.0
  0
LINE
  5
76
  8
0
 10
64.726686356043189
 20
122.7190390647493
 30
0.0
 11
64.726686356043189
 21
76.719023360215417
 31
0.0
  0
LINE
  5
77
  8
2
 10
81.854092879121197
 20
107.77515803117051
 30
0.0
 11
65.599279832965124
 21
107.77515803117051
 31
0.0
  0
LINE
  5
78
  8
3
 10
82.726686356043174
 20
92.71902336021536
 30
0.0
 11
64.726686356043189
 21
92.71902336021536
 31
0.0
  0
LINE
  5
79
  8
2
 10
80.22668635604299
 20
106.6751580311705
 30
0.0
 11
67.226686356043217
 21
106.6751580311705
 31
0.0
  0
LINE
  5
7A
  8
2
 10
67.226686356043217
 20
106.6751580311705
 30
0.0
 11
62.726686356043217
 21
109.7168073854066
 31
0.0
  0
LINE
  5
7B
  8
2
 10
80.226686356043089
 20
106.6751580311705
 30
0.0
 11
84.726686356043217
 21
109.7168073854066
 31
0.0
  0
LINE
  5
8D
  8
0
 10
149.5490429999013
 20
76.719023360215417
 30
0.0
 11
149.5490429999013
 21
89.719023360215417
 31
0.0
  0
LINE
  5
8F
  8
2
 10
257.09054299990112
 20
77.719023360215417
 30
0.0
 11
262.00754299990132
 21
77.719023360215417
 31
0.0
  0
LINE
  5
90
  8
2
 10
262.00754299990149
 20
77.719023360215417
 30
0.0
 11
263.00754299990149
 21
76.719023360215417
 31
0.0
  0
LINE
  5
91
  8
2
 10
256.09054299990112
 20
76.719023360215417
 30
0.0
 11
257.09054299990129
 21
77.719023360215417
 31
0.0
  0
LINE
  5
92
  8
2
 10
256.5490429999013
 20
88.719023360215417
 30
0.0
 11
257.09054299990129
 21
89.656928872513774
 31
0.0
  0
LINE
  5
93
  8
2
 10
262.5490429999013
 20
88.719023360215417
 30
0.0
 11
262.00754299990132
 21
89.656928872513774
 31
0.0
  0
LINE
  5
94
  8
2
 10
262.00754299990149
 20
91.719023360215417
 30
0.0
 11
259.5490429999013
 21
93.196239192094737
 31
0.0
  0
LINE
  5
95
  8
2
 10
257.09054299990129
 20
91.719023360215417
 30
0.0
 11
259.5490429999013
 21
93.196239192094737
 31
0.0
  0
LINE
  5
96
  8
2
 10
257.09054299990112
 20
91.719023360215417
 30
0.0
 11
262.00754299990149
 21
91.719023360215417
 31
0.0
  0
LINE
  5
97
  8
2
 10
256.5490429999013
 20
88.719023360215417
 30
0.0
 11
262.5490429999013
 21
88.719023360215417
 31
0.0
  0
LINE
  5
98
  8
2
 10
262.5490429999013
 20
77.177523360215488
 30
0.0
 11
262.5490429999013
 21
88.719023360215431
 31
0.0
  0
LINE
  5
99
  8
2
 10
262.00754299990149
 20
77.719023360215417
 30
0.0
 11
262.00754299990149
 21
91.719023360215417
 31
0.0
  0
LINE
  5
9A
  8
2
 10
257.09054299990112
 20
77.719023360215417
 30
0.0
 11
257.09054299990112
 21
91.719023360215417
 31
0.0
  0
LINE
  5
9B
  8
2
 10
256.5490429999013
 20
77.177523360215488
 30
0.0
 11
256.5490429999013
 21
88.719023360215374
 31
0.0
  0
LINE
  5
D2
  8
0
 10
169.54904299990119
 20
107.7190233602154
 30
0.0
 11
229.5490429999015
 21
107.7190233602154
 31
0.0
  0
ARC
  5
218
  8
0
 10
152.13779092470821
 20
86.348748448304875
 30
0.0
 40
24.590455534430198
 50
117.9068999848141
 51
179.99999999999989
1001
ACAD
1000
ASC_BOUNDS
1002
{
1070
    19
1002
}
  0
LINE
  5
219
  8
0
 10
127.54733539027799
 20
76.719023360215417
 30
0.0
 11
127.54733539027799
 21
86.348748448304875
 31
0.0
1001
ACAD
1000
ASC_BOUNDS
1002
{
1070
    19
1002
}
  0
ARC
  5
21A
  8
0
 10
199.5481891950898
 20
-3.1678421878740428
 30
0.0
 40
125.8868812526234
 50
62.09310001518574
 51
117.9068999848142
  0
ARC
  5
21B
  8
0
 10
246.9585874654716
 20
86.348748448304804
 30
0.0
 40
24.590455534430198
 50
359.99999999999977
 51
62.093100015185769
  0
LINE
  5
21C
  8
0
 10
271.54904299990181
 20
76.719023360215417
 30
0.0
 11
271.54904299990159
 21
86.348748448305415
 31
0.0
  0
ARC
  5
220
  8
0
 10
169.54904299990119
 20
89.719023360215417
 30
0.0
 40
18.0
 50
90.000000000000028
 51
180.0000000000002
  0
ARC
  5
221
  8
0
 10
169.54904299990119
 20
89.719023360215417
 30
0.0
 40
20.0
 50
90.000000000000028
 51
180.0000000000002
  0
ARC
  5
223
  8
0
 10
229.5490429999015
 20
89.719023360215417
 30
0.0
 40
20.0
 50
359.99999999999977
 51
90.0
  0
ARC
  5
224
  8
0
 10
229.5490429999015
 20
89.719023360215417
 30
0.0
 40
18.0
 50
359.99999999999977
 51
90.0
  0
INSERT
  5
2C7
  8
0
  2
STDGX5
 10
0.0
 20
0.0
 30
0.0
  0
INSERT
  5
2C8
  8
0
  2
STDGX5
 10
0.0
 20
0.0
 30
0.0
  0
INSERT
  5
2C9
  8
0
  2
STDGX5
 10
275.0
 20
0.0
 30
0.0
  0
INSERT
  5
2CA
  8
0
  2
STDGX5
 10
275.0
 20
0.0
 30
0.0
  0
TEXT
  5
440
  8
0
 62
     3
 10
0.0
 20
0.0
 30
0.0
 40
10.0
  1
AG3-120N
  7
STANDARD1
  0
ENDSEC
  0
EOF
