  0
SECTION
  2
HEADER
  9
$ACADVER
  1
AC1009
  9
$INSBASE
 10
0.0
 20
0.0
 30
0.0
  9
$EXTMIN
 10
-0.0204638472032742
 20
-2.960436562073669
 30
0.0
  9
$EXTMAX
 10
298.47737799027578
 20
202.4851792686853
 30
0.0
  9
$LIMMIN
 10
0.0
 20
0.0
  9
$LIMMAX
 10
375.0
 20
270.0
  9
$ORTHOMODE
 70
     1
  9
$REGENMODE
 70
     1
  9
$FILLMODE
 70
     1
  9
$QTEXTMODE
 70
     0
  9
$MIRRTEXT
 70
     0
  9
$DRAGMODE
 70
     2
  9
$LTSCALE
 40
10.0
  9
$OSMODE
 70
  3071
  9
$ATTMODE
 70
     1
  9
$TEXTSIZE
 40
4.0
  9
$TRACEWID
 40
0.05
  9
$TEXTSTYLE
  7
STANDARD
  9
$CLAYER
  8
0
  9
$CELTYPE
  6
BYLAYER
  9
$CECOLOR
 62
   256
  9
$DIMSCALE
 40
1.0
  9
$DIMASZ
 40
3.0
  9
$DIMEXO
 40
2.0
  9
$DIMDLI
 40
0.38
  9
$DIMRND
 40
0.0
  9
$DIMDLE
 40
0.0
  9
$DIMEXE
 40
2.0
  9
$DIMTP
 40
0.0
  9
$DIMTM
 40
0.0
  9
$DIMTXT
 40
3.2000000000000002
  9
$DIMCEN
 40
0.0
  9
$DIMTSZ
 40
0.0
  9
$DIMTOL
 70
     0
  9
$DIMLIM
 70
     0
  9
$DIMTIH
 70
     0
  9
$DIMTOH
 70
     0
  9
$DIMSE1
 70
     0
  9
$DIMSE2
 70
     0
  9
$DIMTAD
 70
     1
  9
$DIMZIN
 70
     0
  9
$DIMBLK
  1

  9
$DIMASO
 70
     1
  9
$DIMSHO
 70
     0
  9
$DIMPOST
  1

  9
$DIMAPOST
  1

  9
$DIMALT
 70
     0
  9
$DIMALTD
 70
     2
  9
$DIMALTF
 40
25.399999999999999
  9
$DIMLFAC
 40
1.0
  9
$DIMTOFL
 70
     0
  9
$DIMTVP
 40
1.6000000000000001
  9
$DIMTIX
 70
     1
  9
$DIMSOXD
 70
     0
  9
$DIMSAH
 70
     0
  9
$DIMBLK1
  1

  9
$DIMBLK2
  1

  9
$DIMSTYLE
  2
STANDARD
  9
$DIMCLRD
 70
     4
  9
$DIMCLRE
 70
     4
  9
$DIMCLRT
 70
     4
  9
$DIMTFAC
 40
1.0
  9
$DIMGAP
 40
0.09
  9
$LUNITS
 70
     2
  9
$LUPREC
 70
     1
  9
$SKETCHINC
 40
0.1
  9
$FILLETRAD
 40
1.0
  9
$AUNITS
 70
     0
  9
$AUPREC
 70
     0
  9
$MENU
  1
E:\r13\win\SUPPORT\ACAD
  9
$ELEVATION
 40
0.0
  9
$PELEVATION
 40
0.0
  9
$THICKNESS
 40
0.0
  9
$LIMCHECK
 70
     0
  9
$BLIPMODE
 70
     0
  9
$CHAMFERA
 40
2.0
  9
$CHAMFERB
 40
2.0
  9
$SKPOLY
 70
     0
  9
$TDCREATE
 40
2449930.5781944441
  9
$TDUPDATE
 40
2456597.49967772
  9
$TDINDWG
 40
0.031174456
  9
$TDUSRTIMER
 40
0.031174456
  9
$USRTIMER
 70
     1
  9
$ANGBASE
 50
0.0
  9
$ANGDIR
 70
     0
  9
$PDMODE
 70
     0
  9
$PDSIZE
 40
0.0
  9
$PLINEWID
 40
0.0
  9
$COORDS
 70
     1
  9
$SPLFRAME
 70
     0
  9
$SPLINETYPE
 70
     6
  9
$SPLINESEGS
 70
     8
  9
$ATTDIA
 70
     0
  9
$ATTREQ
 70
     1
  9
$HANDLING
 70
     1
  9
$HANDSEED
  5
480
  9
$SURFTAB1
 70
     6
  9
$SURFTAB2
 70
     6
  9
$SURFTYPE
 70
     6
  9
$SURFU
 70
     6
  9
$SURFV
 70
     6
  9
$UCSNAME
  2

  9
$UCSORG
 10
0.0
 20
0.0
 30
0.0
  9
$UCSXDIR
 10
1.0
 20
0.0
 30
0.0
  9
$UCSYDIR
 10
0.0
 20
1.0
 30
0.0
  9
$PUCSNAME
  2

  9
$PUCSORG
 10
0.0
 20
0.0
 30
0.0
  9
$PUCSXDIR
 10
1.0
 20
0.0
 30
0.0
  9
$PUCSYDIR
 10
0.0
 20
1.0
 30
0.0
  9
$USERI1
 70
     0
  9
$USERI2
 70
     1
  9
$USERI3
 70
     1
  9
$USERI4
 70
     0
  9
$USERI5
 70
     0
  9
$USERR1
 40
0.0
  9
$USERR2
 40
0.0
  9
$USERR3
 40
0.0
  9
$USERR4
 40
0.0
  9
$USERR5
 40
0.0
  9
$WORLDVIEW
 70
     1
  9
$SHADEDGE
 70
     3
  9
$SHADEDIF
 70
    70
  9
$TILEMODE
 70
     1
  9
$MAXACTVP
 70
    16
  9
$PLIMCHECK
 70
     0
  9
$PEXTMIN
 10
1.0000000000000000E+020
 20
1.0000000000000000E+020
 30
1.0000000000000000E+020
  9
$PEXTMAX
 10
-1.0000000000000000E+020
 20
-1.0000000000000000E+020
 30
-1.0000000000000000E+020
  9
$PLIMMIN
 10
0.0
 20
0.0
  9
$PLIMMAX
 10
12.0
 20
9.0
  9
$UNITMODE
 70
     0
  9
$VISRETAIN
 70
     0
  9
$PLINEGEN
 70
     0
  9
$PSLTSCALE
 70
     0
  0
ENDSEC
  0
SECTION
  2
TABLES
  0
TABLE
  2
VPORT
 70
     1
  0
VPORT
  2
*ACTIVE
 70
     0
 10
0.0
 20
0.0
 11
1.0
 21
1.0
 12
195.04380321732449
 22
133.5127261426681
 13
0.0
 23
0.0
 14
10.0
 24
10.0
 15
10.0
 25
10.0
 16
0.0
 26
0.0
 36
1.0
 17
0.0
 27
0.0
 37
0.0
 40
275.42274993631997
 41
1.831871345029239
 42
50.0
 43
0.0
 44
0.0
 50
0.0
 51
0.0
 71
     0
 72
   500
 73
     1
 74
     0
 75
     0
 76
     0
 77
     0
 78
     2
  0
ENDTAB
  0
TABLE
  2
LTYPE
 70
     4
  0
LTYPE
  2
CONTINUOUS
 70
     0
  3
Solid Line
 72
    65
 73
     0
 40
0.0
  0
LTYPE
  2
CENTER
 70
     0
  3
____ _ ____ _ ____ _ ____ _ ____ _ ____ _ ____
 72
    65
 73
     4
 40
2.0
 49
1.25
 49
-0.25
 49
0.25
 49
-0.25
  0
LTYPE
  2
HIDDEN
 70
     0
  3
_ _ _ _ _ _ _ _ _ _ _ _ _ _ _ _ _ _ _ _ _ _ _
 72
    65
 73
     2
 40
0.375
 49
0.25
 49
-0.125
  0
LTYPE
  2
PHANTOM2
 70
     0
  3
___ _ _ ___ _ _ ___ _ _ ___ _ _
 72
    65
 73
     6
 40
1.25
 49
0.625
 49
-0.125
 49
0.125
 49
-0.125
 49
0.125
 49
-0.125
  0
ENDTAB
  0
TABLE
  2
LAYER
 70
     4
  0
LAYER
  2
0
 70
     0
 62
     7
  6
CONTINUOUS
  0
LAYER
  2
1
 70
     0
 62
     1
  6
CENTER
  0
LAYER
  2
3
 70
     0
 62
     3
  6
CONTINUOUS
  0
LAYER
  2
2
 70
     0
 62
     2
  6
HIDDEN
  0
ENDTAB
  0
TABLE
  2
STYLE
 70
     2
  0
STYLE
  2
STANDARD
 70
     0
 40
0.0
 41
1.0
 50
0.0
 71
     0
 42
4.0
  3
SIMPLEX
  4
BIGFONT
  0
STYLE
  2
STANDARD1
 70
     0
 40
0.0
 41
1.0
 50
0.0
 71
     0
 42
3.0
  3
txt
  4

  0
ENDTAB
  0
TABLE
  2
VIEW
 70
     1
  0
VIEW
  2
ALL
 70
     0
 40
270.0
 10
220.78595317725751
 20
135.0
 41
441.57190635451502
 11
0.0
 21
0.0
 31
1.0
 12
0.0
 22
0.0
 32
0.0
 42
50.0
 43
0.0
 44
0.0
 50
0.0
 71
     0
  0
ENDTAB
  0
TABLE
  2
UCS
 70
     0
  0
ENDTAB
  0
TABLE
  2
APPID
 70
     4
  0
APPID
  2
ACAD
 70
     0
  0
APPID
  2
_FTCNV
 70
     0
  0
APPID
  2
ACAD_MLEADERVER
 70
     0
  0
APPID
  2
ACAD_NAV_VCDISPLAY
 70
     0
  0
ENDTAB
  0
TABLE
  2
DIMSTYLE
 70
     1
  0
DIMSTYLE
  2
STANDARD
 70
     0
  3

  4

  5

  6

  7

 40
1.0
 41
0.18
 42
0.0625
 43
0.38
 44
0.18
 45
0.0
 46
0.0
 47
0.0
 48
0.0
140
0.18
141
0.09
142
0.0
143
25.399999999999999
144
1.0
145
0.0
146
1.0
147
0.09
 71
     0
 72
     0
 73
     1
 74
     1
 75
     0
 76
     0
 77
     0
 78
     0
170
     0
171
     2
172
     0
173
     0
174
     0
175
     0
176
     0
177
     0
178
     0
  0
ENDTAB
  0
ENDSEC
  0
SECTION
  2
BLOCKS
  0
BLOCK
  8
0
  2
$MODEL_SPACE
 70
     0
 10
0.0
 20
0.0
 30
0.0
  3
$MODEL_SPACE
  1

  0
ENDBLK
  5
2CE
  8
0
  0
BLOCK
 67
     1
  8
0
  2
$PAPER_SPACE
 70
     0
 10
0.0
 20
0.0
 30
0.0
  3
$PAPER_SPACE
  1

  0
ENDBLK
  5
2CC
 67
     1
  8
0
  0
BLOCK
  8
0
  2
STDGX5
 70
     0
 10
0.0
 20
0.0
 30
0.0
  3
STDGX5
  1

  0
ENDBLK
  5
DD
  8
0
  0
ENDSEC
  0
SECTION
  2
ENTITIES
  0
LINE
  5
38
  8
3
 10
77.214416883885661
 20
102.29788756386731
 30
0.0
 11
56.91441688388565
 21
102.29788756386731
 31
0.0
  0
LINE
  5
39
  8
0
 10
79.547750217219075
 20
134.63122089720071
 30
0.0
 11
79.547750217218805
 21
83.631220897200777
 31
0.0
  0
LINE
  5
3A
  8
0
 10
54.581083550552442
 20
134.63122089720079
 30
0.0
 11
54.581083550552158
 21
83.631220897200777
 31
0.0
  0
LINE
  5
3B
  8
0
 10
79.547750217218692
 20
83.631220897200777
 30
0.0
 11
54.581083550552158
 21
83.631220897200777
 31
0.0
  0
LINE
  5
3E
  8
1
 10
279.47737799027823
 20
199.31851260201859
 30
0.0
 11
279.47737799027823
 21
180.65184593535199
 31
0.0
  0
LINE
  5
3F
  8
1
 10
139.4773779902782
 20
199.31851260201859
 30
0.0
 11
139.4773779902782
 21
180.65184593535199
 31
0.0
  0
LINE
  5
42
  8
0
 10
127.4753857790508
 20
177.4851792686853
 30
0.0
 11
291.4773779902759
 21
177.48517926868479
 31
0.0
  0
LINE
  5
43
  8
0
 10
293.4773779902759
 20
179.48517926868479
 30
0.0
 11
293.4773779902759
 21
200.48517926868479
 31
0.0
  0
LINE
  5
44
  8
0
 10
125.4753857790509
 20
179.4851792686853
 30
0.0
 11
125.4753857790509
 21
200.4851792686853
 31
0.0
  0
LINE
  5
45
  8
1
 10
279.47737799027823
 20
78.631220897200777
 30
0.0
 11
279.47737799027823
 21
108.8546393677267
 31
0.0
  0
LINE
  5
46
  8
1
 10
139.4773779902782
 20
78.631220897200777
 30
0.0
 11
139.4773779902782
 21
108.85463936772661
 31
0.0
  0
LINE
  5
57
  8
0
 10
153.47737799027809
 20
83.631220897200777
 30
0.0
 11
153.47737799027809
 21
104.26271313403581
 31
0.0
  0
LINE
  5
58
  8
0
 10
153.47737799027809
 20
83.631220897200777
 30
0.0
 11
125.475385779051
 21
83.631220897200777
 31
0.0
  0
LINE
  5
59
  8
1
 10
120.4753857790509
 20
189.9851792686853
 30
0.0
 11
298.47737799027578
 21
189.98517926868479
 31
0.0
  0
LINE
  5
5A
  8
1
 10
67.064416883885642
 20
141.63122089720071
 30
0.0
 11
67.0644168838854
 21
76.63122089720089
 31
0.0
  0
LINE
  5
5B
  8
0
 10
158.59446075406561
 20
114.0925376655038
 30
0.0
 11
163.50384917951411
 21
117.53012844900231
 31
0.0
  0
ARC
  5
62
  8
0
 10
170.38676641572681
 20
107.7003039175344
 30
0.0
 40
12.0
 50
95.694269505796726
 51
125.0
  0
ARC
  5
63
  8
0
 10
165.47737799027809
 20
104.26271313403581
 30
0.0
 40
12.0
 50
124.9999999999999
 51
180.0
  0
ARC
  5
64
  8
0
 10
253.47737799027809
 20
104.26271313403591
 30
0.0
 40
12.0
 50
0.0
 51
55.000000000000043
  0
ARC
  5
65
  8
0
 10
248.5679895648297
 20
107.7003039175344
 30
0.0
 40
12.0
 50
55.0
 51
84.305730494203274
  0
LINE
  5
68
  8
0
 10
260.36029522649062
 20
114.0925376655038
 30
0.0
 11
255.45090680104221
 21
117.53012844900231
 31
0.0
  0
LINE
  5
69
  8
0
 10
265.47737799027811
 20
83.631220897200777
 30
0.0
 11
293.47737799027811
 21
83.631220897200777
 31
0.0
  0
LINE
  5
6A
  8
0
 10
265.47737799027811
 20
83.631220897200777
 30
0.0
 11
265.47737799027811
 21
104.26271313403591
 31
0.0
  0
LINE
  5
73
  8
0
 10
267.47737799027811
 20
83.631220897200777
 30
0.0
 11
267.47737799027811
 21
104.26271313403591
 31
0.0
  0
ARC
  5
74
  8
0
 10
253.47737799027809
 20
104.26271313403591
 30
0.0
 40
14.0
 50
0.0
 51
55.000000000000043
  0
ARC
  5
75
  8
0
 10
248.5679895648297
 20
107.7003039175344
 30
0.0
 40
14.0
 50
55.0
 51
84.305730494203274
  0
LINE
  5
76
  8
0
 10
261.5074480991928
 20
115.73084175408179
 30
0.0
 11
256.59805967374422
 21
119.1684325375803
 31
0.0
  0
LINE
  5
77
  8
0
 10
157.4473078813636
 20
115.73084175408179
 30
0.0
 11
162.3566963068121
 21
119.1684325375803
 31
0.0
  0
ARC
  5
78
  8
0
 10
170.38676641572681
 20
107.7003039175344
 30
0.0
 40
14.0
 50
95.694269505796726
 51
125.0
  0
LINE
  5
79
  8
0
 10
168.9976832268417
 20
121.63122089720071
 30
0.0
 11
249.95707275371441
 21
121.63122089720081
 31
0.0
  0
LINE
  5
7A
  8
0
 10
127.4753857790508
 20
202.4851792686853
 30
0.0
 11
291.4773779902759
 21
202.4851792686849
 31
0.0
  0
LINE
  5
7B
  8
0
 10
127.4753857790509
 20
202.4851792686853
 30
0.0
 11
125.4753857790509
 21
200.4851792686853
 31
0.0
  0
LINE
  5
7C
  8
0
 10
125.4753857790509
 20
179.4851792686853
 30
0.0
 11
127.4753857790509
 21
177.4851792686853
 31
0.0
  0
LINE
  5
7D
  8
0
 10
293.4773779902759
 20
200.48517926868479
 30
0.0
 11
291.4773779902759
 21
202.48517926868479
 31
0.0
  0
LINE
  5
7E
  8
0
 10
291.4773779902759
 20
177.48517926868479
 30
0.0
 11
293.4773779902759
 21
179.48517926868479
 31
0.0
  0
LINE
  5
7F
  8
0
 10
125.4753857790508
 20
179.4851792686853
 30
0.0
 11
293.47737799027641
 21
179.4851792686853
 31
0.0
  0
LINE
  5
80
  8
0
 10
125.4753857790509
 20
200.4851792686853
 30
0.0
 11
293.47737799027539
 21
200.4851792686853
 31
0.0
  0
LINE
  5
81
  8
0
 10
77.547750217219033
 20
136.63122089720071
 30
0.0
 11
56.581083550552393
 21
136.63122089720071
 31
0.0
  0
LINE
  5
82
  8
0
 10
54.581083550552393
 20
134.63122089720071
 30
0.0
 11
56.581083550552393
 21
136.63122089720071
 31
0.0
  0
LINE
  5
83
  8
0
 10
77.547750217219033
 20
136.63122089720071
 30
0.0
 11
79.547750217219033
 21
134.63122089720071
 31
0.0
  0
LINE
  5
84
  8
0
 10
56.581083550552378
 20
136.63122089720071
 30
0.0
 11
56.581083550552393
 21
83.631220897200777
 31
0.0
  0
LINE
  5
85
  8
0
 10
77.547750217219033
 20
136.63122089720071
 30
0.0
 11
77.547750217219033
 21
83.631220897200777
 31
0.0
  0
LINE
  5
86
  8
2
 10
74.214416883885676
 20
118.35300173592231
 30
0.0
 11
59.914416883885679
 21
118.35300173592231
 31
0.0
  0
LINE
  5
87
  8
2
 10
59.914416883885679
 20
118.35300173592231
 30
0.0
 11
54.5810835505523
 21
121.63122089720071
 31
0.0
  0
LINE
  5
88
  8
2
 10
74.214416883885676
 20
118.35300173592231
 30
0.0
 11
79.547750217219061
 21
121.63122089720081
 31
0.0
  0
LINE
  5
89
  8
2
 10
76.708996219633534
 20
119.88633506925569
 30
0.0
 11
57.419837548137593
 21
119.88633506925569
 31
0.0
  0
LINE
  5
9A
  8
0
 10
151.4773779902782
 20
83.631220897200777
 30
0.0
 11
151.4773779902782
 21
104.26271313403581
 31
0.0
  0
ARC
  5
9B
  8
0
 10
165.4773779902782
 20
104.26271313403581
 30
0.0
 40
14.0
 50
124.9999999999999
 51
180.0
  0
LINE
  5
D9
  8
0
 10
169.19612368239669
 20
119.6410899001056
 30
0.0
 11
249.75863229815971
 21
119.6410899001056
 31
0.0
  0
INSERT
  5
18E
  8
0
  2
STDGX5
 10
383.81831825922859
 20
11.09446372081697
 30
0.0
  0
INSERT
  5
18F
  8
0
  2
STDGX5
 10
383.81831825922859
 20
11.09446372081697
 30
0.0
  0
INSERT
  5
190
  8
0
  2
STDGX5
 10
658.81831825922859
 20
11.09446372081697
 30
0.0
  0
INSERT
  5
191
  8
0
  2
STDGX5
 10
658.81831825922859
 20
11.09446372081697
 30
0.0
  0
ARC
  5
1A1
  8
0
 10
209.4763818846649
 20
-10.236807230859879
 30
0.0
 40
146.86802812806059
 50
62.09310001518574
 51
117.9068999848142
  0
ARC
  5
1A2
  8
0
 10
264.78851320011017
 20
94.199215178015379
 30
0.0
 40
28.688864790168559
 50
359.99999999999977
 51
62.093100015185769
  0
LINE
  5
1A3
  8
0
 10
293.47737799027863
 20
83.631220897200777
 30
0.0
 11
293.47737799027828
 21
94.199215178016104
 31
0.0
  0
ARC
  5
1A4
  8
0
 10
154.16425056921949
 20
94.199215178015464
 30
0.0
 40
28.688864790168559
 50
117.9068999848141
 51
179.99999999999989
1001
ACAD
1000
ASC_BOUNDS
1002
{
1070
    19
1002
}
  0
LINE
  5
1A5
  8
0
 10
125.475385779051
 20
83.631220897200777
 30
0.0
 11
125.475385779051
 21
94.199215178015464
 31
0.0
1001
ACAD
1000
ASC_BOUNDS
1002
{
1070
    19
1002
}
  0
INSERT
  5
249
  8
0
  2
STDGX5
 10
0.0
 20
0.0
 30
0.0
  0
INSERT
  5
24A
  8
0
  2
STDGX5
 10
0.0
 20
0.0
 30
0.0
  0
INSERT
  5
24B
  8
0
  2
STDGX5
 10
275.0
 20
0.0
 30
0.0
  0
INSERT
  5
24C
  8
0
  2
STDGX5
 10
275.0
 20
0.0
 30
0.0
  0
LINE
  5
275
  8
2
 10
142.85237799027831
 20
84.797887563867405
 30
0.0
 11
136.10237799027809
 21
84.797887563867377
 31
0.0
  0
LINE
  5
276
  8
2
 10
142.85237799027831
 20
84.797887563867391
 30
0.0
 11
144.05237799027779
 21
83.597887563866422
 31
0.0
  0
LINE
  5
277
  8
2
 10
142.85237799027831
 20
99.713752651931316
 30
0.0
 11
143.47737799027831
 21
98.631220897200791
 31
0.0
  0
LINE
  5
278
  8
2
 10
143.47737799027831
 20
84.172887563866624
 30
0.0
 11
143.47737799027831
 21
98.631220897200777
 31
0.0
  0
LINE
  5
279
  8
2
 10
142.85237799027831
 20
84.797887563867391
 30
0.0
 11
142.85237799027831
 21
102.63122089720081
 31
0.0
  0
LINE
  5
27A
  8
2
 10
136.10237799027809
 20
99.713752651931316
 30
0.0
 11
135.47737799027809
 21
98.631220897200791
 31
0.0
  0
LINE
  5
27B
  8
2
 10
139.4773779902782
 20
104.57977805571581
 30
0.0
 11
142.85237799027831
 21
102.63122089720081
 31
0.0
  0
LINE
  5
27C
  8
2
 10
139.4773779902782
 20
104.57977805571581
 30
0.0
 11
136.102377990278
 21
102.63122089720081
 31
0.0
  0
LINE
  5
27D
  8
2
 10
136.10237799027809
 20
84.797887563867391
 30
0.0
 11
134.90237799027861
 21
83.597887563866422
 31
0.0
  0
LINE
  5
27E
  8
2
 10
136.10237799027809
 20
102.63122089720081
 30
0.0
 11
142.85237799027831
 21
102.63122089720081
 31
0.0
  0
LINE
  5
27F
  8
2
 10
135.47737799027809
 20
98.631220897200791
 30
0.0
 11
143.47737799027831
 21
98.631220897200791
 31
0.0
  0
LINE
  5
281
  8
2
 10
136.10237799027809
 20
84.797887563867391
 30
0.0
 11
136.10237799027809
 21
102.63122089720081
 31
0.0
  0
LINE
  5
282
  8
2
 10
135.47737799027809
 20
84.172887563866624
 30
0.0
 11
135.47737799027809
 21
98.631220897200777
 31
0.0
  0
LINE
  5
283
  8
2
 10
282.85237799027828
 20
84.797887563867121
 30
0.0
 11
282.85237799027828
 21
102.63122089720051
 31
0.0
  0
LINE
  5
284
  8
2
 10
276.10237799027811
 20
84.797887563867121
 30
0.0
 11
276.10237799027811
 21
102.63122089720051
 31
0.0
  0
LINE
  5
285
  8
2
 10
275.47737799027811
 20
84.172887563866354
 30
0.0
 11
275.47737799027811
 21
98.631220897200507
 31
0.0
  0
LINE
  5
286
  8
2
 10
283.47737799027828
 20
84.172887563866354
 30
0.0
 11
283.47737799027828
 21
98.631220897200507
 31
0.0
  0
LINE
  5
287
  8
2
 10
282.85237799027828
 20
84.797887563867121
 30
0.0
 11
284.05237799027782
 21
83.597887563866152
 31
0.0
  0
LINE
  5
288
  8
2
 10
276.10237799027811
 20
84.797887563867121
 30
0.0
 11
274.90237799027858
 21
83.597887563866152
 31
0.0
  0
LINE
  5
289
  8
2
 10
282.85237799027828
 20
84.797887563867135
 30
0.0
 11
276.10237799027811
 21
84.797887563867107
 31
0.0
  0
LINE
  5
28A
  8
2
 10
276.10237799027811
 20
102.63122089720051
 30
0.0
 11
282.85237799027823
 21
102.63122089720051
 31
0.0
  0
LINE
  5
28B
  8
2
 10
279.47737799027823
 20
104.57977805571559
 30
0.0
 11
276.102377990278
 21
102.63122089720051
 31
0.0
  0
LINE
  5
28C
  8
2
 10
275.47737799027811
 20
98.631220897200507
 30
0.0
 11
283.47737799027828
 21
98.631220897200507
 31
0.0
  0
LINE
  5
28D
  8
2
 10
276.10237799027811
 20
99.713752651931046
 30
0.0
 11
275.47737799027811
 21
98.631220897200507
 31
0.0
  0
LINE
  5
28E
  8
2
 10
282.85237799027828
 20
99.713752651931046
 30
0.0
 11
283.47737799027828
 21
98.631220897200507
 31
0.0
  0
LINE
  5
28F
  8
2
 10
279.47737799027811
 20
104.57977805571559
 30
0.0
 11
282.85237799027828
 21
102.63122089720051
 31
0.0
  0
CIRCLE
  5
298
  8
2
 10
139.4773779902782
 20
189.9851792686853
 30
0.0
 40
3.375
  0
CIRCLE
  5
299
  8
2
 10
139.4773779902782
 20
189.9851792686853
 30
0.0
 40
4.0
  0
CIRCLE
  5
29C
  8
2
 10
279.47737799027823
 20
189.9851792686849
 30
0.0
 40
3.375
  0
CIRCLE
  5
29D
  8
2
 10
279.47737799027823
 20
189.9851792686849
 30
0.0
 40
4.0
  0
TEXT
  5
3F2
  8
0
 62
     3
 10
0.0
 20
0.0
 30
0.0
 40
10.0
  1
AG3-140N
  7
STANDARD1
  0
ENDSEC
  0
EOF
