  0
SECTION
  2
HEADER
  9
$ACADVER
  1
AC1009
  9
$INSBASE
 10
0.0
 20
0.0
 30
0.0
  9
$EXTMIN
 10
-0.0204638472032742
 20
-2.960436562073669
 30
0.0
  9
$EXTMAX
 10
264.0
 20
184.0
 30
0.0
  9
$LIMMIN
 10
0.0
 20
0.0
  9
$LIMMAX
 10
187.5
 20
135.0
  9
$ORTHOMODE
 70
     1
  9
$REGENMODE
 70
     1
  9
$FILLMODE
 70
     1
  9
$QTEXTMODE
 70
     0
  9
$MIRRTEXT
 70
     0
  9
$DRAGMODE
 70
     2
  9
$LTSCALE
 40
5.0
  9
$OSMODE
 70
    37
  9
$ATTMODE
 70
     1
  9
$TEXTSIZE
 40
2.5
  9
$TRACEWID
 40
0.05
  9
$TEXTSTYLE
  7
STANDARD
  9
$CLAYER
  8
0
  9
$CELTYPE
  6
BYLAYER
  9
$CECOLOR
 62
   256
  9
$DIMSCALE
 40
1.0
  9
$DIMASZ
 40
3.0
  9
$DIMEXO
 40
2.0
  9
$DIMDLI
 40
10.0
  9
$DIMRND
 40
0.0
  9
$DIMDLE
 40
0.0
  9
$DIMEXE
 40
2.0
  9
$DIMTP
 40
0.0
  9
$DIMTM
 40
0.0
  9
$DIMTXT
 40
3.0
  9
$DIMCEN
 40
0.09
  9
$DIMTSZ
 40
0.0
  9
$DIMTOL
 70
     0
  9
$DIMLIM
 70
     0
  9
$DIMTIH
 70
     0
  9
$DIMTOH
 70
     0
  9
$DIMSE1
 70
     0
  9
$DIMSE2
 70
     0
  9
$DIMTAD
 70
     1
  9
$DIMZIN
 70
     8
  9
$DIMBLK
  1

  9
$DIMASO
 70
     0
  9
$DIMSHO
 70
     0
  9
$DIMPOST
  1

  9
$DIMAPOST
  1

  9
$DIMALT
 70
     0
  9
$DIMALTD
 70
     2
  9
$DIMALTF
 40
25.399999999999999
  9
$DIMLFAC
 40
1.0
  9
$DIMTOFL
 70
     1
  9
$DIMTVP
 40
1.6000000000000001
  9
$DIMTIX
 70
     1
  9
$DIMSOXD
 70
     0
  9
$DIMSAH
 70
     0
  9
$DIMBLK1
  1

  9
$DIMBLK2
  1

  9
$DIMSTYLE
  2
STANDARD
  9
$DIMCLRD
 70
     0
  9
$DIMCLRE
 70
     0
  9
$DIMCLRT
 70
     0
  9
$DIMTFAC
 40
1.0
  9
$DIMGAP
 40
0.09
  9
$LUNITS
 70
     2
  9
$LUPREC
 70
     1
  9
$SKETCHINC
 40
0.1
  9
$FILLETRAD
 40
0.0
  9
$AUNITS
 70
     0
  9
$AUPREC
 70
     1
  9
$MENU
  1
E:\r13\win\SUPPORT\ACAD
  9
$ELEVATION
 40
0.0
  9
$PELEVATION
 40
0.0
  9
$THICKNESS
 40
0.0
  9
$LIMCHECK
 70
     0
  9
$BLIPMODE
 70
     0
  9
$CHAMFERA
 40
3.2000000000000002
  9
$CHAMFERB
 40
3.2000000000000002
  9
$SKPOLY
 70
     0
  9
$TDCREATE
 40
2449840.5944097228
  9
$TDUPDATE
 40
2457892.6359010758
  9
$TDINDWG
 40
0.4012225463
  9
$TDUSRTIMER
 40
0.4012225463
  9
$USRTIMER
 70
     1
  9
$ANGBASE
 50
0.0
  9
$ANGDIR
 70
     0
  9
$PDMODE
 70
     0
  9
$PDSIZE
 40
0.0
  9
$PLINEWID
 40
0.0
  9
$COORDS
 70
     1
  9
$SPLFRAME
 70
     0
  9
$SPLINETYPE
 70
     6
  9
$SPLINESEGS
 70
     8
  9
$ATTDIA
 70
     0
  9
$ATTREQ
 70
     1
  9
$HANDLING
 70
     1
  9
$HANDSEED
  5
44E9
  9
$SURFTAB1
 70
     6
  9
$SURFTAB2
 70
     6
  9
$SURFTYPE
 70
     6
  9
$SURFU
 70
     6
  9
$SURFV
 70
     6
  9
$UCSNAME
  2

  9
$UCSORG
 10
0.0
 20
0.0
 30
0.0
  9
$UCSXDIR
 10
1.0
 20
0.0
 30
0.0
  9
$UCSYDIR
 10
0.0
 20
1.0
 30
0.0
  9
$PUCSNAME
  2

  9
$PUCSORG
 10
0.0
 20
0.0
 30
0.0
  9
$PUCSXDIR
 10
1.0
 20
0.0
 30
0.0
  9
$PUCSYDIR
 10
0.0
 20
1.0
 30
0.0
  9
$USERI1
 70
     0
  9
$USERI2
 70
     1
  9
$USERI3
 70
     1
  9
$USERI4
 70
     0
  9
$USERI5
 70
     0
  9
$USERR1
 40
0.0
  9
$USERR2
 40
0.0
  9
$USERR3
 40
0.0
  9
$USERR4
 40
0.0
  9
$USERR5
 40
0.0
  9
$WORLDVIEW
 70
     1
  9
$SHADEDGE
 70
     3
  9
$SHADEDIF
 70
    70
  9
$TILEMODE
 70
     1
  9
$MAXACTVP
 70
    16
  9
$PLIMCHECK
 70
     0
  9
$PEXTMIN
 10
1.0000000000000000E+020
 20
1.0000000000000000E+020
 30
1.0000000000000000E+020
  9
$PEXTMAX
 10
-1.0000000000000000E+020
 20
-1.0000000000000000E+020
 30
-1.0000000000000000E+020
  9
$PLIMMIN
 10
0.0
 20
0.0
  9
$PLIMMAX
 10
12.0
 20
9.0
  9
$UNITMODE
 70
     0
  9
$VISRETAIN
 70
     0
  9
$PLINEGEN
 70
     0
  9
$PSLTSCALE
 70
     0
  0
ENDSEC
  0
SECTION
  2
TABLES
  0
TABLE
  2
VPORT
 70
     1
  0
VPORT
  2
*ACTIVE
 70
     0
 10
0.0
 20
0.0
 11
1.0
 21
1.0
 12
245.19230769230771
 22
135.0
 13
0.0
 23
0.0
 14
5.0
 24
5.0
 15
5.0
 25
5.0
 16
0.0
 26
0.0
 36
1.0
 17
0.0
 27
0.0
 37
0.0
 40
270.0
 41
1.816239316239316
 42
50.0
 43
0.0
 44
0.0
 50
0.0
 51
0.0
 71
     0
 72
   100
 73
     1
 74
     0
 75
     0
 76
     0
 77
     0
 78
     0
  0
ENDTAB
  0
TABLE
  2
LTYPE
 70
     4
  0
LTYPE
  2
CONTINUOUS
 70
     0
  3
Solid Line
 72
    65
 73
     0
 40
0.0
  0
LTYPE
  2
CENTER
 70
     0
  3
____ _ ____ _ ____ _ ____ _ ____ _ ____ _ ____
 72
    65
 73
     4
 40
2.0
 49
1.25
 49
-0.25
 49
0.25
 49
-0.25
  0
LTYPE
  2
HIDDEN
 70
     0
  3
_ _ _ _ _ _ _ _ _ _ _ _ _ _ _ _ _ _ _ _ _ _ _
 72
    65
 73
     2
 40
0.375
 49
0.25
 49
-0.125
  0
LTYPE
  2
PHANTOM2
 70
     0
  3
___ _ _ ___ _ _ ___ _ _ ___ _ _
 72
    65
 73
     6
 40
1.25
 49
0.625
 49
-0.125
 49
0.125
 49
-0.125
 49
0.125
 49
-0.125
  0
ENDTAB
  0
TABLE
  2
LAYER
 70
     5
  0
LAYER
  2
0
 70
     0
 62
     7
  6
CONTINUOUS
  0
LAYER
  2
1
 70
     0
 62
     1
  6
CENTER
  0
LAYER
  2
2
 70
     0
 62
     2
  6
HIDDEN
  0
LAYER
  2
3
 70
     0
 62
     3
  6
CONTINUOUS
  0
LAYER
  2
DEFPOINTS
 70
     0
 62
     7
  6
CONTINUOUS
  0
ENDTAB
  0
TABLE
  2
STYLE
 70
     2
  0
STYLE
  2
STANDARD
 70
     0
 40
0.0
 41
1.0
 50
0.0
 71
     0
 42
2.5
  3
TXT
  4
BIGFONT
  0
STYLE
  2
STANDARD1
 70
     0
 40
0.0
 41
1.0
 50
0.0
 71
     0
 42
3.0
  3
txt
  4

  0
ENDTAB
  0
TABLE
  2
VIEW
 70
     1
  0
VIEW
  2
ALL
 70
     0
 40
135.0
 10
110.49579799999999
 20
67.5
 41
0.0
 11
0.0
 21
0.0
 31
1.0
 12
0.0
 22
0.0
 32
0.0
 42
0.0
 43
0.0
 44
0.0
 50
0.0
 71
     0
  0
ENDTAB
  0
TABLE
  2
UCS
 70
     0
  0
ENDTAB
  0
TABLE
  2
APPID
 70
    25
  0
APPID
  2
ACAD
 70
     0
  0
APPID
  2
DCO15
 70
     0
  0
APPID
  2
ACAD_MLEADERVER
 70
     0
  0
APPID
  2
ACAD_EXEMPT_FROM_CAD_STANDARDS
 70
     0
  0
APPID
  2
ACAD_NAV_VCDISPLAY
 70
     0
  0
APPID
  2
ACAD_DSTYLE_DIMRADIAL_EXTENSION
 70
     0
  0
APPID
  2
GENIUS_GENODEF_13
 70
     0
  0
APPID
  2
GENIUS_GENOBJ-N-FIL_13
 70
     0
  0
APPID
  2
GENIUS_GENCFG_13
 70
     0
  0
APPID
  2
GENIUS_GENCFG0_13
 70
     0
  0
APPID
  2
GENIUS_GENCFG1_13
 70
     0
  0
APPID
  2
GENIUS_GENCFG2_13
 70
     0
  0
APPID
  2
GENIUS_GENCFG3_13
 70
     0
  0
APPID
  2
GENIUS_GENCFG4_13
 70
     0
  0
APPID
  2
GENIUS_GEVCFG0_13
 70
     0
  0
APPID
  2
GENIUS_GENOENT_13
 70
     0
  0
APPID
  2
GENIUS_GENOBJ-N-HTC_13
 70
     0
  0
APPID
  2
GENIUS_GENHATCH_13
 70
     0
  0
APPID
  2
GENIUS_GENFIL_13
 70
     0
  0
APPID
  2
GENIUS_GENOBJ-N-CHA_13
 70
     0
  0
APPID
  2
GEV_VCCNULL_SWITCH_OFF
 70
     0
  0
APPID
  2
GENIUS_GENDTOL_13
 70
     0
  0
APPID
  2
GENIUS_GEFCFG0_13
 70
     0
  0
APPID
  2
ACAD_DSTYLE_DIMJAG
 70
     0
  0
APPID
  2
ACAD_DSTYLE_DIMTALN
 70
     0
  0
ENDTAB
  0
TABLE
  2
DIMSTYLE
 70
     1
  0
DIMSTYLE
  2
STANDARD
 70
     0
  3

  4

  5

  6

  7

 40
1.0
 41
0.18
 42
0.0625
 43
0.38
 44
0.18
 45
0.0
 46
0.0
 47
0.0
 48
0.0
140
0.18
141
0.09
142
0.0
143
25.399999999999999
144
1.0
145
0.0
146
1.0
147
0.09
 71
     0
 72
     0
 73
     1
 74
     1
 75
     0
 76
     0
 77
     0
 78
     0
170
     0
171
     2
172
     0
173
     0
174
     0
175
     0
176
     0
177
     0
178
     0
  0
ENDTAB
  0
ENDSEC
  0
SECTION
  2
BLOCKS
  0
BLOCK
  8
0
  2
$MODEL_SPACE
 70
     0
 10
0.0
 20
0.0
 30
0.0
  3
$MODEL_SPACE
  1

  0
ENDBLK
  5
15D
  8
0
  0
BLOCK
 67
     1
  8
0
  2
$PAPER_SPACE
 70
     0
 10
0.0
 20
0.0
 30
0.0
  3
$PAPER_SPACE
  1

  0
ENDBLK
  5
15B
 67
     1
  8
0
  0
ENDSEC
  0
SECTION
  2
ENTITIES
  0
TEXT
  5
3985
  8
0
 62
     3
 10
0.0
 20
0.0
 30
0.0
 40
10.0
  1
AGS130-M6X16
  7
STANDARD1
  0
LINE
  5
4076
  8
1
 10
250.5
 20
71.0
 30
0.0
 11
250.5
 21
45.0
 31
0.0
  0
LINE
  5
4077
  8
1
 10
133.5
 20
71.0
 30
0.0
 11
133.5
 21
45.0
 31
0.0
  0
LINE
  5
4078
  8
0
 10
135.8864999999999
 20
50.0
 30
0.0
 11
131.11349999999999
 21
50.0
 31
0.0
  0
LINE
  5
4079
  8
0
 10
135.8864999999999
 20
50.0
 30
0.0
 11
136.5
 21
50.613499999999931
 31
0.0
  0
LINE
  5
407A
  8
0
 10
130.5
 20
50.613499999999931
 30
0.0
 11
131.11349999999999
 21
50.0
 31
0.0
  0
LINE
  5
407B
  8
0
 10
136.5
 20
50.613499999999931
 30
0.0
 11
130.5
 21
50.613499999999931
 31
0.0
  0
LINE
  5
407C
  8
0
 10
130.5
 20
66.0
 30
0.0
 11
130.5
 21
50.613499999999931
 31
0.0
  0
LINE
  5
407D
  8
0
 10
136.5
 20
50.613499999999931
 30
0.0
 11
136.5
 21
66.0
 31
0.0
  0
LINE
  5
407E
  8
0
 10
252.88650000000001
 20
50.0
 30
0.0
 11
248.11349999999999
 21
50.0
 31
0.0
  0
LINE
  5
407F
  8
0
 10
252.88650000000001
 20
50.0
 30
0.0
 11
253.5
 21
50.613499999999931
 31
0.0
  0
LINE
  5
4080
  8
0
 10
247.5
 20
50.613499999999931
 30
0.0
 11
248.11349999999999
 21
50.0
 31
0.0
  0
LINE
  5
4081
  8
0
 10
253.5
 20
50.613499999999931
 30
0.0
 11
247.5
 21
50.613499999999931
 31
0.0
  0
LINE
  5
4082
  8
0
 10
247.5
 20
66.0
 30
0.0
 11
247.5
 21
50.613499999999931
 31
0.0
  0
LINE
  5
4083
  8
0
 10
253.5
 20
50.613499999999931
 30
0.0
 11
253.5
 21
66.0
 31
0.0
  0
LINE
  5
4084
  8
0
 10
248.03034488539711
 20
100.0
 30
0.0
 11
259.0
 21
81.0
 31
0.0
  0
LINE
  5
4085
  8
0
 10
259.0
 20
81.0
 30
0.0
 11
259.0
 21
66.0
 31
0.0
  0
LINE
  5
4086
  8
0
 10
259.0
 20
66.0
 30
0.0
 11
243.0
 21
66.0
 31
0.0
  0
ARC
  5
4087
  8
0
 10
241.10214165512161
 20
96.0
 30
0.0
 40
7.9999999999999334
 50
30.000000000000139
 51
90.0
  0
LINE
  5
4088
  8
0
 10
142.89785834487839
 20
104.0
 30
0.0
 11
241.10214165512161
 21
104.0
 31
0.0
  0
ARC
  5
4089
  8
0
 10
142.8978583448783
 20
96.0
 30
0.0
 40
7.9999999999999432
 50
90.0
 51
149.9999999999998
  0
LINE
  5
408A
  8
0
 10
125.0
 20
81.0
 30
0.0
 11
135.9696551146028
 21
100.0
 31
0.0
  0
LINE
  5
408B
  8
0
 10
125.0
 20
66.0
 30
0.0
 11
125.0
 21
81.0
 31
0.0
  0
LINE
  5
408C
  8
0
 10
141.0
 20
66.0
 30
0.0
 11
125.0
 21
66.0
 31
0.0
  0
LINE
  5
408D
  8
0
 10
141.0
 20
92.5
 30
0.0
 11
141.0
 21
66.0
 31
0.0
  0
ARC
  5
408E
  8
0
 10
145.0
 20
92.5
 30
0.0
 40
4.0000000000000169
 50
90.0
 51
180.0
  0
LINE
  5
408F
  8
0
 10
239.0
 20
96.5
 30
0.0
 11
145.0
 21
96.5
 31
0.0
  0
ARC
  5
4090
  8
0
 10
239.0
 20
92.5
 30
0.0
 40
4.0000000000000062
 50
0.0
 51
90.0
  0
LINE
  5
4091
  8
0
 10
243.0
 20
66.0
 30
0.0
 11
243.0
 21
92.5
 31
0.0
  0
LINE
  5
4092
  8
3
 10
248.11349999999999
 20
50.0
 30
0.0
 11
248.11349999999999
 21
66.0
 31
0.0
  0
LINE
  5
4093
  8
3
 10
252.88650000000001
 20
50.0
 30
0.0
 11
252.88650000000001
 21
66.0
 31
0.0
  0
LINE
  5
4094
  8
3
 10
131.11349999999999
 20
50.0
 30
0.0
 11
131.11349999999999
 21
66.0
 31
0.0
  0
LINE
  5
4095
  8
3
 10
135.88650000000001
 20
50.0
 30
0.0
 11
135.88650000000001
 21
66.0
 31
0.0
  0
LINE
  5
4097
  8
2
 10
50.0
 20
96.5
 30
0.0
 11
75.0
 21
96.5
 31
0.0
  0
LINE
  5
4098
  8
1
 10
62.5
 20
109.0
 30
0.0
 11
62.5
 21
45.0
 31
0.0
  0
LINE
  5
4099
  8
0
 10
50.0
 20
104.0
 30
0.0
 11
75.0
 21
104.0
 31
0.0
  0
LINE
  5
409A
  8
0
 10
59.5
 20
66.0
 30
0.0
 11
59.5
 21
50.613499999999931
 31
0.0
  0
LINE
  5
409B
  8
0
 10
65.5
 20
50.613499999999931
 30
0.0
 11
65.5
 21
66.0
 31
0.0
  0
LINE
  5
409C
  8
0
 10
64.886499999999984
 20
50.0
 30
0.0
 11
60.113499999999988
 21
50.0
 31
0.0
  0
LINE
  5
409D
  8
0
 10
65.5
 20
50.613499999999931
 30
0.0
 11
59.5
 21
50.613499999999931
 31
0.0
  0
LINE
  5
409E
  8
0
 10
64.886499999999984
 20
50.0
 30
0.0
 11
65.5
 21
50.613499999999931
 31
0.0
  0
LINE
  5
409F
  8
0
 10
59.5
 20
50.613499999999931
 30
0.0
 11
60.113499999999988
 21
50.0
 31
0.0
  0
LINE
  5
40A0
  8
0
 10
50.0
 20
66.0
 30
0.0
 11
50.0
 21
104.0
 31
0.0
  0
LINE
  5
40A1
  8
0
 10
75.0
 20
66.0
 30
0.0
 11
75.0
 21
104.0
 31
0.0
  0
LINE
  5
40A2
  8
0
 10
50.0
 20
66.0
 30
0.0
 11
75.0
 21
66.0
 31
0.0
  0
LINE
  5
40A4
  8
0
 10
50.0
 20
81.0
 30
0.0
 11
75.0
 21
81.0
 31
0.0
  0
LINE
  5
40A5
  8
3
 10
60.113499999999988
 20
50.0
 30
0.0
 11
60.113499999999988
 21
66.0
 31
0.0
  0
LINE
  5
40A6
  8
3
 10
64.886499999999984
 20
50.0
 30
0.0
 11
64.886499999999984
 21
66.0
 31
0.0
  0
LINE
  5
413D
  8
1
 10
120.0
 20
166.5
 30
0.0
 11
264.0
 21
166.5
 31
0.0
  0
LINE
  5
413E
  8
1
 10
250.5
 20
161.5
 30
0.0
 11
250.5
 21
171.5
 31
0.0
  0
LINE
  5
4140
  8
1
 10
133.5
 20
161.5
 30
0.0
 11
133.5
 21
171.5
 31
0.0
  0
LINE
  5
4141
  8
0
 10
125.0
 20
154.0
 30
0.0
 11
125.0
 21
179.0
 31
0.0
  0
LINE
  5
4142
  8
0
 10
259.0
 20
154.0
 30
0.0
 11
125.0
 21
154.0
 31
0.0
  0
LINE
  5
4143
  8
0
 10
259.0
 20
179.0
 30
0.0
 11
125.0
 21
179.0
 31
0.0
  0
LINE
  5
4144
  8
0
 10
259.0
 20
154.0
 30
0.0
 11
259.0
 21
179.0
 31
0.0
  0
LINE
  5
429F
  8
1
 10
192.0
 20
184.0
 30
0.0
 11
192.0
 21
149.0
 31
0.0
  0
LINE
  5
42A0
  8
1
 10
192.0
 20
109.0
 30
0.0
 11
192.0
 21
91.5
 31
0.0
  0
CIRCLE
  5
42A1
  8
2
 10
133.5
 20
166.5
 30
0.0
 40
2.3865000000000118
  0
CIRCLE
  5
42A2
  8
2
 10
133.5
 20
166.5
 30
0.0
 40
3.0
  0
CIRCLE
  5
42A3
  8
2
 10
250.5
 20
166.5
 30
0.0
 40
2.3865000000000118
  0
CIRCLE
  5
42A4
  8
2
 10
250.5
 20
166.5
 30
0.0
 40
3.0
  0
ENDSEC
  0
EOF
