  0
SECTION
  2
HEADER
  9
$ACADVER
  1
AC1009
  9
$INSBASE
 10
0.0
 20
0.0
 30
0.0
  9
$EXTMIN
 10
-0.0204638472032742
 20
-2.960436562073669
 30
0.0
  9
$EXTMAX
 10
293.3497475045653
 20
217.7361697605038
 30
0.0
  9
$LIMMIN
 10
0.0
 20
0.0
  9
$LIMMAX
 10
375.0
 20
270.0
  9
$ORTHOMODE
 70
     1
  9
$REGENMODE
 70
     1
  9
$FILLMODE
 70
     1
  9
$QTEXTMODE
 70
     0
  9
$MIRRTEXT
 70
     0
  9
$DRAGMODE
 70
     2
  9
$LTSCALE
 40
10.0
  9
$OSMODE
 70
  3071
  9
$ATTMODE
 70
     1
  9
$TEXTSIZE
 40
0.2
  9
$TRACEWID
 40
0.05
  9
$TEXTSTYLE
  7
STANDARD
  9
$CLAYER
  8
0
  9
$CELTYPE
  6
BYLAYER
  9
$CECOLOR
 62
   256
  9
$DIMSCALE
 40
1.0
  9
$DIMASZ
 40
3.0
  9
$DIMEXO
 40
2.0
  9
$DIMDLI
 40
0.38
  9
$DIMRND
 40
0.0
  9
$DIMDLE
 40
0.0
  9
$DIMEXE
 40
2.0
  9
$DIMTP
 40
0.0
  9
$DIMTM
 40
0.0
  9
$DIMTXT
 40
3.2000000000000002
  9
$DIMCEN
 40
0.09
  9
$DIMTSZ
 40
0.0
  9
$DIMTOL
 70
     0
  9
$DIMLIM
 70
     0
  9
$DIMTIH
 70
     0
  9
$DIMTOH
 70
     0
  9
$DIMSE1
 70
     0
  9
$DIMSE2
 70
     0
  9
$DIMTAD
 70
     1
  9
$DIMZIN
 70
     0
  9
$DIMBLK
  1

  9
$DIMASO
 70
     1
  9
$DIMSHO
 70
     0
  9
$DIMPOST
  1

  9
$DIMAPOST
  1

  9
$DIMALT
 70
     0
  9
$DIMALTD
 70
     2
  9
$DIMALTF
 40
25.399999999999999
  9
$DIMLFAC
 40
1.0
  9
$DIMTOFL
 70
     0
  9
$DIMTVP
 40
1.6000000000000001
  9
$DIMTIX
 70
     1
  9
$DIMSOXD
 70
     0
  9
$DIMSAH
 70
     0
  9
$DIMBLK1
  1

  9
$DIMBLK2
  1

  9
$DIMSTYLE
  2
STANDARD
  9
$DIMCLRD
 70
     0
  9
$DIMCLRE
 70
     0
  9
$DIMCLRT
 70
     0
  9
$DIMTFAC
 40
1.0
  9
$DIMGAP
 40
0.09
  9
$LUNITS
 70
     2
  9
$LUPREC
 70
     4
  9
$SKETCHINC
 40
0.1
  9
$FILLETRAD
 40
2.0
  9
$AUNITS
 70
     0
  9
$AUPREC
 70
     0
  9
$MENU
  1
E:\r13\win\SUPPORT\ACAD
  9
$ELEVATION
 40
0.0
  9
$PELEVATION
 40
0.0
  9
$THICKNESS
 40
0.0
  9
$LIMCHECK
 70
     0
  9
$BLIPMODE
 70
     0
  9
$CHAMFERA
 40
0.0
  9
$CHAMFERB
 40
0.0
  9
$SKPOLY
 70
     0
  9
$TDCREATE
 40
2447977.5416277782
  9
$TDUPDATE
 40
2456597.5017799311
  9
$TDINDWG
 40
0.0516920023
  9
$TDUSRTIMER
 40
0.0516920023
  9
$USRTIMER
 70
     1
  9
$ANGBASE
 50
0.0
  9
$ANGDIR
 70
     0
  9
$PDMODE
 70
     0
  9
$PDSIZE
 40
0.0
  9
$PLINEWID
 40
0.0
  9
$COORDS
 70
     1
  9
$SPLFRAME
 70
     0
  9
$SPLINETYPE
 70
     6
  9
$SPLINESEGS
 70
     8
  9
$ATTDIA
 70
     0
  9
$ATTREQ
 70
     1
  9
$HANDLING
 70
     1
  9
$HANDSEED
  5
6A5
  9
$SURFTAB1
 70
     6
  9
$SURFTAB2
 70
     6
  9
$SURFTYPE
 70
     6
  9
$SURFU
 70
     6
  9
$SURFV
 70
     6
  9
$UCSNAME
  2

  9
$UCSORG
 10
0.0
 20
0.0
 30
0.0
  9
$UCSXDIR
 10
1.0
 20
0.0
 30
0.0
  9
$UCSYDIR
 10
0.0
 20
1.0
 30
0.0
  9
$PUCSNAME
  2

  9
$PUCSORG
 10
0.0
 20
0.0
 30
0.0
  9
$PUCSXDIR
 10
1.0
 20
0.0
 30
0.0
  9
$PUCSYDIR
 10
0.0
 20
1.0
 30
0.0
  9
$USERI1
 70
     0
  9
$USERI2
 70
     1
  9
$USERI3
 70
     1
  9
$USERI4
 70
     0
  9
$USERI5
 70
     0
  9
$USERR1
 40
0.0
  9
$USERR2
 40
0.0
  9
$USERR3
 40
0.0
  9
$USERR4
 40
0.0
  9
$USERR5
 40
0.0
  9
$WORLDVIEW
 70
     1
  9
$SHADEDGE
 70
     3
  9
$SHADEDIF
 70
    70
  9
$TILEMODE
 70
     1
  9
$MAXACTVP
 70
    16
  9
$PLIMCHECK
 70
     0
  9
$PEXTMIN
 10
1.0000000000000000E+020
 20
1.0000000000000000E+020
 30
1.0000000000000000E+020
  9
$PEXTMAX
 10
-1.0000000000000000E+020
 20
-1.0000000000000000E+020
 30
-1.0000000000000000E+020
  9
$PLIMMIN
 10
0.0
 20
0.0
  9
$PLIMMAX
 10
12.0
 20
9.0
  9
$UNITMODE
 70
     0
  9
$VISRETAIN
 70
     0
  9
$PLINEGEN
 70
     1
  9
$PSLTSCALE
 70
     0
  0
ENDSEC
  0
SECTION
  2
TABLES
  0
TABLE
  2
VPORT
 70
     1
  0
VPORT
  2
*ACTIVE
 70
     0
 10
0.0
 20
0.0
 11
1.0
 21
1.0
 12
195.04380321732449
 22
133.5127261426681
 13
0.0
 23
0.0
 14
10.0
 24
10.0
 15
10.0
 25
10.0
 16
0.0
 26
0.0
 36
1.0
 17
0.0
 27
0.0
 37
0.0
 40
275.42274993631997
 41
1.831871345029239
 42
50.0
 43
0.0
 44
0.0
 50
0.0
 51
0.0
 71
     0
 72
   500
 73
     1
 74
     0
 75
     0
 76
     0
 77
     0
 78
     2
  0
ENDTAB
  0
TABLE
  2
LTYPE
 70
     4
  0
LTYPE
  2
CONTINUOUS
 70
     0
  3
Solid Line
 72
    65
 73
     0
 40
0.0
  0
LTYPE
  2
CENTER
 70
     0
  3
____ _ ____ _ ____ _ ____ _ ____ _ ____ _ ____
 72
    65
 73
     4
 40
2.0
 49
1.25
 49
-0.25
 49
0.25
 49
-0.25
  0
LTYPE
  2
HIDDEN
 70
     0
  3
_ _ _ _ _ _ _ _ _ _ _ _ _ _ _ _ _ _ _ _ _ _ _
 72
    65
 73
     2
 40
0.375
 49
0.25
 49
-0.125
  0
LTYPE
  2
PHANTOM2
 70
     0
  3
___ _ _ ___ _ _ ___ _ _ ___ _ _
 72
    65
 73
     6
 40
1.25
 49
0.625
 49
-0.125
 49
0.125
 49
-0.125
 49
0.125
 49
-0.125
  0
ENDTAB
  0
TABLE
  2
LAYER
 70
     3
  0
LAYER
  2
0
 70
     0
 62
     7
  6
CONTINUOUS
  0
LAYER
  2
1
 70
     0
 62
     1
  6
CENTER
  0
LAYER
  2
2
 70
     0
 62
     2
  6
HIDDEN
  0
ENDTAB
  0
TABLE
  2
STYLE
 70
     2
  0
STYLE
  2
STANDARD
 70
     0
 40
0.0
 41
1.0
 50
0.0
 71
     0
 42
0.2
  3
TXT
  4
BIGFONT
  0
STYLE
  2
STANDARD1
 70
     0
 40
0.0
 41
1.0
 50
0.0
 71
     0
 42
3.0
  3
txt
  4

  0
ENDTAB
  0
TABLE
  2
VIEW
 70
     1
  0
VIEW
  2
ALL
 70
     0
 40
270.0
 10
220.99159663865549
 20
135.0
 41
0.0
 11
0.0
 21
0.0
 31
1.0
 12
0.0
 22
0.0
 32
0.0
 42
0.0
 43
0.0
 44
0.0
 50
0.0
 71
     0
  0
ENDTAB
  0
TABLE
  2
UCS
 70
     0
  0
ENDTAB
  0
TABLE
  2
APPID
 70
     4
  0
APPID
  2
ACAD
 70
     0
  0
APPID
  2
ACAD_EXEMPT_FROM_CAD_STANDARDS
 70
     0
  0
APPID
  2
ACAD_MLEADERVER
 70
     0
  0
APPID
  2
ACAD_NAV_VCDISPLAY
 70
     0
  0
ENDTAB
  0
TABLE
  2
DIMSTYLE
 70
     1
  0
DIMSTYLE
  2
STANDARD
 70
     0
  3

  4

  5

  6

  7

 40
1.0
 41
0.18
 42
0.0625
 43
0.38
 44
0.18
 45
0.0
 46
0.0
 47
0.0
 48
0.0
140
0.18
141
0.09
142
0.0
143
25.399999999999999
144
1.0
145
0.0
146
1.0
147
0.09
 71
     0
 72
     0
 73
     1
 74
     1
 75
     0
 76
     0
 77
     0
 78
     0
170
     0
171
     2
172
     0
173
     0
174
     0
175
     0
176
     0
177
     0
178
     0
  0
ENDTAB
  0
ENDSEC
  0
SECTION
  2
BLOCKS
  0
BLOCK
  8
0
  2
$MODEL_SPACE
 70
     0
 10
0.0
 20
0.0
 30
0.0
  3
$MODEL_SPACE
  1

  0
ENDBLK
  5
19F
  8
0
  0
BLOCK
 67
     1
  8
0
  2
$PAPER_SPACE
 70
     0
 10
0.0
 20
0.0
 30
0.0
  3
$PAPER_SPACE
  1

  0
ENDBLK
  5
19D
 67
     1
  8
0
  0
ENDSEC
  0
SECTION
  2
ENTITIES
  0
LINE
  5
1F4
  8
0
 10
288.35115437575843
 20
71.649020729137817
 30
0.0
 11
288.35115437575843
 21
87.204165715037789
 31
0.0
  0
LINE
  5
1F5
  8
1
 10
279.35115437575843
 20
94.649020729137902
 30
0.0
 11
279.35115437575843
 21
66.649020729137831
 31
0.0
  0
LINE
  5
215
  8
0
 10
83.460959888862035
 20
113.7227500870291
 30
0.0
 11
83.960959888862646
 21
71.649020729137817
 31
0.0
  0
LINE
  5
216
  8
0
 10
58.460959888862362
 20
113.7227500870291
 30
0.0
 11
57.960959888862639
 21
71.649020729137817
 31
0.0
  0
LINE
  5
217
  8
0
 10
83.776104098523703
 20
87.204165715037803
 30
0.0
 11
58.145815679201249
 21
87.204165715037789
 31
0.0
  0
LINE
  5
218
  8
1
 10
213.3497475045655
 20
181.7361697605038
 30
0.0
 11
213.34974750456541
 21
217.7361697605038
 31
0.0
  0
ARC
  5
219
  8
0
 10
285.3811394018864
 20
188.73616976050391
 30
0.0
 40
2.0
 50
270.0
 51
354.99999999999977
  0
ARC
  5
21A
  8
0
 10
285.3811394018864
 20
210.73616976050391
 30
0.0
 40
2.0
 50
4.999999999999944
 51
90.0
  0
LINE
  5
21B
  8
1
 10
279.35115437575843
 20
206.7361697605038
 30
0.0
 11
279.35115437575843
 21
192.7361697605038
 31
0.0
  0
LINE
  5
21C
  8
0
 10
288.35115437575843
 20
199.73616976050391
 30
0.0
 11
287.37352879807008
 21
188.5618582750086
 31
0.0
  0
LINE
  5
21D
  8
0
 10
288.35115437575843
 20
199.73616976050391
 30
0.0
 11
287.37352879806991
 21
210.91048124599919
 31
0.0
  0
LINE
  5
221
  8
0
 10
83.960959888862646
 20
71.649020729137817
 30
0.0
 11
57.960959888862639
 21
71.649020729137817
 31
0.0
  0
LINE
  5
223
  8
1
 10
70.960959888862646
 20
66.649020729137817
 30
0.0
 11
70.96095988886276
 21
121.6490207291378
 31
0.0
  0
ARC
  5
22E
  8
0
 10
269.4834392113583
 20
108.6490207291378
 30
0.0
 40
8.0
 50
33.072744641601851
 51
90.0
  0
LINE
  5
231
  8
1
 10
213.3511543757584
 20
121.6490207291378
 30
0.0
 11
213.3511543757584
 21
104.1490207291378
 31
0.0
  0
LINE
  5
232
  8
0
 10
271.35115437575843
 20
105.1490207291378
 30
0.0
 11
271.35115437575843
 21
71.649020729137817
 31
0.0
  0
ARC
  5
233
  8
0
 10
76.648610640504955
 20
1.944287019257501
 30
0.0
 40
228.368781185476
 50
22.151922108212581
 51
29.101878700778158
  0
LINE
  5
234
  8
0
 10
272.45115437575839
 20
71.649020729137817
 30
0.0
 11
272.45115437575839
 21
105.1490207291378
 31
0.0
  0
LINE
  5
235
  8
0
 10
271.35115437575843
 20
71.649020729137817
 30
0.0
 11
288.35115437575843
 21
71.649020729137817
 31
0.0
  0
LINE
  5
238
  8
0
 10
138.3511543757584
 20
71.649020729137817
 30
0.0
 11
138.3511543757584
 21
87.204165715037789
 31
0.0
  0
LINE
  5
23A
  8
0
 10
155.35115437575831
 20
105.1490207291378
 30
0.0
 11
155.35115437575831
 21
71.649020729137817
 31
0.0
  0
LINE
  5
23B
  8
1
 10
147.35115437575831
 20
94.649020729137902
 30
0.0
 11
147.35115437575831
 21
66.649020729137831
 31
0.0
  0
LINE
  5
23D
  8
1
 10
293.3497475045653
 20
199.73616976050391
 30
0.0
 11
133.34974750456541
 21
199.73616976050371
 31
0.0
  0
LINE
  5
241
  8
0
 10
155.35115437575831
 20
71.649020729137831
 30
0.0
 11
138.3511543757584
 21
71.649020729137817
 31
0.0
  0
LINE
  5
243
  8
1
 10
147.35115437575831
 20
206.7361697605038
 30
0.0
 11
147.35115437575831
 21
192.7361697605038
 31
0.0
  0
ARC
  5
24A
  8
0
 10
350.05369811101201
 20
1.9442870192573869
 30
0.0
 40
228.36878118547619
 50
150.8981212992218
 51
157.8480778917874
  0
LINE
  5
24C
  8
0
 10
157.21886954015829
 20
116.6490207291378
 30
0.0
 11
269.4834392113583
 21
116.6490207291378
 31
0.0
  0
ARC
  5
251
  8
0
 10
157.21886954015841
 20
108.6490207291378
 30
0.0
 40
8.0
 50
90.0
 51
146.9272553583981
  0
LINE
  5
428
  8
0
 10
70.960959888862249
 20
116.6490207291379
 30
0.0
 11
81.635271374357544
 21
115.7151394832125
 31
0.0
  0
LINE
  5
429
  8
0
 10
70.960959888862249
 20
116.6490207291379
 30
0.0
 11
60.286648403366819
 21
115.7151394832125
 31
0.0
  0
ARC
  5
42A
  8
0
 10
60.460959888862362
 20
113.7227500870291
 30
0.0
 40
1.9999999999999989
 50
94.999999999999815
 51
180.0
  0
ARC
  5
42B
  8
0
 10
81.460959888862021
 20
113.7227500870291
 30
0.0
 40
1.9999999999999989
 50
0.0
 51
85.000000000000185
  0
ARC
  5
42C
  8
2
 10
60.460959888862362
 20
112.07529137124681
 30
0.0
 40
1.9999999999999989
 50
180.0
 51
265.00000000000023
  0
LINE
  5
42D
  8
2
 10
70.960959888862249
 20
109.149020729138
 30
0.0
 11
60.286648403366819
 21
110.08290197506329
 31
0.0
  0
LINE
  5
42E
  8
2
 10
70.960959888862249
 20
109.149020729138
 30
0.0
 11
81.635271374357544
 21
110.08290197506329
 31
0.0
  0
ARC
  5
42F
  8
2
 10
81.460959888862021
 20
112.07529137124681
 30
0.0
 40
1.9999999999999989
 50
274.99999999999977
 51
0.0
  0
LINE
  5
432
  8
0
 10
267.35115437575843
 20
109.1490207291379
 30
0.0
 11
159.3511543757584
 21
109.1490207291379
 31
0.0
  0
ARC
  5
434
  8
0
 10
159.3511543757584
 20
105.1490207291378
 30
0.0
 40
3.9999999999999991
 50
90.0
 51
180.0
  0
ARC
  5
435
  8
0
 10
267.35115437575843
 20
105.1490207291378
 30
0.0
 40
5.0999999999999988
 50
0.0
 51
90.0
  0
ARC
  5
436
  8
0
 10
159.3511543757584
 20
105.1490207291378
 30
0.0
 40
5.099999999999965
 50
90.0
 51
180.0
  0
LINE
  5
437
  8
0
 10
267.35115437575843
 20
110.2490207291378
 30
0.0
 11
159.3511543757584
 21
110.2490207291378
 31
0.0
  0
LINE
  5
446
  8
0
 10
154.2511543757584
 20
105.1490207291378
 30
0.0
 11
154.2511543757584
 21
71.649020729137817
 31
0.0
  0
POLYLINE
  5
447
  8
0
 66
     1
 10
0.0
 20
0.0
 30
0.0
  0
VERTEX
  5
667
  8
0
 10
138.54143057185831
 20
88.053873607937817
 30
0.0
  0
VERTEX
  5
668
  8
0
 10
138.52198384042299
 20
88.005738983548795
 30
0.0
  0
VERTEX
  5
669
  8
0
 10
138.50276662942659
 20
87.957552966401252
 30
0.0
  0
VERTEX
  5
66A
  8
0
 10
138.48400845930789
 20
87.909264163736637
 30
0.0
  0
VERTEX
  5
66B
  8
0
 10
138.46593885050549
 20
87.860821182796414
 30
0.0
  0
VERTEX
  5
66C
  8
0
 10
138.4487873234585
 20
87.812172630822104
 30
0.0
  0
VERTEX
  5
66D
  8
0
 10
138.43278339860561
 20
87.763267115055115
 30
0.0
  0
VERTEX
  5
66E
  8
0
 10
138.41815659638559
 20
87.714053242736924
 30
0.0
  0
VERTEX
  5
66F
  8
0
 10
138.40513643723739
 20
87.664479621109024
 30
0.0
  0
VERTEX
  5
670
  8
0
 10
138.39928608875829
 20
87.639477155637778
 30
0.0
  0
VERTEX
  5
671
  8
0
 10
138.38457654797961
 20
87.564105234999715
 30
0.0
  0
VERTEX
  5
672
  8
0
 10
138.3768172774879
 20
87.513353628605955
 30
0.0
  0
VERTEX
  5
673
  8
0
 10
138.37043554905469
 20
87.462293571745889
 30
0.0
  0
VERTEX
  5
674
  8
0
 10
138.36520177233689
 20
87.410976472830583
 30
0.0
  0
VERTEX
  5
675
  8
0
 10
138.36088635699139
 20
87.359453740271064
 30
0.0
  0
VERTEX
  5
676
  8
0
 10
138.35725971267519
 20
87.307776782478385
 30
0.0
  0
VERTEX
  5
677
  8
0
 10
138.35409224904529
 20
87.255997007863613
 30
0.0
  0
VERTEX
  5
678
  8
0
 10
138.3511543757584
 20
87.204165824837801
 30
0.0
  0
SEQEND
  5
679
  8
0
  0
POLYLINE
  5
448
  8
0
 66
     1
 10
0.0
 20
0.0
 30
0.0
  0
VERTEX
  5
67A
  8
0
 10
288.16087817965831
 20
88.053873607937817
 30
0.0
  0
VERTEX
  5
67B
  8
0
 10
288.18032491109358
 20
88.005738983548824
 30
0.0
  0
VERTEX
  5
67C
  8
0
 10
288.19954212209001
 20
87.957552966401252
 30
0.0
  0
VERTEX
  5
67D
  8
0
 10
288.21830029220882
 20
87.909264163736651
 30
0.0
  0
VERTEX
  5
67E
  8
0
 10
288.23636990101107
 20
87.860821182796442
 30
0.0
  0
VERTEX
  5
67F
  8
0
 10
288.25352142805809
 20
87.812172630822104
 30
0.0
  0
VERTEX
  5
680
  8
0
 10
288.2695253529111
 20
87.763267115055129
 30
0.0
  0
VERTEX
  5
681
  8
0
 10
288.2841521551311
 20
87.714053242736952
 30
0.0
  0
VERTEX
  5
682
  8
0
 10
288.29717231427929
 20
87.664479621109038
 30
0.0
  0
VERTEX
  5
683
  8
0
 10
288.30302266275839
 20
87.639477155637778
 30
0.0
  0
VERTEX
  5
684
  8
0
 10
288.3177322035371
 20
87.564105234999715
 30
0.0
  0
VERTEX
  5
685
  8
0
 10
288.32549147402892
 20
87.513353628605969
 30
0.0
  0
VERTEX
  5
686
  8
0
 10
288.33187320246208
 20
87.462293571745889
 30
0.0
  0
VERTEX
  5
687
  8
0
 10
288.33710697917991
 20
87.410976472830583
 30
0.0
  0
VERTEX
  5
688
  8
0
 10
288.3414223945253
 20
87.359453740271064
 30
0.0
  0
VERTEX
  5
689
  8
0
 10
288.34504903884152
 20
87.307776782478385
 30
0.0
  0
VERTEX
  5
68A
  8
0
 10
288.34821650247147
 20
87.255997007863613
 30
0.0
  0
VERTEX
  5
68B
  8
0
 10
288.35115437575843
 20
87.204165824837773
 30
0.0
  0
SEQEND
  5
68C
  8
0
  0
ARC
  5
45D
  8
0
 10
267.35115437575843
 20
105.1490207291378
 30
0.0
 40
3.9999999999999991
 50
0.000000000000007
 51
90.0
  0
LINE
  5
48E
  8
2
 10
141.85115437575851
 20
71.649020729137831
 30
0.0
 11
141.85115437575851
 21
88.649020729137874
 31
0.0
  0
LINE
  5
48F
  8
2
 10
152.85115437575831
 20
71.649020729137831
 30
0.0
 11
152.85115437575831
 21
88.649020729137874
 31
0.0
  0
LINE
  5
490
  8
2
 10
151.8511543757582
 20
89.649020729137902
 30
0.0
 11
142.85115437575831
 21
89.649020729137902
 31
0.0
  0
LINE
  5
491
  8
2
 10
142.85115437575831
 20
89.649020729137902
 30
0.0
 11
141.85115437575851
 21
88.649020729137874
 31
0.0
  0
LINE
  5
492
  8
2
 10
151.8511543757582
 20
89.649020729137902
 30
0.0
 11
152.85115437575831
 21
88.649020729137874
 31
0.0
  0
LINE
  5
494
  8
2
 10
151.35115437575831
 20
84.649020729137817
 30
0.0
 11
150.67465437575839
 21
85.820753100458063
 31
0.0
  0
LINE
  5
495
  8
2
 10
143.3511543757584
 20
84.649020729137817
 30
0.0
 11
144.02765437575829
 21
85.820753100458063
 31
0.0
  0
LINE
  5
496
  8
2
 10
143.1511543757583
 20
71.649020729137803
 30
0.0
 11
143.1511543757583
 21
73.149020729137803
 31
0.0
  0
LINE
  5
497
  8
2
 10
151.55115437575839
 20
71.649020729137831
 30
0.0
 11
151.55115437575839
 21
73.149020729137831
 31
0.0
  0
LINE
  5
498
  8
2
 10
143.1511543757583
 20
73.149020729137803
 30
0.0
 11
151.55115437575839
 21
73.149020729137803
 31
0.0
  0
LINE
  5
499
  8
2
 10
143.3511543757584
 20
73.149020729137774
 30
0.0
 11
143.3511543757584
 21
84.649020729137817
 31
0.0
  0
LINE
  5
49A
  8
2
 10
144.02765437575829
 20
73.149020729137774
 30
0.0
 11
144.02765437575829
 21
86.649020729137845
 31
0.0
  0
LINE
  5
49B
  8
2
 10
150.67465437575839
 20
73.149020729137774
 30
0.0
 11
150.67465437575839
 21
86.649020729137845
 31
0.0
  0
LINE
  5
49C
  8
2
 10
151.35115437575831
 20
73.149020729137774
 30
0.0
 11
151.35115437575831
 21
84.649020729137817
 31
0.0
  0
LINE
  5
49D
  8
2
 10
150.67465437575859
 20
86.649020729137845
 30
0.0
 11
147.35115437575831
 21
88.645980996476027
 31
0.0
  0
LINE
  5
49E
  8
2
 10
144.02765437575809
 20
86.649020729137845
 30
0.0
 11
147.35115437575831
 21
88.645980996476027
 31
0.0
  0
LINE
  5
49F
  8
2
 10
143.3511543757584
 20
84.649020729137817
 30
0.0
 11
151.35115437575831
 21
84.649020729137817
 31
0.0
  0
LINE
  5
4A0
  8
2
 10
144.02765437575829
 20
86.649020729137845
 30
0.0
 11
150.67465437575839
 21
86.649020729137845
 31
0.0
  0
LINE
  5
4B7
  8
2
 10
273.85115437575848
 20
71.649020729137831
 30
0.0
 11
273.85115437575848
 21
88.649020729137874
 31
0.0
  0
LINE
  5
4B8
  8
2
 10
284.85115437575843
 20
71.649020729137831
 30
0.0
 11
284.85115437575843
 21
88.649020729137874
 31
0.0
  0
LINE
  5
4B9
  8
2
 10
283.85115437575831
 20
89.649020729137902
 30
0.0
 11
274.85115437575831
 21
89.649020729137902
 31
0.0
  0
LINE
  5
4BA
  8
2
 10
274.85115437575831
 20
89.649020729137902
 30
0.0
 11
273.85115437575848
 21
88.649020729137874
 31
0.0
  0
LINE
  5
4BB
  8
2
 10
283.85115437575831
 20
89.649020729137902
 30
0.0
 11
284.85115437575843
 21
88.649020729137874
 31
0.0
  0
LINE
  5
4BC
  8
2
 10
283.35115437575843
 20
84.649020729137817
 30
0.0
 11
282.67465437575851
 21
85.820753100458063
 31
0.0
  0
LINE
  5
4BD
  8
2
 10
275.35115437575843
 20
84.649020729137817
 30
0.0
 11
276.02765437575829
 21
85.820753100458063
 31
0.0
  0
LINE
  5
4BE
  8
2
 10
275.15115437575832
 20
71.649020729137803
 30
0.0
 11
275.15115437575832
 21
73.149020729137803
 31
0.0
  0
LINE
  5
4BF
  8
2
 10
283.55115437575841
 20
71.649020729137831
 30
0.0
 11
283.55115437575841
 21
73.149020729137831
 31
0.0
  0
LINE
  5
4C0
  8
2
 10
275.15115437575832
 20
73.149020729137803
 30
0.0
 11
283.55115437575841
 21
73.149020729137803
 31
0.0
  0
LINE
  5
4C1
  8
2
 10
275.35115437575843
 20
73.149020729137774
 30
0.0
 11
275.35115437575843
 21
84.649020729137817
 31
0.0
  0
LINE
  5
4C2
  8
2
 10
276.02765437575829
 20
73.149020729137774
 30
0.0
 11
276.02765437575829
 21
86.649020729137845
 31
0.0
  0
LINE
  5
4C3
  8
2
 10
282.67465437575851
 20
73.149020729137774
 30
0.0
 11
282.67465437575851
 21
86.649020729137845
 31
0.0
  0
LINE
  5
4C4
  8
2
 10
283.35115437575843
 20
73.149020729137774
 30
0.0
 11
283.35115437575843
 21
84.649020729137817
 31
0.0
  0
LINE
  5
4C5
  8
2
 10
282.67465437575862
 20
86.649020729137845
 30
0.0
 11
279.35115437575843
 21
88.645980996476027
 31
0.0
  0
LINE
  5
4C6
  8
2
 10
276.02765437575817
 20
86.649020729137845
 30
0.0
 11
279.35115437575843
 21
88.645980996476027
 31
0.0
  0
LINE
  5
4C7
  8
2
 10
275.35115437575843
 20
84.649020729137817
 30
0.0
 11
283.35115437575843
 21
84.649020729137817
 31
0.0
  0
LINE
  5
4C8
  8
2
 10
276.02765437575829
 20
86.649020729137845
 30
0.0
 11
282.67465437575851
 21
86.649020729137845
 31
0.0
  0
LINE
  5
4F5
  8
0
 10
141.3211693496302
 20
212.73616976050349
 30
0.0
 11
155.35115437575831
 21
212.7361697605038
 31
0.0
  0
LINE
  5
4F6
  8
0
 10
141.32116934963031
 20
186.73616976050349
 30
0.0
 11
155.35115437575831
 21
186.7361697605038
 31
0.0
  0
LINE
  5
505
  8
0
 10
155.35115437575831
 20
212.2361697605036
 30
0.0
 11
271.35115437575831
 21
212.236169760504
 31
0.0
  0
LINE
  5
506
  8
0
 10
155.35115437575831
 20
187.23617300623721
 30
0.0
 11
271.3511543757586
 21
187.23617300623749
 31
0.0
  0
LINE
  5
507
  8
0
 10
155.35115437575831
 20
186.7361697605038
 30
0.0
 11
155.35115437575831
 21
187.23617300623721
 31
0.0
  0
LINE
  5
508
  8
0
 10
155.35115437575831
 20
212.2361697605036
 30
0.0
 11
155.35115437575831
 21
212.7361697605038
 31
0.0
  0
POLYLINE
  5
545
  8
0
 66
     1
 10
0.0
 20
0.0
 30
0.0
 70
   128
  0
VERTEX
  5
68D
  8
0
 10
151.06611893665641
 20
212.27711762822449
 30
0.0
  0
VERTEX
  5
68E
  8
0
 10
147.1170181905369
 20
212.39015930731111
 30
0.0
  0
VERTEX
  5
68F
  8
0
 10
143.44924229191929
 20
212.50604841217731
 30
0.0
  0
VERTEX
  5
690
  8
0
 10
140.61038147990229
 20
212.60560299125751
 30
0.0
  0
SEQEND
  5
691
  8
0
  0
POLYLINE
  5
546
  8
0
 66
     1
 10
0.0
 20
0.0
 30
0.0
 70
   128
  0
VERTEX
  5
692
  8
0
 10
151.06613323635341
 20
187.19522653246369
 30
0.0
  0
VERTEX
  5
693
  8
0
 10
147.11715977102469
 20
187.08218851062571
 30
0.0
  0
VERTEX
  5
694
  8
0
 10
143.44935157801481
 20
186.9662997243903
 30
0.0
  0
VERTEX
  5
695
  8
0
 10
140.6103699296475
 20
186.86674092137849
 30
0.0
  0
SEQEND
  5
696
  8
0
  0
ARC
  5
54D
  8
0
 10
154.92432394264941
 20
391.79642018550061
 30
0.0
 40
179.56075773093141
 50
268.7688017152056
 51
270.1361968267737
  0
ARC
  5
54E
  8
0
 10
154.9243040158683
 20
7.673163721472064
 30
0.0
 40
179.56351663027311
 50
89.863798907495394
 51
91.231178476832795
  0
ARC
  5
556
  8
0
 10
141.32116934963031
 20
188.73616976050349
 30
0.0
 40
2.0
 50
185.00000000000051
 51
270.0
  0
ARC
  5
557
  8
0
 10
141.3211693496302
 20
210.73616976050349
 30
0.0
 40
2.0
 50
90.0
 51
175.0000000000004
  0
LINE
  5
558
  8
0
 10
138.3511543757584
 20
199.7361697605034
 30
0.0
 11
139.32877995344671
 21
188.56185827500809
 31
0.0
  0
LINE
  5
559
  8
0
 10
138.3511543757584
 20
199.7361697605034
 30
0.0
 11
139.3287799534468
 21
210.9104812459988
 31
0.0
  0
LINE
  5
55A
  8
0
 10
285.3811394018864
 20
212.73616976050391
 30
0.0
 11
271.35115437575843
 21
212.73616976050411
 31
0.0
  0
LINE
  5
55B
  8
0
 10
285.3811394018864
 20
186.736169760504
 30
0.0
 11
271.35115437575843
 21
186.73616976050411
 31
0.0
  0
LINE
  5
55C
  8
0
 10
271.3511543757586
 20
186.7361697605042
 30
0.0
 11
271.3511543757586
 21
187.23617300623749
 31
0.0
  0
LINE
  5
55D
  8
0
 10
271.35115437575843
 20
212.236169760504
 30
0.0
 11
271.35115437575843
 21
212.73616976050411
 31
0.0
  0
POLYLINE
  5
55E
  8
0
 66
     1
 10
0.0
 20
0.0
 30
0.0
 70
   128
  0
VERTEX
  5
697
  8
0
 10
275.63478294366729
 20
212.2771176282248
 30
0.0
  0
VERTEX
  5
698
  8
0
 10
279.58388368978677
 20
212.39015930731151
 30
0.0
  0
VERTEX
  5
699
  8
0
 10
283.25165958840438
 20
212.50604841217771
 30
0.0
  0
VERTEX
  5
69A
  8
0
 10
286.09180845857429
 20
212.60564816152021
 30
0.0
  0
SEQEND
  5
69B
  8
0
  0
POLYLINE
  5
55F
  8
0
 66
     1
 10
0.0
 20
0.0
 30
0.0
 70
   128
  0
VERTEX
  5
69C
  8
0
 10
275.63476864397052
 20
187.19522653246409
 30
0.0
  0
VERTEX
  5
69D
  8
0
 10
279.58374210929912
 20
187.08218851062611
 30
0.0
  0
VERTEX
  5
69E
  8
0
 10
283.251550302309
 20
186.96629972439081
 30
0.0
  0
VERTEX
  5
69F
  8
0
 10
286.09182001086748
 20
186.86669575105151
 30
0.0
  0
SEQEND
  5
6A0
  8
0
  0
ARC
  5
560
  8
0
 10
271.77694220106332
 20
391.77295463182048
 30
0.0
 40
179.53728976789631
 50
269.86411809904041
 51
271.23124296960549
  0
ARC
  5
561
  8
0
 10
271.7787664399288
 20
7.8853862688532246
 30
0.0
 40
179.35129649767271
 50
88.768057423934721
 51
90.136605590460235
  0
TEXT
  5
607
  8
0
 62
     3
 10
0.0
 20
0.0
 30
0.0
 40
10.0
  1
AGS150T8
  7
STANDARD1
  0
ENDSEC
  0
EOF
