  0
SECTION
  2
HEADER
  9
$ACADVER
  1
AC1009
  9
$INSBASE
 10
0.0
 20
0.0
 30
0.0
  9
$EXTMIN
 10
-0.0204638472032742
 20
-2.960436562073669
 30
0.0
  9
$EXTMAX
 10
333.0
 20
200.0
 30
0.0
  9
$LIMMIN
 10
0.0
 20
0.0
  9
$LIMMAX
 10
187.5
 20
135.0
  9
$ORTHOMODE
 70
     1
  9
$REGENMODE
 70
     1
  9
$FILLMODE
 70
     1
  9
$QTEXTMODE
 70
     0
  9
$MIRRTEXT
 70
     0
  9
$DRAGMODE
 70
     2
  9
$LTSCALE
 40
5.0
  9
$OSMODE
 70
    37
  9
$ATTMODE
 70
     1
  9
$TEXTSIZE
 40
2.5
  9
$TRACEWID
 40
0.05
  9
$TEXTSTYLE
  7
STANDARD
  9
$CLAYER
  8
0
  9
$CELTYPE
  6
BYLAYER
  9
$CECOLOR
 62
   256
  9
$DIMSCALE
 40
1.0
  9
$DIMASZ
 40
3.0
  9
$DIMEXO
 40
2.0
  9
$DIMDLI
 40
10.0
  9
$DIMRND
 40
0.0
  9
$DIMDLE
 40
0.0
  9
$DIMEXE
 40
2.0
  9
$DIMTP
 40
0.0
  9
$DIMTM
 40
0.0
  9
$DIMTXT
 40
3.0
  9
$DIMCEN
 40
0.09
  9
$DIMTSZ
 40
0.0
  9
$DIMTOL
 70
     0
  9
$DIMLIM
 70
     0
  9
$DIMTIH
 70
     0
  9
$DIMTOH
 70
     0
  9
$DIMSE1
 70
     0
  9
$DIMSE2
 70
     0
  9
$DIMTAD
 70
     1
  9
$DIMZIN
 70
     8
  9
$DIMBLK
  1

  9
$DIMASO
 70
     0
  9
$DIMSHO
 70
     0
  9
$DIMPOST
  1

  9
$DIMAPOST
  1

  9
$DIMALT
 70
     0
  9
$DIMALTD
 70
     2
  9
$DIMALTF
 40
25.399999999999999
  9
$DIMLFAC
 40
1.0
  9
$DIMTOFL
 70
     1
  9
$DIMTVP
 40
1.6000000000000001
  9
$DIMTIX
 70
     1
  9
$DIMSOXD
 70
     0
  9
$DIMSAH
 70
     0
  9
$DIMBLK1
  1

  9
$DIMBLK2
  1

  9
$DIMSTYLE
  2
STANDARD
  9
$DIMCLRD
 70
     0
  9
$DIMCLRE
 70
     0
  9
$DIMCLRT
 70
     0
  9
$DIMTFAC
 40
1.0
  9
$DIMGAP
 40
0.09
  9
$LUNITS
 70
     2
  9
$LUPREC
 70
     1
  9
$SKETCHINC
 40
0.1
  9
$FILLETRAD
 40
0.0
  9
$AUNITS
 70
     0
  9
$AUPREC
 70
     1
  9
$MENU
  1
E:\r13\win\SUPPORT\ACAD
  9
$ELEVATION
 40
0.0
  9
$PELEVATION
 40
0.0
  9
$THICKNESS
 40
0.0
  9
$LIMCHECK
 70
     0
  9
$BLIPMODE
 70
     0
  9
$CHAMFERA
 40
3.2000000000000002
  9
$CHAMFERB
 40
3.2000000000000002
  9
$SKPOLY
 70
     0
  9
$TDCREATE
 40
2449840.5944097228
  9
$TDUPDATE
 40
2457892.635906945
  9
$TDINDWG
 40
0.4270819329
  9
$TDUSRTIMER
 40
0.4270819329
  9
$USRTIMER
 70
     1
  9
$ANGBASE
 50
0.0
  9
$ANGDIR
 70
     0
  9
$PDMODE
 70
     0
  9
$PDSIZE
 40
0.0
  9
$PLINEWID
 40
0.0
  9
$COORDS
 70
     1
  9
$SPLFRAME
 70
     0
  9
$SPLINETYPE
 70
     6
  9
$SPLINESEGS
 70
     8
  9
$ATTDIA
 70
     0
  9
$ATTREQ
 70
     1
  9
$HANDLING
 70
     1
  9
$HANDSEED
  5
472A
  9
$SURFTAB1
 70
     6
  9
$SURFTAB2
 70
     6
  9
$SURFTYPE
 70
     6
  9
$SURFU
 70
     6
  9
$SURFV
 70
     6
  9
$UCSNAME
  2

  9
$UCSORG
 10
0.0
 20
0.0
 30
0.0
  9
$UCSXDIR
 10
1.0
 20
0.0
 30
0.0
  9
$UCSYDIR
 10
0.0
 20
1.0
 30
0.0
  9
$PUCSNAME
  2

  9
$PUCSORG
 10
0.0
 20
0.0
 30
0.0
  9
$PUCSXDIR
 10
1.0
 20
0.0
 30
0.0
  9
$PUCSYDIR
 10
0.0
 20
1.0
 30
0.0
  9
$USERI1
 70
     0
  9
$USERI2
 70
     1
  9
$USERI3
 70
     1
  9
$USERI4
 70
     0
  9
$USERI5
 70
     0
  9
$USERR1
 40
0.0
  9
$USERR2
 40
0.0
  9
$USERR3
 40
0.0
  9
$USERR4
 40
0.0
  9
$USERR5
 40
0.0
  9
$WORLDVIEW
 70
     1
  9
$SHADEDGE
 70
     3
  9
$SHADEDIF
 70
    70
  9
$TILEMODE
 70
     1
  9
$MAXACTVP
 70
    16
  9
$PLIMCHECK
 70
     0
  9
$PEXTMIN
 10
1.0000000000000000E+020
 20
1.0000000000000000E+020
 30
1.0000000000000000E+020
  9
$PEXTMAX
 10
-1.0000000000000000E+020
 20
-1.0000000000000000E+020
 30
-1.0000000000000000E+020
  9
$PLIMMIN
 10
0.0
 20
0.0
  9
$PLIMMAX
 10
12.0
 20
9.0
  9
$UNITMODE
 70
     0
  9
$VISRETAIN
 70
     0
  9
$PLINEGEN
 70
     0
  9
$PSLTSCALE
 70
     0
  0
ENDSEC
  0
SECTION
  2
TABLES
  0
TABLE
  2
VPORT
 70
     1
  0
VPORT
  2
*ACTIVE
 70
     0
 10
0.0
 20
0.0
 11
1.0
 21
1.0
 12
245.20458261022529
 22
135.0
 13
0.0
 23
0.0
 14
5.0
 24
5.0
 15
5.0
 25
5.0
 16
0.0
 26
0.0
 36
1.0
 17
0.0
 27
0.0
 37
0.0
 40
270.06610165396262
 41
1.816239316239316
 42
50.0
 43
0.0
 44
0.0
 50
0.0
 51
0.0
 71
     0
 72
   100
 73
     1
 74
     0
 75
     0
 76
     0
 77
     0
 78
     0
  0
ENDTAB
  0
TABLE
  2
LTYPE
 70
     4
  0
LTYPE
  2
CONTINUOUS
 70
     0
  3
Solid Line
 72
    65
 73
     0
 40
0.0
  0
LTYPE
  2
CENTER
 70
     0
  3
____ _ ____ _ ____ _ ____ _ ____ _ ____ _ ____
 72
    65
 73
     4
 40
2.0
 49
1.25
 49
-0.25
 49
0.25
 49
-0.25
  0
LTYPE
  2
HIDDEN
 70
     0
  3
_ _ _ _ _ _ _ _ _ _ _ _ _ _ _ _ _ _ _ _ _ _ _
 72
    65
 73
     2
 40
0.375
 49
0.25
 49
-0.125
  0
LTYPE
  2
PHANTOM2
 70
     0
  3
___ _ _ ___ _ _ ___ _ _ ___ _ _
 72
    65
 73
     6
 40
1.25
 49
0.625
 49
-0.125
 49
0.125
 49
-0.125
 49
0.125
 49
-0.125
  0
ENDTAB
  0
TABLE
  2
LAYER
 70
     5
  0
LAYER
  2
0
 70
     0
 62
     7
  6
CONTINUOUS
  0
LAYER
  2
1
 70
     0
 62
     1
  6
CENTER
  0
LAYER
  2
2
 70
     0
 62
     2
  6
HIDDEN
  0
LAYER
  2
3
 70
     0
 62
     3
  6
CONTINUOUS
  0
LAYER
  2
DEFPOINTS
 70
     0
 62
     7
  6
CONTINUOUS
  0
ENDTAB
  0
TABLE
  2
STYLE
 70
     2
  0
STYLE
  2
STANDARD
 70
     0
 40
0.0
 41
1.0
 50
0.0
 71
     0
 42
2.5
  3
TXT
  4
BIGFONT
  0
STYLE
  2
STANDARD1
 70
     0
 40
0.0
 41
1.0
 50
0.0
 71
     0
 42
3.0
  3
txt
  4

  0
ENDTAB
  0
TABLE
  2
VIEW
 70
     1
  0
VIEW
  2
ALL
 70
     0
 40
135.0
 10
110.49579799999999
 20
67.5
 41
0.0
 11
0.0
 21
0.0
 31
1.0
 12
0.0
 22
0.0
 32
0.0
 42
0.0
 43
0.0
 44
0.0
 50
0.0
 71
     0
  0
ENDTAB
  0
TABLE
  2
UCS
 70
     0
  0
ENDTAB
  0
TABLE
  2
APPID
 70
    25
  0
APPID
  2
ACAD
 70
     0
  0
APPID
  2
DCO15
 70
     0
  0
APPID
  2
ACAD_MLEADERVER
 70
     0
  0
APPID
  2
ACAD_EXEMPT_FROM_CAD_STANDARDS
 70
     0
  0
APPID
  2
ACAD_NAV_VCDISPLAY
 70
     0
  0
APPID
  2
ACAD_DSTYLE_DIMRADIAL_EXTENSION
 70
     0
  0
APPID
  2
GENIUS_GENODEF_13
 70
     0
  0
APPID
  2
GENIUS_GENOBJ-N-FIL_13
 70
     0
  0
APPID
  2
GENIUS_GENCFG_13
 70
     0
  0
APPID
  2
GENIUS_GENCFG0_13
 70
     0
  0
APPID
  2
GENIUS_GENCFG1_13
 70
     0
  0
APPID
  2
GENIUS_GENCFG2_13
 70
     0
  0
APPID
  2
GENIUS_GENCFG3_13
 70
     0
  0
APPID
  2
GENIUS_GENCFG4_13
 70
     0
  0
APPID
  2
GENIUS_GEVCFG0_13
 70
     0
  0
APPID
  2
GENIUS_GENOENT_13
 70
     0
  0
APPID
  2
GENIUS_GENOBJ-N-HTC_13
 70
     0
  0
APPID
  2
GENIUS_GENHATCH_13
 70
     0
  0
APPID
  2
GENIUS_GENFIL_13
 70
     0
  0
APPID
  2
GENIUS_GENOBJ-N-CHA_13
 70
     0
  0
APPID
  2
GEV_VCCNULL_SWITCH_OFF
 70
     0
  0
APPID
  2
GENIUS_GENDTOL_13
 70
     0
  0
APPID
  2
GENIUS_GEFCFG0_13
 70
     0
  0
APPID
  2
ACAD_DSTYLE_DIMJAG
 70
     0
  0
APPID
  2
ACAD_DSTYLE_DIMTALN
 70
     0
  0
ENDTAB
  0
TABLE
  2
DIMSTYLE
 70
     1
  0
DIMSTYLE
  2
STANDARD
 70
     0
  3

  4

  5

  6

  7

 40
1.0
 41
0.18
 42
0.0625
 43
0.38
 44
0.18
 45
0.0
 46
0.0
 47
0.0
 48
0.0
140
0.18
141
0.09
142
0.0
143
25.399999999999999
144
1.0
145
0.0
146
1.0
147
0.09
 71
     0
 72
     0
 73
     1
 74
     1
 75
     0
 76
     0
 77
     0
 78
     0
170
     0
171
     2
172
     0
173
     0
174
     0
175
     0
176
     0
177
     0
178
     0
  0
ENDTAB
  0
ENDSEC
  0
SECTION
  2
BLOCKS
  0
BLOCK
  8
0
  2
$MODEL_SPACE
 70
     0
 10
0.0
 20
0.0
 30
0.0
  3
$MODEL_SPACE
  1

  0
ENDBLK
  5
15D
  8
0
  0
BLOCK
 67
     1
  8
0
  2
$PAPER_SPACE
 70
     0
 10
0.0
 20
0.0
 30
0.0
  3
$PAPER_SPACE
  1

  0
ENDBLK
  5
15B
 67
     1
  8
0
  0
ENDSEC
  0
SECTION
  2
ENTITIES
  0
TEXT
  5
3985
  8
0
 62
     3
 10
0.0
 20
0.0
 30
0.0
 40
10.0
  1
AGS200-M8X16
  7
STANDARD1
  0
LINE
  5
4479
  8
1
 10
317.5
 20
71.0
 30
0.0
 11
317.5
 21
45.0
 31
0.0
  0
LINE
  5
447A
  8
1
 10
138.5
 20
71.0
 30
0.0
 11
138.5
 21
45.0
 31
0.0
  0
LINE
  5
447B
  8
0
 10
141.733
 20
50.0
 30
0.0
 11
135.267
 21
50.0
 31
0.0
  0
LINE
  5
447C
  8
0
 10
141.733
 20
50.0
 30
0.0
 11
142.5
 21
50.766999999999939
 31
0.0
  0
LINE
  5
447D
  8
0
 10
134.5
 20
50.766999999999939
 30
0.0
 11
135.267
 21
50.0
 31
0.0
  0
LINE
  5
447E
  8
0
 10
142.5
 20
50.766999999999939
 30
0.0
 11
134.5
 21
50.766999999999939
 31
0.0
  0
LINE
  5
447F
  8
0
 10
134.5
 20
66.0
 30
0.0
 11
134.5
 21
50.766999999999939
 31
0.0
  0
LINE
  5
4480
  8
0
 10
142.5
 20
50.766999999999939
 30
0.0
 11
142.5
 21
66.0
 31
0.0
  0
LINE
  5
4481
  8
0
 10
320.733
 20
50.0
 30
0.0
 11
314.267
 21
50.0
 31
0.0
  0
LINE
  5
4482
  8
0
 10
320.733
 20
50.0
 30
0.0
 11
321.5
 21
50.766999999999939
 31
0.0
  0
LINE
  5
4483
  8
0
 10
313.5
 20
50.766999999999939
 30
0.0
 11
314.267
 21
50.0
 31
0.0
  0
LINE
  5
4484
  8
0
 10
321.5
 20
50.766999999999939
 30
0.0
 11
313.5
 21
50.766999999999939
 31
0.0
  0
LINE
  5
4485
  8
0
 10
313.5
 20
66.0
 30
0.0
 11
313.5
 21
50.766999999999939
 31
0.0
  0
LINE
  5
4486
  8
0
 10
321.5
 20
50.766999999999939
 30
0.0
 11
321.5
 21
66.0
 31
0.0
  0
LINE
  5
4487
  8
0
 10
312.4115427318801
 20
113.0
 30
0.0
 11
328.0
 21
86.000000000000028
 31
0.0
  0
LINE
  5
4488
  8
0
 10
328.0
 20
86.000000000000028
 30
0.0
 11
328.0
 21
66.0
 31
0.0
  0
LINE
  5
4489
  8
0
 10
328.0
 20
66.0
 30
0.0
 11
308.0
 21
66.0
 31
0.0
  0
ARC
  5
448A
  8
0
 10
305.48333950160458
 20
109.0
 30
0.0
 40
8.0000000000000124
 50
29.999999999999989
 51
90.0
  0
LINE
  5
448B
  8
0
 10
150.51666049839531
 20
117.0
 30
0.0
 11
305.48333950160458
 21
117.0
 31
0.0
  0
ARC
  5
448C
  8
0
 10
150.5166604983954
 20
109.0
 30
0.0
 40
8.0000000000000497
 50
90.0
 51
150.0
  0
LINE
  5
448D
  8
0
 10
128.0
 20
86.000000000000028
 30
0.0
 11
143.5884572681199
 21
113.0
 31
0.0
  0
LINE
  5
448E
  8
0
 10
128.0
 20
66.0
 30
0.0
 11
128.0
 21
86.000000000000028
 31
0.0
  0
LINE
  5
448F
  8
0
 10
148.0
 20
66.0
 30
0.0
 11
128.0
 21
66.0
 31
0.0
  0
LINE
  5
4490
  8
0
 10
148.0
 20
104.0
 30
0.0
 11
148.0
 21
66.0
 31
0.0
  0
ARC
  5
4491
  8
0
 10
152.0
 20
104.0
 30
0.0
 40
3.9999999999999929
 50
90.0
 51
180.0
  0
LINE
  5
4492
  8
0
 10
304.0
 20
108.0
 30
0.0
 11
152.0
 21
108.0
 31
0.0
  0
ARC
  5
4493
  8
0
 10
304.0
 20
104.0
 30
0.0
 40
4.0
 50
0.0
 51
90.0
  0
LINE
  5
4494
  8
0
 10
308.0
 20
66.0
 30
0.0
 11
308.0
 21
104.0
 31
0.0
  0
LINE
  5
4495
  8
3
 10
314.267
 20
50.0
 30
0.0
 11
314.267
 21
66.0
 31
0.0
  0
LINE
  5
4496
  8
3
 10
320.733
 20
50.0
 30
0.0
 11
320.733
 21
66.0
 31
0.0
  0
LINE
  5
4497
  8
3
 10
135.267
 20
50.0
 30
0.0
 11
135.267
 21
66.0
 31
0.0
  0
LINE
  5
4498
  8
3
 10
141.733
 20
50.0
 30
0.0
 11
141.733
 21
66.0
 31
0.0
  0
LINE
  5
44AC
  8
2
 10
78.0
 20
108.0
 30
0.0
 11
50.0
 21
108.0
 31
0.0
  0
LINE
  5
44AD
  8
1
 10
64.0
 20
122.0
 30
0.0
 11
64.0
 21
45.0
 31
0.0
  0
LINE
  5
44AE
  8
0
 10
78.0
 20
117.0
 30
0.0
 11
50.0
 21
117.0
 31
0.0
  0
LINE
  5
44AF
  8
0
 10
67.232999999999933
 20
50.0
 30
0.0
 11
68.0
 21
50.766999999999939
 31
0.0
  0
LINE
  5
44B0
  8
0
 10
60.0
 20
50.766999999999939
 30
0.0
 11
60.766999999999989
 21
50.0
 31
0.0
  0
LINE
  5
44B1
  8
0
 10
67.232999999999933
 20
50.0
 30
0.0
 11
60.766999999999989
 21
50.0
 31
0.0
  0
LINE
  5
44B2
  8
0
 10
60.0
 20
66.0
 30
0.0
 11
60.0
 21
50.766999999999939
 31
0.0
  0
LINE
  5
44B3
  8
0
 10
68.0
 20
50.766999999999939
 30
0.0
 11
68.0
 21
66.0
 31
0.0
  0
LINE
  5
44B4
  8
0
 10
68.0
 20
50.766999999999939
 30
0.0
 11
60.0
 21
50.766999999999939
 31
0.0
  0
LINE
  5
44B5
  8
0
 10
50.0
 20
117.0
 30
0.0
 11
50.0
 21
66.0
 31
0.0
  0
LINE
  5
44B6
  8
0
 10
78.0
 20
66.0
 30
0.0
 11
50.0
 21
66.0
 31
0.0
  0
LINE
  5
44B7
  8
0
 10
78.0
 20
117.0
 30
0.0
 11
78.0
 21
66.0
 31
0.0
  0
LINE
  5
44B8
  8
0
 10
78.0
 20
86.000000000000028
 30
0.0
 11
50.0
 21
86.000000000000028
 31
0.0
  0
LINE
  5
44BA
  8
3
 10
60.766999999999939
 20
50.0
 30
0.0
 11
60.766999999999939
 21
66.0
 31
0.0
  0
LINE
  5
44BB
  8
3
 10
67.233000000000004
 20
50.0
 30
0.0
 11
67.233000000000004
 21
66.0
 31
0.0
  0
LINE
  5
453E
  8
1
 10
123.0
 20
181.0
 30
0.0
 11
333.0
 21
181.0
 31
0.0
  0
LINE
  5
453F
  8
1
 10
317.5
 20
174.99999999999989
 30
0.0
 11
317.5
 21
186.99999999999989
 31
0.0
  0
LINE
  5
4541
  8
1
 10
138.5
 20
175.0
 30
0.0
 11
138.5
 21
187.0
 31
0.0
  0
LINE
  5
4542
  8
0
 10
128.0
 20
167.0
 30
0.0
 11
128.0
 21
195.0
 31
0.0
  0
LINE
  5
4543
  8
0
 10
328.0
 20
167.0
 30
0.0
 11
128.0
 21
167.0
 31
0.0
  0
LINE
  5
4544
  8
0
 10
328.0
 20
195.0
 30
0.0
 11
128.0
 21
195.0
 31
0.0
  0
LINE
  5
4545
  8
0
 10
328.0
 20
167.0
 30
0.0
 11
328.0
 21
195.0
 31
0.0
  0
CIRCLE
  5
455E
  8
2
 10
138.5
 20
181.0
 30
0.0
 40
3.2330000000000041
  0
CIRCLE
  5
455F
  8
2
 10
138.5
 20
181.0
 30
0.0
 40
4.0
  0
CIRCLE
  5
4562
  8
2
 10
317.5
 20
180.99999999999989
 30
0.0
 40
3.2330000000000041
  0
CIRCLE
  5
4563
  8
2
 10
317.5
 20
180.99999999999989
 30
0.0
 40
4.0
  0
LINE
  5
456F
  8
1
 10
228.0
 20
200.0
 30
0.0
 11
228.0
 21
162.0
 31
0.0
  0
LINE
  5
4574
  8
1
 10
228.0
 20
122.0
 30
0.0
 11
228.0
 21
103.0
 31
0.0
  0
ENDSEC
  0
EOF
