  0
SECTION
  2
HEADER
  9
$ACADVER
  1
AC1009
  9
$INSBASE
 10
0.0
 20
0.0
 30
0.0
  9
$EXTMIN
 10
-0.0204638472032742
 20
-2.960436562073669
 30
0.0
  9
$EXTMAX
 10
270.04644973431328
 20
253.8156736650264
 30
0.0
  9
$LIMMIN
 10
0.0
 20
0.0
  9
$LIMMAX
 10
750.0
 20
540.0
  9
$ORTHOMODE
 70
     1
  9
$REGENMODE
 70
     1
  9
$FILLMODE
 70
     1
  9
$QTEXTMODE
 70
     0
  9
$MIRRTEXT
 70
     0
  9
$DRAGMODE
 70
     2
  9
$LTSCALE
 40
20.0
  9
$OSMODE
 70
  3071
  9
$ATTMODE
 70
     1
  9
$TEXTSIZE
 40
0.2
  9
$TRACEWID
 40
0.05
  9
$TEXTSTYLE
  7
STANDARD
  9
$CLAYER
  8
0
  9
$CELTYPE
  6
BYLAYER
  9
$CECOLOR
 62
   256
  9
$DIMSCALE
 40
1.0
  9
$DIMASZ
 40
3.0
  9
$DIMEXO
 40
2.0
  9
$DIMDLI
 40
0.38
  9
$DIMRND
 40
0.0
  9
$DIMDLE
 40
0.0
  9
$DIMEXE
 40
2.0
  9
$DIMTP
 40
0.0
  9
$DIMTM
 40
0.0
  9
$DIMTXT
 40
3.2000000000000002
  9
$DIMCEN
 40
0.0
  9
$DIMTSZ
 40
0.0
  9
$DIMTOL
 70
     0
  9
$DIMLIM
 70
     0
  9
$DIMTIH
 70
     0
  9
$DIMTOH
 70
     0
  9
$DIMSE1
 70
     0
  9
$DIMSE2
 70
     0
  9
$DIMTAD
 70
     1
  9
$DIMZIN
 70
     0
  9
$DIMBLK
  1

  9
$DIMASO
 70
     0
  9
$DIMSHO
 70
     0
  9
$DIMPOST
  1

  9
$DIMAPOST
  1

  9
$DIMALT
 70
     0
  9
$DIMALTD
 70
     2
  9
$DIMALTF
 40
25.399999999999999
  9
$DIMLFAC
 40
1.0
  9
$DIMTOFL
 70
     0
  9
$DIMTVP
 40
1.6000000000000001
  9
$DIMTIX
 70
     1
  9
$DIMSOXD
 70
     0
  9
$DIMSAH
 70
     0
  9
$DIMBLK1
  1

  9
$DIMBLK2
  1

  9
$DIMSTYLE
  2
STANDARD
  9
$DIMCLRD
 70
     0
  9
$DIMCLRE
 70
     0
  9
$DIMCLRT
 70
     0
  9
$DIMTFAC
 40
1.0
  9
$DIMGAP
 40
0.09
  9
$LUNITS
 70
     2
  9
$LUPREC
 70
     4
  9
$SKETCHINC
 40
0.1
  9
$FILLETRAD
 40
0.0
  9
$AUNITS
 70
     0
  9
$AUPREC
 70
     4
  9
$MENU
  1
E:\r13\win\SUPPORT\ACAD
  9
$ELEVATION
 40
0.0
  9
$PELEVATION
 40
0.0
  9
$THICKNESS
 40
0.0
  9
$LIMCHECK
 70
     0
  9
$BLIPMODE
 70
     0
  9
$CHAMFERA
 40
0.0
  9
$CHAMFERB
 40
0.0
  9
$SKPOLY
 70
     0
  9
$TDCREATE
 40
2449840.6227546302
  9
$TDUPDATE
 40
2456597.5642642942
  9
$TDINDWG
 40
0.1447954167
  9
$TDUSRTIMER
 40
2456440.133878889
  9
$USRTIMER
 70
     1
  9
$ANGBASE
 50
0.0
  9
$ANGDIR
 70
     0
  9
$PDMODE
 70
     0
  9
$PDSIZE
 40
0.0
  9
$PLINEWID
 40
0.0
  9
$COORDS
 70
     1
  9
$SPLFRAME
 70
     0
  9
$SPLINETYPE
 70
     6
  9
$SPLINESEGS
 70
     8
  9
$ATTDIA
 70
     0
  9
$ATTREQ
 70
     1
  9
$HANDLING
 70
     1
  9
$HANDSEED
  5
3D9A
  9
$SURFTAB1
 70
     6
  9
$SURFTAB2
 70
     6
  9
$SURFTYPE
 70
     6
  9
$SURFU
 70
     6
  9
$SURFV
 70
     6
  9
$UCSNAME
  2

  9
$UCSORG
 10
0.0
 20
0.0
 30
0.0
  9
$UCSXDIR
 10
1.0
 20
0.0
 30
0.0
  9
$UCSYDIR
 10
0.0
 20
1.0
 30
0.0
  9
$PUCSNAME
  2

  9
$PUCSORG
 10
0.0
 20
0.0
 30
0.0
  9
$PUCSXDIR
 10
1.0
 20
0.0
 30
0.0
  9
$PUCSYDIR
 10
0.0
 20
1.0
 30
0.0
  9
$USERI1
 70
     0
  9
$USERI2
 70
     1
  9
$USERI3
 70
     0
  9
$USERI4
 70
     0
  9
$USERI5
 70
     0
  9
$USERR1
 40
0.0
  9
$USERR2
 40
0.0
  9
$USERR3
 40
0.0
  9
$USERR4
 40
0.0
  9
$USERR5
 40
0.0
  9
$WORLDVIEW
 70
     1
  9
$SHADEDGE
 70
     3
  9
$SHADEDIF
 70
    70
  9
$TILEMODE
 70
     1
  9
$MAXACTVP
 70
    16
  9
$PLIMCHECK
 70
     0
  9
$PEXTMIN
 10
1.0000000000000000E+020
 20
1.0000000000000000E+020
 30
1.0000000000000000E+020
  9
$PEXTMAX
 10
-1.0000000000000000E+020
 20
-1.0000000000000000E+020
 30
-1.0000000000000000E+020
  9
$PLIMMIN
 10
0.0
 20
0.0
  9
$PLIMMAX
 10
0.0
 20
0.0
  9
$UNITMODE
 70
     0
  9
$VISRETAIN
 70
     0
  9
$PLINEGEN
 70
     0
  9
$PSLTSCALE
 70
     0
  0
ENDSEC
  0
SECTION
  2
TABLES
  0
TABLE
  2
VPORT
 70
     1
  0
VPORT
  2
*ACTIVE
 70
     0
 10
0.0
 20
0.0
 11
1.0
 21
1.0
 12
390.03402345615979
 22
268.50860658393782
 13
0.0
 23
0.0
 14
20.0
 24
20.0
 15
20.0
 25
20.0
 16
0.0
 26
0.0
 36
1.0
 17
0.0
 27
0.0
 37
0.0
 40
547.85258761088789
 41
1.831871345029239
 42
50.0
 43
0.0
 44
0.0
 50
0.0
 51
0.0
 71
    16
 72
   100
 73
     1
 74
     0
 75
     0
 76
     0
 77
     0
 78
     2
  0
ENDTAB
  0
TABLE
  2
LTYPE
 70
     4
  0
LTYPE
  2
CONTINUOUS
 70
     0
  3
Solid Line
 72
    65
 73
     0
 40
0.0
  0
LTYPE
  2
PHANTOM2
 70
     0
  3
___ _ _ ___ _ _ ___ _ _ ___ _ _
 72
    65
 73
     6
 40
1.25
 49
0.625
 49
-0.125
 49
0.125
 49
-0.125
 49
0.125
 49
-0.125
  0
LTYPE
  2
CENTER
 70
     0
  3
____ _ ____ _ ____ _ ____ _ ____ _ ____ _ ____
 72
    65
 73
     4
 40
2.0
 49
1.25
 49
-0.25
 49
0.25
 49
-0.25
  0
LTYPE
  2
HIDDEN
 70
     0
  3
_ _ _ _ _ _ _ _ _ _ _ _ _ _ _ _ _ _ _ _ _ _ _
 72
    65
 73
     2
 40
0.375
 49
0.25
 49
-0.125
  0
ENDTAB
  0
TABLE
  2
LAYER
 70
     4
  0
LAYER
  2
0
 70
     0
 62
     7
  6
CONTINUOUS
  0
LAYER
  2
1
 70
     0
 62
     1
  6
CENTER
  0
LAYER
  2
3
 70
     0
 62
     3
  6
CONTINUOUS
  0
LAYER
  2
2
 70
     0
 62
     2
  6
HIDDEN
  0
ENDTAB
  0
TABLE
  2
STYLE
 70
     3
  0
STYLE
  2
STANDARD
 70
     0
 40
0.0
 41
1.0
 50
0.0
 71
     0
 42
0.2
  3
TXT
  4
BIGFONT
  0
STYLE
  2
ANNOTATIVE
 70
     0
 40
0.0
 41
1.0
 50
0.0
 71
     0
 42
0.2
  3
txt
  4

  0
STYLE
  2
STANDARD1
 70
     0
 40
0.0
 41
1.0
 50
0.0
 71
     0
 42
3.0
  3
txt
  4

  0
ENDTAB
  0
TABLE
  2
VIEW
 70
     1
  0
VIEW
  2
ALL
 70
     0
 40
540.0
 10
441.98319299999991
 20
270.0
 41
0.0
 11
0.0
 21
0.0
 31
1.0
 12
0.0
 22
0.0
 32
0.0
 42
0.0
 43
0.0
 44
0.0
 50
0.0
 71
     0
  0
ENDTAB
  0
TABLE
  2
UCS
 70
     0
  0
ENDTAB
  0
TABLE
  2
APPID
 70
     7
  0
APPID
  2
ACAD
 70
     0
  0
APPID
  2
ACADANNOTATIVE
 70
     0
  0
APPID
  2
ACAD_NAV_VCDISPLAY
 70
     0
  0
APPID
  2
ACAD_EXEMPT_FROM_CAD_STANDARDS
 70
     0
  0
APPID
  2
ACAD_DSTYLE_DIMJAG
 70
     0
  0
APPID
  2
ACAD_DSTYLE_DIMTALN
 70
     0
  0
APPID
  2
ACAD_MLEADERVER
 70
     0
  0
ENDTAB
  0
TABLE
  2
DIMSTYLE
 70
     2
  0
DIMSTYLE
  2
STANDARD
 70
     0
  3

  4

  5

  6

  7

 40
1.0
 41
0.18
 42
0.0625
 43
0.38
 44
0.18
 45
0.0
 46
0.0
 47
0.0
 48
0.0
140
0.18
141
0.09
142
0.0
143
25.399999999999999
144
1.0
145
0.0
146
1.0
147
0.09
 71
     0
 72
     0
 73
     1
 74
     1
 75
     0
 76
     0
 77
     0
 78
     0
170
     0
171
     2
172
     0
173
     0
174
     0
175
     0
176
     0
177
     0
178
     0
  0
DIMSTYLE
  2
ANNOTATIVE
 70
     0
  3

  4

  5

  6

  7

 40
1.0
 41
0.18
 42
0.0625
 43
0.38
 44
0.18
 45
0.0
 46
0.0
 47
0.0
 48
0.0
140
0.18
141
0.09
142
0.0
143
25.399999999999999
144
1.0
145
0.0
146
1.0
147
0.09
 71
     0
 72
     0
 73
     1
 74
     1
 75
     0
 76
     0
 77
     0
 78
     0
170
     0
171
     2
172
     0
173
     0
174
     0
175
     0
176
     0
177
     0
178
     0
  0
ENDTAB
  0
ENDSEC
  0
SECTION
  2
BLOCKS
  0
BLOCK
  8
0
  2
$MODEL_SPACE
 70
     0
 10
0.0
 20
0.0
 30
0.0
  3
$MODEL_SPACE
  1

  0
ENDBLK
  5
3848
  8
0
  0
BLOCK
 67
     1
  8
0
  2
$PAPER_SPACE
 70
     0
 10
0.0
 20
0.0
 30
0.0
  3
$PAPER_SPACE
  1

  0
ENDBLK
  5
3844
 67
     1
  8
0
  0
BLOCK
  8
0
  2
M8
 70
     0
 10
0.0
 20
0.0
 30
0.0
  3
M8
  1

  0
LINE
  5
2E97
  8
0
 10
118.7883779453562
 20
175.58478053774769
 30
0.0
 11
120.18779196763541
 21
175.66393820974409
 31
0.0
  0
LINE
  5
2E98
  8
0
 10
156.9562904583739
 20
177.89236458133999
 30
0.0
 11
158.19014758341771
 21
177.93753232922489
 31
0.0
  0
ARC
  5
2E99
  8
0
 10
166.88890696718011
 20
78.166342110069763
 30
0.0
 40
99.999850416064575
 50
85.439657926671543
 51
91.630815978641436
  0
ARC
  5
2E9A
  8
0
 10
166.888906163012
 20
292.4854178521424
 30
0.0
 40
99.999881829484281
 50
268.36918499473512
 51
274.56034109995358
  0
POLYLINE
  5
2E9B
  8
0
 66
     1
 10
0.0
 20
0.0
 30
0.0
 70
   128
  0
VERTEX
  5
3A41
  8
0
 10
158.19014758341771
 20
192.71419618394319
 30
0.0
  0
VERTEX
  5
3A42
  8
0
 10
161.11414656513199
 20
192.6148152176672
 30
0.0
  0
VERTEX
  5
3A43
  8
0
 10
161.6200223612116
 20
192.5987117190295
 30
0.0
  0
VERTEX
  5
3A44
  8
0
 10
162.57973537319171
 20
192.56904490407641
 30
0.0
  0
VERTEX
  5
3A45
  8
0
 10
164.04298469894391
 20
192.52604061853231
 30
0.0
  0
SEQEND
  5
3A46
  8
0
  0
POLYLINE
  5
2E9C
  8
0
 66
     1
 10
0.0
 20
0.0
 30
0.0
 70
   128
  0
VERTEX
  5
3A47
  8
0
 10
164.04298469894391
 20
178.1256878946358
 30
0.0
  0
VERTEX
  5
3A48
  8
0
 10
162.57747039669019
 20
178.0826146912211
 30
0.0
  0
VERTEX
  5
3A49
  8
0
 10
161.10922173135739
 20
178.0367549706632
 30
0.0
  0
VERTEX
  5
3A4A
  8
0
 10
159.5075964974688
 20
177.98363978158761
 30
0.0
  0
VERTEX
  5
3A4B
  8
0
 10
158.19014758341771
 20
177.93753232922489
 30
0.0
  0
SEQEND
  5
3A4C
  8
0
  0
ARC
  5
2E9D
  8
0
 10
175.43611124926881
 20
185.32586425658411
 30
0.0
 40
7.5000002243390309
 50
265.43964622973652
 51
94.560353770264399
  0
POLYLINE
  5
2E9E
  8
0
 66
     1
 10
0.0
 20
0.0
 30
0.0
 70
   128
  0
VERTEX
  5
3A4D
  8
0
 10
118.9022591384575
 20
195.09423386421139
 30
0.0
  0
VERTEX
  5
3A4E
  8
0
 10
123.0891427072214
 20
194.747756720745
 30
0.0
  0
VERTEX
  5
3A4F
  8
0
 10
127.52741538458331
 20
194.40472267683691
 30
0.0
  0
VERTEX
  5
3A50
  8
0
 10
131.7785993265436
 20
194.0995180245869
 30
0.0
  0
VERTEX
  5
3A51
  8
0
 10
136.2325955229328
 20
193.8042505842084
 30
0.0
  0
VERTEX
  5
3A52
  8
0
 10
140.5056655453966
 20
193.54451403137381
 30
0.0
  0
VERTEX
  5
3A53
  8
0
 10
142.83594638579351
 20
193.4125726309054
 30
0.0
  0
VERTEX
  5
3A54
  8
0
 10
145.35605684392911
 20
193.27758673694069
 30
0.0
  0
VERTEX
  5
3A55
  8
0
 10
148.06607515089971
 20
193.14135659601629
 30
0.0
  0
VERTEX
  5
3A56
  8
0
 10
150.21366030447939
 20
193.03996723260821
 30
0.0
  0
VERTEX
  5
3A57
  8
0
 10
152.2748410748766
 20
192.9481164750093
 30
0.0
  0
VERTEX
  5
3A58
  8
0
 10
154.7584101604746
 20
192.8445445571476
 30
0.0
  0
VERTEX
  5
3A59
  8
0
 10
156.8121068226622
 20
192.76475954916421
 30
0.0
  0
VERTEX
  5
3A5A
  8
0
 10
158.19014758341771
 20
192.71419618394319
 30
0.0
  0
SEQEND
  5
3A5B
  8
0
  0
POLYLINE
  5
2E9F
  8
0
 66
     1
 10
0.0
 20
0.0
 30
0.0
 70
   128
  0
VERTEX
  5
3A5C
  8
0
 10
156.95684925191861
 20
177.89225002866331
 30
0.0
  0
VERTEX
  5
3A5D
  8
0
 10
155.6186355697439
 20
177.84124894183219
 30
0.0
  0
VERTEX
  5
3A5E
  8
0
 10
153.66828218572601
 20
177.76267791282481
 30
0.0
  0
VERTEX
  5
3A5F
  8
0
 10
151.74559280746439
 20
177.68053759005011
 30
0.0
  0
VERTEX
  5
3A60
  8
0
 10
150.12195483320221
 20
177.60755030553881
 30
0.0
  0
VERTEX
  5
3A61
  8
0
 10
148.7537153112219
 20
177.5434683274859
 30
0.0
  0
VERTEX
  5
3A62
  8
0
 10
147.20117077701551
 20
177.4678989511365
 30
0.0
  0
VERTEX
  5
3A63
  8
0
 10
145.49248069994911
 20
177.38122075911701
 30
0.0
  0
VERTEX
  5
3A64
  8
0
 10
142.16146022551521
 20
177.20167014863429
 30
0.0
  0
VERTEX
  5
3A65
  8
0
 10
139.16752078109249
 20
177.0283538114661
 30
0.0
  0
VERTEX
  5
3A66
  8
0
 10
135.90328358583909
 20
176.826505475902
 30
0.0
  0
VERTEX
  5
3A67
  8
0
 10
131.5501570748614
 20
176.53639104332859
 30
0.0
  0
VERTEX
  5
3A68
  8
0
 10
127.36465745144351
 20
176.23486604657111
 30
0.0
  0
VERTEX
  5
3A69
  8
0
 10
123.0123654054926
 20
175.8978176128501
 30
0.0
  0
VERTEX
  5
3A6A
  8
0
 10
120.18779196763541
 20
175.66393820974409
 30
0.0
  0
SEQEND
  5
3A6B
  8
0
  0
POLYLINE
  5
2EA0
  8
0
 66
     1
 10
0.0
 20
0.0
 30
0.0
 70
   128
  0
VERTEX
  5
3A6C
  8
0
 10
114.20331160076719
 20
176.90136425312701
 30
0.0
  0
VERTEX
  5
3A6D
  8
0
 10
115.0352699729131
 20
177.58945983018819
 30
0.0
  0
VERTEX
  5
3A6E
  8
0
 10
115.82828276329499
 20
178.40028509613219
 30
0.0
  0
SEQEND
  5
3A6F
  8
0
  0
POLYLINE
  5
2EA1
  8
0
 66
     1
 10
0.0
 20
0.0
 30
0.0
 70
   128
  0
VERTEX
  5
3A70
  8
0
 10
115.82828276329499
 20
192.2514434170358
 30
0.0
  0
VERTEX
  5
3A71
  8
0
 10
114.7489688406216
 20
193.3155437197918
 30
0.0
  0
VERTEX
  5
3A72
  8
0
 10
114.20331160076719
 20
193.7503642600411
 30
0.0
  0
SEQEND
  5
3A73
  8
0
  0
ARC
  5
2EA2
  8
0
 10
107.93397269250799
 20
185.32586425658411
 30
0.0
 40
10.50160836259929
 50
318.73992952071882
 51
41.260070479282092
  0
POLYLINE
  5
2EA3
  8
0
 66
     1
 10
0.0
 20
0.0
 30
0.0
 70
   128
  0
VERTEX
  5
3A74
  8
0
 10
118.7883779453562
 20
175.58478053774769
 30
0.0
  0
VERTEX
  5
3A75
  8
0
 10
116.6980570229219
 20
175.11563237872059
 30
0.0
  0
VERTEX
  5
3A76
  8
0
 10
114.6153547848092
 20
174.17294021811429
 30
0.0
  0
SEQEND
  5
3A77
  8
0
  0
POLYLINE
  5
2EA4
  8
0
 66
     1
 10
0.0
 20
0.0
 30
0.0
 70
   128
  0
VERTEX
  5
3A78
  8
0
 10
114.6153547848092
 20
196.4787882950537
 30
0.0
  0
VERTEX
  5
3A79
  8
0
 10
116.70883335643281
 20
195.53264558430851
 30
0.0
  0
VERTEX
  5
3A7A
  8
0
 10
118.9022591384575
 20
195.09423386421139
 30
0.0
  0
SEQEND
  5
3A7B
  8
0
  0
ARC
  5
2EA5
  8
0
 10
107.9367558293801
 20
185.32586425658411
 30
0.0
 40
10.49961530457918
 50
53.356322524978381
 51
306.6436774750224
  0
ARC
  5
2EA6
  8
0
 10
107.9361121675486
 20
185.32586425658411
 30
0.0
 40
12.99999986723493
 50
59.083529173672098
 51
300.91647082632869
  0
LINE
  5
2EA7
  8
0
 10
103.9361116523372
 20
187.63526531051929
 30
0.0
 11
103.9361116523372
 21
183.01646320264879
 31
0.0
  0
LINE
  5
2EA8
  8
0
 10
111.9361120323168
 20
183.01646320264879
 30
0.0
 11
111.9361120323168
 21
187.63526531051929
 31
0.0
  0
POLYLINE
  5
2EA9
  8
0
 66
     1
 10
0.0
 20
0.0
 30
0.0
 70
   128
  0
VERTEX
  5
3A7C
  8
0
 10
103.9361116523372
 20
183.01646320264879
 30
0.0
  0
VERTEX
  5
3A7D
  8
0
 10
104.6107996767835
 20
182.62693194788039
 30
0.0
  0
VERTEX
  5
3A7E
  8
0
 10
105.956637165554
 20
181.8499122944111
 30
0.0
  0
VERTEX
  5
3A7F
  8
0
 10
107.261311302472
 20
181.0966585960621
 30
0.0
  0
VERTEX
  5
3A80
  8
0
 10
107.93611184232699
 20
180.7070621487135
 30
0.0
  0
SEQEND
  5
3A81
  8
0
  0
POLYLINE
  5
2EAA
  8
0
 66
     1
 10
0.0
 20
0.0
 30
0.0
 70
   128
  0
VERTEX
  5
3A82
  8
0
 10
111.9361120323168
 20
187.63526531051929
 30
0.0
  0
VERTEX
  5
3A83
  8
0
 10
111.26256860331461
 20
188.02413555909041
 30
0.0
  0
VERTEX
  5
3A84
  8
0
 10
109.9596385425405
 20
188.77638273056681
 30
0.0
  0
VERTEX
  5
3A85
  8
0
 10
108.6157537461707
 20
189.55227501805959
 30
0.0
  0
VERTEX
  5
3A86
  8
0
 10
107.93611184232699
 20
189.9446663644546
 30
0.0
  0
SEQEND
  5
3A87
  8
0
  0
POLYLINE
  5
2EAB
  8
0
 66
     1
 10
0.0
 20
0.0
 30
0.0
 70
   128
  0
VERTEX
  5
3A88
  8
0
 10
107.93611184232699
 20
180.7070621487135
 30
0.0
  0
VERTEX
  5
3A89
  8
0
 10
108.5328161530645
 20
181.05156954493449
 30
0.0
  0
VERTEX
  5
3A8A
  8
0
 10
109.8066537920834
 20
181.7870200809472
 30
0.0
  0
VERTEX
  5
3A8B
  8
0
 10
110.8267992781924
 20
182.37600128281949
 30
0.0
  0
VERTEX
  5
3A8C
  8
0
 10
111.9361120323168
 20
183.01646320264879
 30
0.0
  0
SEQEND
  5
3A8D
  8
0
  0
POLYLINE
  5
2EAC
  8
0
 66
     1
 10
0.0
 20
0.0
 30
0.0
 70
   128
  0
VERTEX
  5
3A8E
  8
0
 10
107.93611184232699
 20
189.9446663644546
 30
0.0
  0
VERTEX
  5
3A8F
  8
0
 10
106.8686131434964
 20
189.32834548991261
 30
0.0
  0
VERTEX
  5
3A90
  8
0
 10
105.80805908427401
 20
188.7160346575462
 30
0.0
  0
VERTEX
  5
3A91
  8
0
 10
104.53619817741981
 20
187.9817252245181
 30
0.0
  0
VERTEX
  5
3A92
  8
0
 10
103.9361116523372
 20
187.63526531051929
 30
0.0
  0
SEQEND
  5
3A93
  8
0
  0
ARC
  5
2EAD
  8
0
 10
107.93611184232699
 20
185.32586425658411
 30
0.0
 40
10.5
 50
59.32151122661476
 51
270.00000000000068
  0
ARC
  5
2EAE
  8
0
 10
107.93611184232699
 20
185.32586425658411
 30
0.0
 40
10.49999999999998
 50
29.566573947152399
 51
43.2960199004457
  0
ARC
  5
2EAF
  8
0
 10
107.93611184232699
 20
185.32586425658411
 30
0.0
 40
10.500000000000011
 50
307.64022359142382
 51
322.06039769560118
  0
LINE
  5
2EB0
  8
0
 10
108.9536688337551
 20
174.8752859618896
 30
0.0
 11
107.93611184232699
 21
174.82586439814509
 31
0.0
  0
ARC
  5
2EB1
  8
0
 10
107.93611184232699
 20
185.32586425658411
 30
0.0
 40
3.9999999999999649
 50
59.999999999999311
 51
120.0000000000009
  0
ARC
  5
2EB2
  8
0
 10
107.93611184232699
 20
185.32586425658411
 30
0.0
 40
4.0
 50
0.0
 51
59.99999999999968
  0
ARC
  5
2EB3
  8
0
 10
107.93611184232699
 20
185.32586425658411
 30
0.0
 40
4.0000000000000071
 50
300.00000000000068
 51
0.0
  0
ARC
  5
2EB4
  8
0
 10
107.93611184232699
 20
185.32586425658411
 30
0.0
 40
4.0000000000000151
 50
240.00000000000071
 51
300.0000000000008
  0
ARC
  5
2EB5
  8
0
 10
107.93611184232699
 20
185.32586425658411
 30
0.0
 40
4.0000000000000142
 50
120.0000000000007
 51
180.0
  0
ARC
  5
2EB6
  8
0
 10
107.93611184232699
 20
185.32586425658411
 30
0.0
 40
4.0000000000000151
 50
180.0
 51
240.00000000000071
  0
CIRCLE
  5
2EB7
  8
0
 10
107.93611184232699
 20
185.32586425658411
 30
0.0
 40
3.4000000000000039
  0
LINE
  5
2EB8
  8
0
 10
37.060948053024482
 20
113.40071655041611
 30
0.0
 11
37.060948053024482
 21
82.752296451247076
 31
0.0
  0
LINE
  5
2EB9
  8
0
 10
63.060948589466278
 20
82.752296451247076
 30
0.0
 11
63.060948589466278
 21
113.40082085854451
 31
0.0
  0
ARC
  5
2EBA
  8
0
 10
41.309510788138383
 20
113.0827657518528
 30
0.0
 40
4.2604412172646784
 50
111.83218974184361
 51
175.7126310314365
  0
ARC
  5
2EBB
  8
0
 10
58.8092152759464
 20
113.0803364993958
 30
0.0
 40
4.2638727285175948
 50
4.3097196287140287
 51
68.140235941885521
  0
ARC
  5
2EBC
  8
0
 10
38.060948321245363
 20
82.752296425170059
 30
0.0
 40
1.0000000000000031
 50
180.0
 51
270.0000000000008
  0
ARC
  5
2EBD
  8
0
 10
62.060948321245363
 20
82.752296425170059
 30
0.0
 40
1.0
 50
270.0000000000008
 51
0.0
  0
POLYLINE
  5
2EBE
  8
0
 66
     1
 10
0.0
 20
0.0
 30
0.0
 70
   128
  0
VERTEX
  5
3A94
  8
0
 10
60.396845416746771
 20
117.0376094353858
 30
0.0
  0
VERTEX
  5
3A95
  8
0
 10
59.879363478742249
 20
117.2736363781158
 30
0.0
  0
VERTEX
  5
3A96
  8
0
 10
59.849449219394067
 20
117.2819256075113
 30
0.0
  0
SEQEND
  5
3A97
  8
0
  0
POLYLINE
  5
2EBF
  8
0
 66
     1
 10
0.0
 20
0.0
 30
0.0
 70
   128
  0
VERTEX
  5
3A98
  8
0
 10
40.275281452618543
 20
117.2843084038815
 30
0.0
  0
VERTEX
  5
3A99
  8
0
 10
40.244837255797997
 20
117.27627388364699
 30
0.0
  0
VERTEX
  5
3A9A
  8
0
 10
39.725102448485529
 20
117.03763551241791
 30
0.0
  0
SEQEND
  5
3A9B
  8
0
  0
POLYLINE
  5
2EC0
  8
0
 66
     1
 10
0.0
 20
0.0
 30
0.0
 70
   128
  0
VERTEX
  5
3A9C
  8
0
 10
42.793149846886223
 20
124.5866396856447
 30
0.0
  0
VERTEX
  5
3A9D
  8
0
 10
42.697347664855009
 20
124.2478380275432
 30
0.0
  0
VERTEX
  5
3A9E
  8
0
 10
42.561830451361431
 20
123.81543985731039
 30
0.0
  0
VERTEX
  5
3A9F
  8
0
 10
42.428303474209827
 20
123.41498232609661
 30
0.0
  0
VERTEX
  5
3AA0
  8
0
 10
42.302059439591687
 20
123.0496133042041
 30
0.0
  0
VERTEX
  5
3AA1
  8
0
 10
42.187625506542261
 20
122.7247121108237
 30
0.0
  0
VERTEX
  5
3AA2
  8
0
 10
42.08873860689215
 20
122.44655213481821
 30
0.0
  0
VERTEX
  5
3AA3
  8
0
 10
41.996510663650561
 20
122.18811757094301
 30
0.0
  0
VERTEX
  5
3AA4
  8
0
 10
41.854192467055867
 20
121.78924328810611
 30
0.0
  0
VERTEX
  5
3AA5
  8
0
 10
41.667993144713002
 20
121.2639103007976
 30
0.0
  0
VERTEX
  5
3AA6
  8
0
 10
41.433338971458042
 20
120.5905305517379
 30
0.0
  0
VERTEX
  5
3AA7
  8
0
 10
41.145389863870719
 20
119.7385901880923
 30
0.0
  0
VERTEX
  5
3AA8
  8
0
 10
40.799218194208727
 20
118.6658183408443
 30
0.0
  0
VERTEX
  5
3AA9
  8
0
 10
40.412771311712483
 20
117.3898829281616
 30
0.0
  0
SEQEND
  5
3AAA
  8
0
  0
POLYLINE
  5
2EC1
  8
0
 66
     1
 10
0.0
 20
0.0
 30
0.0
 70
   128
  0
VERTEX
  5
3AAB
  8
0
 10
59.709370288655208
 20
117.3897111511239
 30
0.0
  0
VERTEX
  5
3AAC
  8
0
 10
59.422890619955652
 20
118.3436701369945
 30
0.0
  0
VERTEX
  5
3AAD
  8
0
 10
59.156862051807039
 20
119.1867964637939
 30
0.0
  0
VERTEX
  5
3AAE
  8
0
 10
58.931056374333487
 20
119.8750661981765
 30
0.0
  0
VERTEX
  5
3AAF
  8
0
 10
58.742761576197722
 20
120.4323659015361
 30
0.0
  0
VERTEX
  5
3AB0
  8
0
 10
58.589409069738949
 20
120.8768004847232
 30
0.0
  0
VERTEX
  5
3AB1
  8
0
 10
58.468646334133702
 20
121.2218890262309
 30
0.0
  0
VERTEX
  5
3AB2
  8
0
 10
58.365751953445027
 20
121.5132551563445
 30
0.0
  0
VERTEX
  5
3AB3
  8
0
 10
58.189842814229081
 20
122.007683135337
 30
0.0
  0
VERTEX
  5
3AB4
  8
0
 10
57.98092946561389
 20
122.5934515071574
 30
0.0
  0
VERTEX
  5
3AB5
  8
0
 10
57.751016189925011
 20
123.2478509021464
 30
0.0
  0
VERTEX
  5
3AB6
  8
0
 10
57.515495421014322
 20
123.954668856925
 30
0.0
  0
VERTEX
  5
3AB7
  8
0
 10
57.29302667232561
 20
124.7129628730479
 30
0.0
  0
SEQEND
  5
3AB8
  8
0
  0
LINE
  5
2EC2
  8
0
 10
53.489270817137822
 20
127.7522968424026
 30
0.0
 11
46.633066108099669
 21
127.7522968424026
 31
0.0
  0
POLYLINE
  5
2EC3
  8
0
 66
     1
 10
0.0
 20
0.0
 30
0.0
 70
   128
  0
VERTEX
  5
3AB9
  8
0
 10
43.318789649404088
 20
125.72407744056621
 30
0.0
  0
VERTEX
  5
3ABA
  8
0
 10
43.02962586434888
 20
125.237990386552
 30
0.0
  0
VERTEX
  5
3ABB
  8
0
 10
42.793149846886223
 20
124.5866396856447
 30
0.0
  0
SEQEND
  5
3ABC
  8
0
  0
POLYLINE
  5
2EC4
  8
0
 66
     1
 10
0.0
 20
0.0
 30
0.0
 70
   128
  0
VERTEX
  5
3ABD
  8
0
 10
57.29302667232561
 20
124.7129628730479
 30
0.0
  0
VERTEX
  5
3ABE
  8
0
 10
57.09244540112423
 20
125.2373682630721
 30
0.0
  0
VERTEX
  5
3ABF
  8
0
 10
56.80354727583331
 20
125.72407744056621
 30
0.0
  0
SEQEND
  5
3AC0
  8
0
  0
ARC
  5
2EC5
  8
0
 10
52.998453721147477
 20
123.22825238656981
 30
0.0
 40
4.5505911330362281
 50
33.261544624191707
 51
83.808153796132416
  0
ARC
  5
2EC6
  8
0
 10
47.123883204089928
 20
123.22825238656969
 30
0.0
 40
4.5505911330362512
 50
96.191846203866845
 51
146.73845537580809
  0
LINE
  5
2EC7
  8
0
 10
60.560948179684353
 20
115.51282576448359
 30
0.0
 11
60.560948179684353
 21
115.75229487544929
 31
0.0
  0
LINE
  5
2EC8
  8
0
 10
39.560948462806401
 20
115.75229487544929
 30
0.0
 11
39.560948462806401
 21
115.51282576448359
 31
0.0
  0
ARC
  5
2EC9
  8
0
 10
41.560948321245363
 20
115.75229642517
 30
0.0
 40
2.0
 50
90.0
 51
180.0
  0
ARC
  5
2ECA
  8
0
 10
58.560948321245363
 20
115.75229642517
 30
0.0
 40
2.0000000000000071
 50
0.0
 51
90.0
  0
LINE
  5
2ECB
  8
0
 10
56.560948455355813
 20
80.252296448918784
 30
0.0
 11
56.560948455355813
 21
81.75229652016499
 31
0.0
  0
LINE
  5
2ECC
  8
0
 10
43.560948187134933
 20
81.75229652016499
 30
0.0
 11
43.560948187134933
 21
80.252296448918784
 31
0.0
  0
LINE
  5
2ECD
  8
0
 10
43.560948187134933
 20
80.252296448918784
 30
0.0
 11
44.060948269091298
 21
79.752296425170059
 31
0.0
  0
LINE
  5
2ECE
  8
0
 10
56.06094837339942
 20
79.752296425170059
 30
0.0
 11
56.560948455355813
 21
80.252296448918784
 31
0.0
  0
ARC
  5
2ECF
  8
0
 10
42.052176638708659
 20
103.8975072535239
 30
0.0
 40
1.026515109615701
 50
290.64420846430119
 51
3.0595488898603449
  0
LINE
  5
2ED0
  8
0
 10
42.414088697753641
 20
102.93690695590411
 30
0.0
 11
42.414088697753641
 21
102.504966996378
 31
0.0
  0
ARC
  5
2ED1
  8
0
 10
42.011934542856089
 20
103.8733547510633
 30
0.0
 40
1.4262583957593331
 50
286.377483886037
 51
3.1728681173514111
  0
LINE
  5
2ED2
  8
0
 10
43.436006607137401
 20
103.9522962940398
 30
0.0
 11
43.436006607137401
 21
104.1837243658963
 31
0.0
  0
LINE
  5
2ED3
  8
0
 10
43.436006607137401
 20
104.1837243658963
 30
0.0
 11
43.077228555105421
 21
104.1837243658963
 31
0.0
  0
LINE
  5
2ED4
  8
0
 10
43.077228555105421
 20
104.1837243658963
 30
0.0
 11
43.077228555105421
 21
103.9522962940398
 31
0.0
  0
LINE
  5
2ED5
  8
0
 10
49.8359599957464
 20
102.1522956264678
 30
0.0
 11
48.713469376437168
 21
102.1522956264678
 31
0.0
  0
LINE
  5
2ED6
  8
0
 10
49.8359599957464
 20
102.1522956264678
 30
0.0
 11
49.8359599957464
 21
104.28979641920959
 31
0.0
  0
ARC
  5
2ED7
  8
0
 10
50.173407442983027
 20
104.2898476378693
 30
0.0
 40
0.3374474511236785
 50
359.99130349619372
 51
180.00869650380631
  0
LINE
  5
2ED8
  8
0
 10
50.510854890219669
 20
104.28979641920959
 30
0.0
 11
50.510854890219669
 21
102.1522956264678
 31
0.0
  0
LINE
  5
2ED9
  8
0
 10
51.631945731699282
 20
102.1522956264678
 30
0.0
 11
50.510854890219669
 21
102.1522956264678
 31
0.0
  0
LINE
  5
2EDA
  8
0
 10
51.631945731699282
 20
102.1522956264678
 30
0.0
 11
51.631945731699282
 21
104.28979641920959
 31
0.0
  0
ARC
  5
2EDB
  8
0
 10
51.965617015141802
 20
104.2928704315263
 30
0.0
 40
0.3336854431135805
 50
359.47216629649802
 51
180.5278337035019
  0
LINE
  5
2EDC
  8
0
 10
52.299288298584308
 20
104.28979641920959
 30
0.0
 11
52.299288298584308
 21
102.1522956264678
 31
0.0
  0
LINE
  5
2EDD
  8
0
 10
53.396672207511749
 20
102.1522956264678
 30
0.0
 11
52.299288298584308
 21
102.1522956264678
 31
0.0
  0
LINE
  5
2EDE
  8
0
 10
53.396672207511749
 20
102.1522956264678
 30
0.0
 11
53.396672207511749
 21
104.28979641920959
 31
0.0
  0
ARC
  5
2EDF
  8
0
 10
51.960870738780478
 20
104.31442721965119
 30
0.0
 40
1.4360127206753091
 50
359.0172022171746
 51
128.2225455038608
  0
ARC
  5
2EE0
  8
0
 10
50.173297789570952
 20
104.2924697768037
 30
0.0
 40
1.4598308609676509
 50
51.983810195633509
 51
180.10492461625881
  0
LINE
  5
2EE1
  8
0
 10
48.713469376437168
 20
104.28979641920959
 30
0.0
 11
48.713469376437168
 21
102.1522956264678
 31
0.0
  0
LINE
  5
2EE2
  8
0
 10
43.802120687089648
 20
104.1837243658963
 30
0.0
 11
43.802120687089648
 21
103.9522962940398
 31
0.0
  0
ARC
  5
2EE3
  8
0
 10
41.973454904907427
 20
103.85402282378421
 30
0.0
 40
1.8313045126030161
 50
283.92266233709819
 51
3.0761465458865369
  0
LINE
  5
2EE4
  8
0
 10
42.414088697753641
 20
102.0765194965068
 30
0.0
 11
42.414088697753641
 21
101.6496105415288
 31
0.0
  0
POLYLINE
  5
2EE5
  8
0
 66
     1
 10
0.0
 20
0.0
 30
0.0
 70
   128
  0
VERTEX
  5
3AC1
  8
0
 10
42.414088697753641
 20
101.6496105415288
 30
0.0
  0
VERTEX
  5
3AC2
  8
0
 10
42.846496646873447
 20
101.76779165095719
 30
0.0
  0
VERTEX
  5
3AC3
  8
0
 10
43.25567554833718
 20
102.0069236231509
 30
0.0
  0
SEQEND
  5
3AC4
  8
0
  0
POLYLINE
  5
2EE6
  8
0
 66
     1
 10
0.0
 20
0.0
 30
0.0
 70
   128
  0
VERTEX
  5
3AC5
  8
0
 10
43.25567554833718
 20
102.0069236231509
 30
0.0
  0
VERTEX
  5
3AC6
  8
0
 10
43.742335831396069
 20
101.7592029941741
 30
0.0
  0
VERTEX
  5
3AC7
  8
0
 10
44.274354317806448
 20
101.6351322007838
 30
0.0
  0
VERTEX
  5
3AC8
  8
0
 10
44.828209524623851
 20
101.69908798462779
 30
0.0
  0
VERTEX
  5
3AC9
  8
0
 10
45.35883754643033
 20
101.9222254229251
 30
0.0
  0
VERTEX
  5
3ACA
  8
0
 10
45.825497677199337
 20
102.28738769120611
 30
0.0
  0
VERTEX
  5
3ACB
  8
0
 10
46.188642235122423
 20
102.7721299154225
 30
0.0
  0
VERTEX
  5
3ACC
  8
0
 10
46.419272629193749
 20
103.3408178312245
 30
0.0
  0
VERTEX
  5
3ACD
  8
0
 10
46.498287433408002
 20
103.9531270337764
 30
0.0
  0
VERTEX
  5
3ACE
  8
0
 10
46.4187906697614
 20
104.5653412414256
 30
0.0
  0
VERTEX
  5
3ACF
  8
0
 10
46.187936525441501
 20
105.13393043703471
 30
0.0
  0
VERTEX
  5
3AD0
  8
0
 10
45.824332126997213
 20
105.6182908189956
 30
0.0
  0
VERTEX
  5
3AD1
  8
0
 10
45.357647781841258
 20
105.9833692682448
 30
0.0
  0
VERTEX
  5
3AD2
  8
0
 10
44.826464226119022
 20
106.2048061115209
 30
0.0
  0
VERTEX
  5
3AD3
  8
0
 10
44.27254010143109
 20
106.26933931536109
 30
0.0
  0
VERTEX
  5
3AD4
  8
0
 10
43.73937748523781
 20
106.1527898830834
 30
0.0
  0
VERTEX
  5
3AD5
  8
0
 10
43.25567554833718
 20
105.8976689649287
 30
0.0
  0
SEQEND
  5
3AD6
  8
0
  0
POLYLINE
  5
2EE7
  8
0
 66
     1
 10
0.0
 20
0.0
 30
0.0
 70
   128
  0
VERTEX
  5
3AD7
  8
0
 10
43.25567554833718
 20
105.8976689649287
 30
0.0
  0
VERTEX
  5
3AD8
  8
0
 10
42.452156507991049
 20
106.2508059961263
 30
0.0
  0
VERTEX
  5
3AD9
  8
0
 10
42.041600646100711
 20
106.2577462119522
 30
0.0
  0
VERTEX
  5
3ADA
  8
0
 10
41.649716870508861
 20
106.1401443851653
 30
0.0
  0
VERTEX
  5
3ADB
  8
0
 10
41.30129605682918
 20
105.91512194997701
 30
0.0
  0
VERTEX
  5
3ADC
  8
0
 10
41.009292902074549
 20
105.5924317163888
 30
0.0
  0
VERTEX
  5
3ADD
  8
0
 10
40.782912598572452
 20
105.1849445623818
 30
0.0
  0
VERTEX
  5
3ADE
  8
0
 10
40.628937037311282
 20
104.7147235197488
 30
0.0
  0
VERTEX
  5
3ADF
  8
0
 10
40.551834704004001
 20
104.2059159202043
 30
0.0
  0
VERTEX
  5
3AE0
  8
0
 10
40.552914106867981
 20
103.6842728329364
 30
0.0
  0
VERTEX
  5
3AE1
  8
0
 10
40.63229724916048
 20
103.1760705930654
 30
0.0
  0
VERTEX
  5
3AE2
  8
0
 10
40.78797247412033
 20
102.7079934549991
 30
0.0
  0
VERTEX
  5
3AE3
  8
0
 10
41.016364434383583
 20
102.3029370529119
 30
0.0
  0
VERTEX
  5
3AE4
  8
0
 10
41.310941764734459
 20
101.97931922203929
 30
0.0
  0
VERTEX
  5
3AE5
  8
0
 10
41.660709270857048
 20
101.75702556199469
 30
0.0
  0
VERTEX
  5
3AE6
  8
0
 10
42.048837022505481
 20
101.6496105415288
 30
0.0
  0
SEQEND
  5
3AE7
  8
0
  0
LINE
  5
2EE8
  8
0
 10
42.048837022505481
 20
101.6496105415288
 30
0.0
 11
42.048837022505481
 21
102.0765194965068
 31
0.0
  0
ARC
  5
2EE9
  8
0
 10
42.564756747859342
 20
103.7456440184264
 30
0.0
 40
1.7470403065421141
 50
173.20674529445861
 51
252.82382975391511
  0
LINE
  5
2EEA
  8
0
 10
40.829981641493518
 20
103.9522962940398
 30
0.0
 11
40.829981641493518
 21
104.1837243658963
 31
0.0
  0
LINE
  5
2EEB
  8
0
 10
41.12771149875946
 20
104.1837243658963
 30
0.0
 11
40.829981641493518
 21
104.1837243658963
 31
0.0
  0
LINE
  5
2EEC
  8
0
 10
41.12771149875946
 20
104.1837243658963
 30
0.0
 11
41.12771149875946
 21
103.9522962940398
 31
0.0
  0
ARC
  5
2EED
  8
0
 10
42.500999582095517
 20
103.8095185181045
 30
0.0
 40
1.3806902813932691
 50
174.06440763887429
 51
250.88348752980431
  0
LINE
  5
2EEE
  8
0
 10
42.048837022505481
 20
102.504966996378
 30
0.0
 11
42.048837022505481
 21
102.93690695590411
 31
0.0
  0
ARC
  5
2EEF
  8
0
 10
42.440945067311112
 20
103.8668569183282
 30
0.0
 40
1.009235181419027
 50
175.1436671696984
 51
247.1375597064073
  0
LINE
  5
2EF0
  8
0
 10
41.4353329330904
 20
103.9522962940398
 30
0.0
 11
41.4353329330904
 21
104.1837243658963
 31
0.0
  0
LINE
  5
2EF1
  8
0
 10
41.752506011746611
 20
104.1837243658963
 30
0.0
 11
41.4353329330904
 21
104.1837243658963
 31
0.0
  0
LINE
  5
2EF2
  8
0
 10
41.752506011746611
 20
104.1837243658963
 30
0.0
 11
41.752506011746611
 21
103.9522962940398
 31
0.0
  0
POLYLINE
  5
2EF3
  8
0
 66
     1
 10
0.0
 20
0.0
 30
0.0
 70
   128
  0
VERTEX
  5
3AE8
  8
0
 10
41.752506011746611
 20
103.9522962940398
 30
0.0
  0
VERTEX
  5
3AE9
  8
0
 10
41.788205468676772
 20
103.7160924000207
 30
0.0
  0
VERTEX
  5
3AEA
  8
0
 10
41.890442335627753
 20
103.5159139258329
 30
0.0
  0
VERTEX
  5
3AEB
  8
0
 10
42.045118251465048
 20
103.38214620179571
 30
0.0
  0
VERTEX
  5
3AEC
  8
0
 10
42.230110579751219
 20
103.3351535273257
 30
0.0
  0
VERTEX
  5
3AED
  8
0
 10
42.417800483874771
 20
103.38208845979609
 30
0.0
  0
VERTEX
  5
3AEE
  8
0
 10
42.578990535460207
 20
103.5158077550593
 30
0.0
  0
VERTEX
  5
3AEF
  8
0
 10
42.687629313789103
 20
103.7160849494401
 30
0.0
  0
VERTEX
  5
3AF0
  8
0
 10
42.726182808749172
 20
103.9522962940398
 30
0.0
  0
SEQEND
  5
3AF1
  8
0
  0
POLYLINE
  5
2EF4
  8
0
 66
     1
 10
0.0
 20
0.0
 30
0.0
 70
   128
  0
VERTEX
  5
3AF2
  8
0
 10
42.726182808749172
 20
103.9522962940398
 30
0.0
  0
VERTEX
  5
3AF3
  8
0
 10
42.827088815741028
 20
104.6228392345372
 30
0.0
  0
VERTEX
  5
3AF4
  8
0
 10
43.120357172213289
 20
105.20610793656741
 30
0.0
  0
SEQEND
  5
3AF5
  8
0
  0
POLYLINE
  5
2EF5
  8
0
 66
     1
 10
0.0
 20
0.0
 30
0.0
 70
   128
  0
VERTEX
  5
3AF6
  8
0
 10
43.120357172213289
 20
105.20610793656741
 30
0.0
  0
VERTEX
  5
3AF7
  8
0
 10
43.595272546283681
 20
104.8877874684993
 30
0.0
  0
VERTEX
  5
3AF8
  8
0
 10
44.140975886605467
 20
104.7353243750993
 30
0.0
  0
SEQEND
  5
3AF9
  8
0
  0
LINE
  5
2EF6
  8
0
 10
44.140975886605467
 20
104.7353243750993
 30
0.0
 11
44.140975886605467
 21
104.1837243658963
 31
0.0
  0
LINE
  5
2EF7
  8
0
 10
44.140975886605467
 20
104.1837243658963
 30
0.0
 11
43.802120687089648
 21
104.1837243658963
 31
0.0
  0
LINE
  5
2EF8
  8
0
 10
48.266921622328262
 20
102.1522956264678
 30
0.0
 11
48.266921622328262
 21
105.7522969616119
 31
0.0
  0
LINE
  5
2EF9
  8
0
 10
48.266921622328262
 20
105.7522969616119
 30
0.0
 11
47.161537885315518
 21
105.7522969616119
 31
0.0
  0
LINE
  5
2EFA
  8
0
 10
47.161537885315518
 20
105.7522969616119
 30
0.0
 11
47.161537885315518
 21
102.1522956264678
 31
0.0
  0
LINE
  5
2EFB
  8
0
 10
48.266921622328262
 20
102.1522956264678
 30
0.0
 11
47.161537885315518
 21
102.1522956264678
 31
0.0
  0
LINE
  5
2EFC
  8
0
 10
56.500026454798672
 20
102.1522956264678
 30
0.0
 11
56.500026454798672
 21
104.28979641920959
 31
0.0
  0
ARC
  5
2EFD
  8
0
 10
55.164428741320748
 20
104.3883426212887
 30
0.0
 40
1.3392283622264141
 50
355.7801152347966
 51
184.21988476520571
  0
LINE
  5
2EFE
  8
0
 10
53.828831027842853
 20
104.28979641920959
 30
0.0
 11
53.828831027842853
 21
102.1522956264678
 31
0.0
  0
LINE
  5
2EFF
  8
0
 10
54.88753268646429
 20
102.1522956264678
 30
0.0
 11
53.828831027842853
 21
102.1522956264678
 31
0.0
  0
LINE
  5
2F00
  8
0
 10
54.88753268646429
 20
102.1522956264678
 30
0.0
 11
54.88753268646429
 21
102.93979591853061
 31
0.0
  0
LINE
  5
2F01
  8
0
 10
55.505244025610182
 20
102.93979591853061
 30
0.0
 11
54.88753268646429
 21
102.93979591853061
 31
0.0
  0
LINE
  5
2F02
  8
0
 10
55.505244025610182
 20
102.93979591853061
 30
0.0
 11
55.505244025610182
 21
102.1522956264678
 31
0.0
  0
LINE
  5
2F03
  8
0
 10
56.500026454798672
 20
102.1522956264678
 30
0.0
 11
55.505244025610182
 21
102.1522956264678
 31
0.0
  0
POLYLINE
  5
2F04
  8
0
 66
     1
 10
0.0
 20
0.0
 30
0.0
 70
   128
  0
VERTEX
  5
3AFA
  8
0
 10
61.412480624042232
 20
105.1522961182061
 30
0.0
  0
VERTEX
  5
3AFB
  8
0
 10
61.365934984408092
 20
105.7480035645429
 30
0.0
  0
VERTEX
  5
3AFC
  8
0
 10
61.227515304110717
 20
106.2765626532498
 30
0.0
  0
VERTEX
  5
3AFD
  8
0
 10
61.002870985887718
 20
106.6779291552964
 30
0.0
  0
VERTEX
  5
3AFE
  8
0
 10
60.706938581190776
 20
106.9070512724582
 30
0.0
  0
VERTEX
  5
3AFF
  8
0
 10
60.479171538375091
 20
106.9522967857782
 30
0.0
  0
SEQEND
  5
3B00
  8
0
  0
LINE
  5
2F05
  8
0
 10
61.412480624042232
 20
105.1522961182061
 30
0.0
 11
61.412480624042232
 21
102.7522964698735
 31
0.0
  0
POLYLINE
  5
2F06
  8
0
 66
     1
 10
0.0
 20
0.0
 30
0.0
 70
   128
  0
VERTEX
  5
3B01
  8
0
 10
60.479171538375091
 20
100.95229580230151
 30
0.0
  0
VERTEX
  5
3B02
  8
0
 10
60.811048337839317
 20
101.0522304398481
 30
0.0
  0
VERTEX
  5
3B03
  8
0
 10
61.08646650018521
 20
101.342827297515
 30
0.0
  0
VERTEX
  5
3B04
  8
0
 10
61.282733419559669
 20
101.7897559625569
 30
0.0
  0
VERTEX
  5
3B05
  8
0
 10
61.391191521309089
 20
102.34542585141099
 30
0.0
  0
VERTEX
  5
3B06
  8
0
 10
61.412480624042232
 20
102.7522964698735
 30
0.0
  0
SEQEND
  5
3B07
  8
0
  0
LINE
  5
2F07
  8
0
 10
39.642725104115677
 20
100.95229580230151
 30
0.0
 11
60.479171538375091
 21
100.95229580230151
 31
0.0
  0
POLYLINE
  5
2F08
  8
0
 66
     1
 10
0.0
 20
0.0
 30
0.0
 70
   128
  0
VERTEX
  5
3B08
  8
0
 10
38.70941601844855
 20
102.7522964698735
 30
0.0
  0
VERTEX
  5
3B09
  8
0
 10
38.755961658082683
 20
102.1565890235368
 30
0.0
  0
VERTEX
  5
3B0A
  8
0
 10
38.894381338380043
 20
101.6280299348297
 30
0.0
  0
VERTEX
  5
3B0B
  8
0
 10
39.119025656603057
 20
101.2266634327832
 30
0.0
  0
VERTEX
  5
3B0C
  8
0
 10
39.414958061299998
 20
100.9975413156215
 30
0.0
  0
VERTEX
  5
3B0D
  8
0
 10
39.642725104115677
 20
100.95229580230151
 30
0.0
  0
SEQEND
  5
3B0E
  8
0
  0
LINE
  5
2F09
  8
0
 10
38.70941601844855
 20
105.1522961182061
 30
0.0
 11
38.70941601844855
 21
102.7522964698735
 31
0.0
  0
POLYLINE
  5
2F0A
  8
0
 66
     1
 10
0.0
 20
0.0
 30
0.0
 70
   128
  0
VERTEX
  5
3B0F
  8
0
 10
39.642725104115677
 20
106.9522967857782
 30
0.0
  0
VERTEX
  5
3B10
  8
0
 10
39.310848304651451
 20
106.85236214823161
 30
0.0
  0
VERTEX
  5
3B11
  8
0
 10
39.035430142305572
 20
106.56176529056459
 30
0.0
  0
VERTEX
  5
3B12
  8
0
 10
38.839163222931091
 20
106.1148384881679
 30
0.0
  0
VERTEX
  5
3B13
  8
0
 10
38.730705121181678
 20
105.5591667366687
 30
0.0
  0
VERTEX
  5
3B14
  8
0
 10
38.70941601844855
 20
105.1522961182061
 30
0.0
  0
SEQEND
  5
3B15
  8
0
  0
LINE
  5
2F0B
  8
0
 10
39.642725104115677
 20
106.9522967857782
 30
0.0
 11
60.479171538375091
 21
106.9522967857782
 31
0.0
  0
POLYLINE
  5
2F0C
  8
0
 66
     1
 10
0.0
 20
0.0
 30
0.0
 70
   128
  0
VERTEX
  5
3B16
  8
0
 10
59.614982420228209
 20
103.9522962940398
 30
0.0
  0
VERTEX
  5
3B17
  8
0
 10
59.5233123392088
 20
104.63995508081339
 30
0.0
  0
VERTEX
  5
3B18
  8
0
 10
59.25756409915514
 20
105.2253434730235
 30
0.0
  0
VERTEX
  5
3B19
  8
0
 10
58.843664789221961
 20
105.6152547074023
 30
0.0
  0
VERTEX
  5
3B1A
  8
0
 10
58.331449480376911
 20
105.7520157021943
 30
0.0
  0
VERTEX
  5
3B1B
  8
0
 10
57.79554505052397
 20
105.6145543528262
 30
0.0
  0
VERTEX
  5
3B1C
  8
0
 10
57.323355657629463
 20
105.22435999638471
 30
0.0
  0
VERTEX
  5
3B1D
  8
0
 10
56.999414192162249
 20
104.6401171309415
 30
0.0
  0
VERTEX
  5
3B1E
  8
0
 10
56.884730664662811
 20
103.9511954707566
 30
0.0
  0
VERTEX
  5
3B1F
  8
0
 10
57.000278459511492
 20
103.2626370263759
 30
0.0
  0
VERTEX
  5
3B20
  8
0
 10
57.324437854461152
 20
102.6786493433181
 30
0.0
  0
VERTEX
  5
3B21
  8
0
 10
57.797111535094473
 20
102.2890882862273
 30
0.0
  0
VERTEX
  5
3B22
  8
0
 10
58.333087676785659
 20
102.1528506947223
 30
0.0
  0
VERTEX
  5
3B23
  8
0
 10
58.84503197076149
 20
102.28996372944751
 30
0.0
  0
VERTEX
  5
3B24
  8
0
 10
59.258691930792999
 20
102.68068893975649
 30
0.0
  0
VERTEX
  5
3B25
  8
0
 10
59.52382084133454
 20
103.26726942486199
 30
0.0
  0
VERTEX
  5
3B26
  8
0
 10
59.614982420228209
 20
103.9522962940398
 30
0.0
  0
SEQEND
  5
3B27
  8
0
  0
LINE
  5
2F0D
  8
0
 10
51.072384427882518
 20
105.4425781888429
 30
0.0
 11
51.070797919876682
 21
105.4425781888429
 31
0.0
  0
LINE
  5
2F0E
  8
0
 10
50.044318796338082
 20
104.60160507983601
 30
0.0
 11
50.173270400321378
 21
104.62729654437931
 31
0.0
  0
LINE
  5
2F0F
  8
0
 10
48.715583129435579
 20
104.28979641920959
 30
0.0
 11
48.715583129435579
 21
102.1522956264678
 31
0.0
  0
ARC
  5
2F10
  8
0
 10
51.990115825283787
 20
104.3371062473781
 30
0.0
 40
1.402122360725687
 50
358.06638267304157
 51
91.108911821329485
  0
LINE
  5
2F11
  8
0
 10
53.39143980445693
 20
102.1522956264678
 30
0.0
 11
53.39143980445693
 21
104.28979641920959
 31
0.0
  0
ARC
  5
2F12
  8
0
 10
51.965324245050532
 20
104.29145577821249
 30
0.0
 40
0.3358468922057161
 50
90.346064857373079
 51
180.28308927847181
  0
LINE
  5
2F13
  8
0
 10
51.629481452166843
 20
102.1522956264678
 30
0.0
 11
51.629481452166843
 21
104.28979641920959
 31
0.0
  0
ARC
  5
2F14
  8
0
 10
44.302377257216932
 20
103.30272588049711
 30
0.0
 40
1.6590525024759111
 50
231.3567744985815
 51
271.99243190792947
  0
POLYLINE
  5
2F15
  8
0
 66
     1
 10
0.0
 20
0.0
 30
0.0
 70
   128
  0
VERTEX
  5
3B28
  8
0
 10
44.276122433714363
 20
106.26912138587871
 30
0.0
  0
VERTEX
  5
3B29
  8
0
 10
43.748241347841713
 20
106.1523558867637
 30
0.0
  0
VERTEX
  5
3B2A
  8
0
 10
43.266350367687437
 20
105.8976689649287
 30
0.0
  0
SEQEND
  5
3B2B
  8
0
  0
LINE
  5
2F16
  8
0
 10
43.266350367687437
 20
105.8976689649287
 30
0.0
 11
43.25567554833718
 21
105.8976689649287
 31
0.0
  0
LINE
  5
2F17
  8
0
 10
43.266350367687437
 20
102.0069236231509
 30
0.0
 11
43.25567554833718
 21
102.0069236231509
 31
0.0
  0
ARC
  5
2F18
  8
0
 10
42.319543786881958
 20
103.88757440658701
 30
0.0
 40
0.5577735429000487
 50
173.33660853589109
 51
262.05595725047482
  0
LINE
  5
2F19
  8
0
 10
41.765538008533191
 20
104.1837243658963
 30
0.0
 11
41.765538008533191
 21
103.9522962940398
 31
0.0
  0
ARC
  5
2F1A
  8
0
 10
42.5149491259277
 20
103.8090264059984
 30
0.0
 40
1.3806784628703801
 50
174.0438243817708
 51
250.8226372360478
  0
LINE
  5
2F1B
  8
0
 10
41.141724178217132
 20
104.1837243658963
 30
0.0
 11
41.141724178217132
 21
103.9522962940398
 31
0.0
  0
POLYLINE
  5
2F1C
  8
0
 66
     1
 10
0.0
 20
0.0
 30
0.0
 70
   128
  0
VERTEX
  5
3B2C
  8
0
 10
42.241618932805743
 20
106.25457226461801
 30
0.0
  0
VERTEX
  5
3B2D
  8
0
 10
42.054180020116043
 20
106.2577462119522
 30
0.0
  0
VERTEX
  5
3B2E
  8
0
 10
41.662910917423453
 20
106.1401443851653
 30
0.0
  0
VERTEX
  5
3B2F
  8
0
 10
41.315036790095043
 20
105.91512194997701
 30
0.0
  0
VERTEX
  5
3B30
  8
0
 10
41.023491846047129
 20
105.5924317163888
 30
0.0
  0
VERTEX
  5
3B31
  8
0
 10
40.797466376445961
 20
105.1849445623818
 30
0.0
  0
VERTEX
  5
3B32
  8
0
 10
40.643732027731609
 20
104.7147235197488
 30
0.0
  0
VERTEX
  5
3B33
  8
0
 10
40.566750766359043
 20
104.2059159202043
 30
0.0
  0
VERTEX
  5
3B34
  8
0
 10
40.567829237900469
 20
103.6842728329364
 30
0.0
  0
VERTEX
  5
3B35
  8
0
 10
40.647087582967963
 20
103.1760705930654
 30
0.0
  0
VERTEX
  5
3B36
  8
0
 10
40.802517870090689
 20
102.7079934549991
 30
0.0
  0
VERTEX
  5
3B37
  8
0
 10
41.030552202485289
 20
102.3029370529119
 30
0.0
  0
VERTEX
  5
3B38
  8
0
 10
41.324667596839141
 20
101.97931922203929
 30
0.0
  0
VERTEX
  5
3B39
  8
0
 10
41.673885622642707
 20
101.75702556199469
 30
0.0
  0
VERTEX
  5
3B3A
  8
0
 10
41.86411570908853
 20
101.6906017733279
 30
0.0
  0
VERTEX
  5
3B3B
  8
0
 10
42.06140522064991
 20
101.6496105415288
 30
0.0
  0
VERTEX
  5
3B3C
  8
0
 10
42.06140522064991
 20
101.6496105415288
 30
0.0
  0
SEQEND
  5
3B3D
  8
0
  0
LINE
  5
2F1D
  8
0
 10
42.426083666853401
 20
102.0765194965068
 30
0.0
 11
42.426083666853401
 21
101.6496105415288
 31
0.0
  0
ARC
  5
2F1E
  8
0
 10
41.983793950919861
 20
103.8531247656786
 30
0.0
 40
1.8308321810776631
 50
283.97972421881889
 51
3.1050865373734222
  0
LINE
  5
2F1F
  8
0
 10
43.811938224009957
 20
104.1837243658963
 30
0.0
 11
43.811938224009957
 21
103.9522962940398
 31
0.0
  0
LINE
  5
2F20
  8
0
 10
44.150262103996958
 20
104.7353243750993
 30
0.0
 11
44.150262103996958
 21
104.1837243658963
 31
0.0
  0
POLYLINE
  5
2F21
  8
0
 66
     1
 10
0.0
 20
0.0
 30
0.0
 70
   128
  0
VERTEX
  5
3B3E
  8
0
 10
43.131244333110523
 20
105.20610793656741
 30
0.0
  0
VERTEX
  5
3B3F
  8
0
 10
43.605414649121258
 20
104.8877874684993
 30
0.0
  0
VERTEX
  5
3B40
  8
0
 10
44.150262103996958
 20
104.7353243750993
 30
0.0
  0
SEQEND
  5
3B41
  8
0
  0
POLYLINE
  5
2F22
  8
0
 66
     1
 10
0.0
 20
0.0
 30
0.0
 70
   128
  0
VERTEX
  5
3B42
  8
0
 10
46.085696631692151
 20
104.1837243658963
 30
0.0
  0
VERTEX
  5
3B43
  8
0
 10
45.940746051840293
 20
104.7298388851348
 30
0.0
  0
VERTEX
  5
3B44
  8
0
 10
45.650620909057359
 20
105.20610793656741
 30
0.0
  0
SEQEND
  5
3B45
  8
0
  0
LINE
  5
2F23
  8
0
 10
44.150262103996958
 20
102.0765194965068
 30
0.0
 11
44.150262103996958
 21
102.74235925800239
 31
0.0
  0
LINE
  5
2F24
  8
0
 10
44.059816246501889
 20
103.15665065473949
 30
0.0
 11
44.150262103996958
 21
103.16926635033521
 31
0.0
  0
LINE
  5
2F25
  8
0
 10
44.150262103996958
 20
103.16926635033521
 30
0.0
 11
44.150262103996958
 21
103.53153220540921
 31
0.0
  0
POLYLINE
  5
2F26
  8
0
 66
     1
 10
0.0
 20
0.0
 30
0.0
 70
   128
  0
VERTEX
  5
3B46
  8
0
 10
45.650620909057359
 20
102.6984827888671
 30
0.0
  0
VERTEX
  5
3B47
  8
0
 10
45.940730685017797
 20
103.1747164500419
 30
0.0
  0
VERTEX
  5
3B48
  8
0
 10
46.085696631692151
 20
103.7208682221833
 30
0.0
  0
SEQEND
  5
3B49
  8
0
  0
POLYLINE
  5
2F27
  8
0
 66
     1
 10
0.0
 20
0.0
 30
0.0
 70
   128
  0
VERTEX
  5
3B4A
  8
0
 10
45.349931308649282
 20
102.4094393772546
 30
0.0
  0
VERTEX
  5
3B4B
  8
0
 10
44.972606433205108
 20
102.62902661389739
 30
0.0
  0
VERTEX
  5
3B4C
  8
0
 10
44.563363270483691
 20
102.74235925800239
 30
0.0
  0
SEQEND
  5
3B4D
  8
0
  0
POLYLINE
  5
2F28
  8
0
 66
     1
 10
0.0
 20
0.0
 30
0.0
 70
   128
  0
VERTEX
  5
3B4E
  8
0
 10
44.563363270483691
 20
102.0765194965068
 30
0.0
  0
VERTEX
  5
3B4F
  8
0
 10
44.972613883785712
 20
102.1898540032569
 30
0.0
  0
VERTEX
  5
3B50
  8
0
 10
45.349931308649282
 20
102.4094393772546
 30
0.0
  0
SEQEND
  5
3B51
  8
0
  0
LINE
  5
2F29
  8
0
 10
44.150262103996958
 20
105.1622333300773
 30
0.0
 11
44.150262103996958
 21
105.8280730915729
 31
0.0
  0
POLYLINE
  5
2F2A
  8
0
 66
     1
 10
0.0
 20
0.0
 30
0.0
 70
   128
  0
VERTEX
  5
3B52
  8
0
 10
44.563363270483691
 20
105.1622333300773
 30
0.0
  0
VERTEX
  5
3B53
  8
0
 10
44.972613883785712
 20
105.27556783682741
 30
0.0
  0
VERTEX
  5
3B54
  8
0
 10
45.349931308649282
 20
105.49515321082499
 30
0.0
  0
SEQEND
  5
3B55
  8
0
  0
POLYLINE
  5
2F2B
  8
0
 66
     1
 10
0.0
 20
0.0
 30
0.0
 70
   128
  0
VERTEX
  5
3B56
  8
0
 10
45.349931308649282
 20
105.49515321082499
 30
0.0
  0
VERTEX
  5
3B57
  8
0
 10
44.972606433205108
 20
105.7147404474679
 30
0.0
  0
VERTEX
  5
3B58
  8
0
 10
44.563363270483691
 20
105.8280730915729
 30
0.0
  0
SEQEND
  5
3B59
  8
0
  0
LINE
  5
2F2C
  8
0
 10
54.879961499593954
 20
102.1522956264678
 30
0.0
 11
54.879961499593954
 21
102.93979591853061
 31
0.0
  0
LINE
  5
2F2D
  8
0
 10
54.879961499593954
 20
104.28979641920959
 30
0.0
 11
54.879961499593954
 21
103.8397962523166
 31
0.0
  0
ARC
  5
2F2E
  8
0
 10
55.20490564700134
 20
104.3023973264731
 30
0.0
 40
0.3251883789408683
 50
92.610972898316234
 51
182.22074235067541
  0
POLYLINE
  5
2F2F
  8
0
 66
     1
 10
0.0
 20
0.0
 30
0.0
 70
   128
  0
VERTEX
  5
3B5A
  8
0
 10
45.64369186910222
 20
105.20610793656741
 30
0.0
  0
VERTEX
  5
3B5B
  8
0
 10
45.124283024690847
 20
104.8877874684993
 30
0.0
  0
VERTEX
  5
3B5C
  8
0
 10
44.554726184926722
 20
104.7353243750993
 30
0.0
  0
SEQEND
  5
3B5D
  8
0
  0
POLYLINE
  5
2F30
  8
0
 66
     1
 10
0.0
 20
0.0
 30
0.0
 70
   128
  0
VERTEX
  5
3B5E
  8
0
 10
46.07945118250678
 20
104.1837243658963
 30
0.0
  0
VERTEX
  5
3B5F
  8
0
 10
45.934227259479258
 20
104.72994691855349
 30
0.0
  0
VERTEX
  5
3B60
  8
0
 10
45.64369186910222
 20
105.20610793656741
 30
0.0
  0
SEQEND
  5
3B61
  8
0
  0
LINE
  5
2F31
  8
0
 10
46.07945118250678
 20
104.1837243658963
 30
0.0
 11
44.554726184926722
 21
104.1837243658963
 31
0.0
  0
LINE
  5
2F32
  8
0
 10
44.554726184926722
 20
104.7353243750993
 30
0.0
 11
44.554726184926722
 21
104.1837243658963
 31
0.0
  0
LINE
  5
2F33
  8
0
 10
45.650620909057359
 20
105.20610793656741
 30
0.0
 11
45.64369186910222
 21
105.20610793656741
 31
0.0
  0
LINE
  5
2F34
  8
0
 10
46.085696631692151
 20
104.1837243658963
 30
0.0
 11
46.07945118250678
 21
104.1837243658963
 31
0.0
  0
LINE
  5
2F35
  8
0
 10
44.554726184926722
 20
103.7208682221833
 30
0.0
 11
44.554726184926722
 21
103.16926635033521
 31
0.0
  0
LINE
  5
2F36
  8
0
 10
46.07945118250678
 20
103.7208682221833
 30
0.0
 11
44.554726184926722
 21
103.7208682221833
 31
0.0
  0
POLYLINE
  5
2F37
  8
0
 66
     1
 10
0.0
 20
0.0
 30
0.0
 70
   128
  0
VERTEX
  5
3B62
  8
0
 10
45.64369186910222
 20
102.6984827888671
 30
0.0
  0
VERTEX
  5
3B63
  8
0
 10
45.934227259479258
 20
103.1746456695262
 30
0.0
  0
VERTEX
  5
3B64
  8
0
 10
46.07945118250678
 20
103.7208682221833
 30
0.0
  0
SEQEND
  5
3B65
  8
0
  0
POLYLINE
  5
2F38
  8
0
 66
     1
 10
0.0
 20
0.0
 30
0.0
 70
   128
  0
VERTEX
  5
3B66
  8
0
 10
44.554726184926722
 20
103.16926635033521
 30
0.0
  0
VERTEX
  5
3B67
  8
0
 10
45.124283024690847
 20
103.0168051195804
 30
0.0
  0
VERTEX
  5
3B68
  8
0
 10
45.64369186910222
 20
102.6984827888671
 30
0.0
  0
SEQEND
  5
3B69
  8
0
  0
LINE
  5
2F39
  8
0
 10
45.650620909057359
 20
102.6984827888671
 30
0.0
 11
45.64369186910222
 21
102.6984827888671
 31
0.0
  0
LINE
  5
2F3A
  8
0
 10
46.085696631692151
 20
103.7208682221833
 30
0.0
 11
46.07945118250678
 21
103.7208682221833
 31
0.0
  0
POLYLINE
  5
2F3B
  8
0
 66
     1
 10
0.0
 20
0.0
 30
0.0
 70
   128
  0
VERTEX
  5
3B6A
  8
0
 10
45.342530088148813
 20
105.49515321082499
 30
0.0
  0
VERTEX
  5
3B6B
  8
0
 10
44.96456166880558
 20
105.71476279920969
 30
0.0
  0
VERTEX
  5
3B6C
  8
0
 10
44.554726184926722
 20
105.8280730915729
 30
0.0
  0
SEQEND
  5
3B6D
  8
0
  0
POLYLINE
  5
2F3C
  8
0
 66
     1
 10
0.0
 20
0.0
 30
0.0
 70
   128
  0
VERTEX
  5
3B6E
  8
0
 10
44.554726184926722
 20
105.1622333300773
 30
0.0
  0
VERTEX
  5
3B6F
  8
0
 10
44.964568653724889
 20
105.27554734773069
 30
0.0
  0
VERTEX
  5
3B70
  8
0
 10
45.342530088148813
 20
105.49515321082499
 30
0.0
  0
SEQEND
  5
3B71
  8
0
  0
LINE
  5
2F3D
  8
0
 10
44.554726184926722
 20
105.8280730915729
 30
0.0
 11
44.554726184926722
 21
105.1622333300773
 31
0.0
  0
LINE
  5
2F3E
  8
0
 10
45.349931308649282
 20
105.49515321082499
 30
0.0
 11
45.342530088148813
 21
105.49515321082499
 31
0.0
  0
LINE
  5
2F3F
  8
0
 10
44.563363270483691
 20
105.8280730915729
 30
0.0
 11
44.554726184926722
 21
105.8280730915729
 31
0.0
  0
LINE
  5
2F40
  8
0
 10
44.563363270483691
 20
105.1622333300773
 30
0.0
 11
44.554726184926722
 21
105.1622333300773
 31
0.0
  0
POLYLINE
  5
2F41
  8
0
 66
     1
 10
0.0
 20
0.0
 30
0.0
 70
   128
  0
VERTEX
  5
3B72
  8
0
 10
44.554726184926722
 20
102.0765194965068
 30
0.0
  0
VERTEX
  5
3B73
  8
0
 10
44.964568653724889
 20
102.1898335141603
 30
0.0
  0
VERTEX
  5
3B74
  8
0
 10
45.342530088148813
 20
102.4094393772546
 30
0.0
  0
SEQEND
  5
3B75
  8
0
  0
LINE
  5
2F42
  8
0
 10
45.349931308649282
 20
102.4094393772546
 30
0.0
 11
45.342530088148813
 21
102.4094393772546
 31
0.0
  0
LINE
  5
2F43
  8
0
 10
44.563363270483691
 20
102.0765194965068
 30
0.0
 11
44.554726184926722
 21
102.0765194965068
 31
0.0
  0
LINE
  5
2F44
  8
0
 10
44.554726184926722
 20
102.74235925800239
 30
0.0
 11
44.554726184926722
 21
102.0765194965068
 31
0.0
  0
POLYLINE
  5
2F45
  8
0
 66
     1
 10
0.0
 20
0.0
 30
0.0
 70
   128
  0
VERTEX
  5
3B76
  8
0
 10
45.342530088148813
 20
102.4094393772546
 30
0.0
  0
VERTEX
  5
3B77
  8
0
 10
44.96456166880558
 20
102.6290489656392
 30
0.0
  0
VERTEX
  5
3B78
  8
0
 10
44.554726184926722
 20
102.74235925800239
 30
0.0
  0
SEQEND
  5
3B79
  8
0
  0
LINE
  5
2F46
  8
0
 10
44.563363270483691
 20
102.74235925800239
 30
0.0
 11
44.554726184926722
 21
102.74235925800239
 31
0.0
  0
LINE
  5
2F47
  8
0
 10
54.88753268646429
 20
103.8397962523166
 30
0.0
 11
54.879961499593954
 21
103.8397962523166
 31
0.0
  0
LINE
  5
2F48
  8
0
 10
54.88753268646429
 20
104.28979641920959
 30
0.0
 11
54.88753268646429
 21
103.8397962523166
 31
0.0
  0
LINE
  5
2F49
  8
0
 10
55.505244025610182
 20
103.8397962523166
 30
0.0
 11
55.505244025610182
 21
104.28979641920959
 31
0.0
  0
LINE
  5
2F4A
  8
0
 10
55.505244025610182
 20
103.8397962523166
 30
0.0
 11
54.88753268646429
 21
103.8397962523166
 31
0.0
  0
ARC
  5
2F4B
  8
0
 10
55.196388356037247
 20
104.3118899314134
 30
0.0
 40
0.309644873861741
 50
355.90840455608338
 51
184.0915954439165
  0
LINE
  5
2F4C
  8
0
 10
54.879961499593954
 20
102.93979591853061
 30
0.0
 11
54.88753268646429
 21
102.93979591853061
 31
0.0
  0
LINE
  5
2F4D
  8
0
 10
44.150262103996958
 20
104.7353243750993
 30
0.0
 11
44.140975886605467
 21
104.7353243750993
 31
0.0
  0
LINE
  5
2F4E
  8
0
 10
43.131244333110523
 20
105.20610793656741
 30
0.0
 11
43.120357172213289
 21
105.20610793656741
 31
0.0
  0
LINE
  5
2F4F
  8
0
 10
44.150262103996958
 20
104.1837243658963
 30
0.0
 11
44.140975886605467
 21
104.1837243658963
 31
0.0
  0
LINE
  5
2F50
  8
0
 10
44.050388002417769
 20
103.15665065473949
 30
0.0
 11
44.140975886605467
 21
103.16926635033521
 31
0.0
  0
LINE
  5
2F51
  8
0
 10
44.140975886605467
 20
103.53153220540921
 30
0.0
 11
44.050388002417769
 21
103.15665065473949
 31
0.0
  0
LINE
  5
2F52
  8
0
 10
44.140975886605467
 20
103.16926635033521
 30
0.0
 11
44.140975886605467
 21
103.53153220540921
 31
0.0
  0
LINE
  5
2F53
  8
0
 10
44.059816246501889
 20
103.15665065473949
 30
0.0
 11
44.050388002417769
 21
103.15665065473949
 31
0.0
  0
LINE
  5
2F54
  8
0
 10
44.150262103996958
 20
103.16926635033521
 30
0.0
 11
44.140975886605467
 21
103.16926635033521
 31
0.0
  0
LINE
  5
2F55
  8
0
 10
44.150262103996958
 20
103.53153220540921
 30
0.0
 11
44.140975886605467
 21
103.53153220540921
 31
0.0
  0
LINE
  5
2F56
  8
0
 10
44.140975886605467
 20
105.1622333300773
 30
0.0
 11
44.140975886605467
 21
105.8280730915729
 31
0.0
  0
POLYLINE
  5
2F57
  8
0
 66
     1
 10
0.0
 20
0.0
 30
0.0
 70
   128
  0
VERTEX
  5
3B7A
  8
0
 10
43.393151798866462
 20
105.49515321082499
 30
0.0
  0
VERTEX
  5
3B7B
  8
0
 10
43.7456075676007
 20
105.2755436224404
 30
0.0
  0
VERTEX
  5
3B7C
  8
0
 10
44.140975886605467
 20
105.1622333300773
 30
0.0
  0
SEQEND
  5
3B7D
  8
0
  0
POLYLINE
  5
2F58
  8
0
 66
     1
 10
0.0
 20
0.0
 30
0.0
 70
   128
  0
VERTEX
  5
3B7E
  8
0
 10
44.140975886605467
 20
105.8280730915729
 30
0.0
  0
VERTEX
  5
3B7F
  8
0
 10
43.745601048342678
 20
105.7147590739194
 30
0.0
  0
VERTEX
  5
3B80
  8
0
 10
43.393151798866462
 20
105.49515321082499
 30
0.0
  0
SEQEND
  5
3B81
  8
0
  0
LINE
  5
2F59
  8
0
 10
43.830427771083791
 20
102.66387297934919
 30
0.0
 11
43.559120932243573
 21
102.2891627920333
 31
0.0
  0
LINE
  5
2F5A
  8
0
 10
44.140975886605467
 20
102.74235925800239
 30
0.0
 11
43.830427771083791
 21
102.66387297934919
 31
0.0
  0
LINE
  5
2F5B
  8
0
 10
44.140975886605467
 20
102.0765194965068
 30
0.0
 11
44.140975886605467
 21
102.74235925800239
 31
0.0
  0
LINE
  5
2F5C
  8
0
 10
43.559120932243573
 20
102.2891627920333
 30
0.0
 11
44.140975886605467
 21
102.0765194965068
 31
0.0
  0
LINE
  5
2F5D
  8
0
 10
44.150262103996958
 20
102.74235925800239
 30
0.0
 11
44.140975886605467
 21
102.74235925800239
 31
0.0
  0
LINE
  5
2F5E
  8
0
 10
44.150262103996958
 20
102.0765194965068
 30
0.0
 11
44.140975886605467
 21
102.0765194965068
 31
0.0
  0
LINE
  5
2F5F
  8
0
 10
44.150262103996958
 20
105.8280730915729
 30
0.0
 11
44.140975886605467
 21
105.8280730915729
 31
0.0
  0
LINE
  5
2F60
  8
0
 10
44.150262103996958
 20
105.1622333300773
 30
0.0
 11
44.140975886605467
 21
105.1622333300773
 31
0.0
  0
LINE
  5
2F61
  8
0
 10
42.426083666853401
 20
102.0765194965068
 30
0.0
 11
42.414088697753641
 21
102.0765194965068
 31
0.0
  0
LINE
  5
2F62
  8
0
 10
42.426083666853401
 20
102.93690695590411
 30
0.0
 11
42.426083666853401
 21
102.504966996378
 31
0.0
  0
ARC
  5
2F63
  8
0
 10
42.06316864014768
 20
103.8971115994276
 30
0.0
 40
1.026499037531406
 50
290.704382116207
 51
3.081712695036424
  0
LINE
  5
2F64
  8
0
 10
43.088183236889321
 20
104.1837243658963
 30
0.0
 11
43.088183236889321
 21
103.9522962940398
 31
0.0
  0
LINE
  5
2F65
  8
0
 10
42.426083666853401
 20
102.93690695590411
 30
0.0
 11
42.414088697753641
 21
102.93690695590411
 31
0.0
  0
POLYLINE
  5
2F66
  8
0
 66
     1
 10
0.0
 20
0.0
 30
0.0
 70
   128
  0
VERTEX
  5
3B82
  8
0
 10
58.833817915640559
 20
103.9522962940398
 30
0.0
  0
VERTEX
  5
3B83
  8
0
 10
58.796462567172718
 20
104.2106079233352
 30
0.0
  0
VERTEX
  5
3B84
  8
0
 10
58.68930645438261
 20
104.4295935255947
 30
0.0
  0
VERTEX
  5
3B85
  8
0
 10
58.526818604789447
 20
104.5759154779378
 30
0.0
  0
VERTEX
  5
3B86
  8
0
 10
58.331944943986613
 20
104.62729654437931
 30
0.0
  0
VERTEX
  5
3B87
  8
0
 10
58.133675681076717
 20
104.5759154779378
 30
0.0
  0
VERTEX
  5
3B88
  8
0
 10
57.962993124149513
 20
104.4295935255947
 30
0.0
  0
VERTEX
  5
3B89
  8
0
 10
57.847643701009247
 20
104.2106079233352
 30
0.0
  0
VERTEX
  5
3B8A
  8
0
 10
57.806894613079521
 20
103.9522962940398
 30
0.0
  0
VERTEX
  5
3B8B
  8
0
 10
57.847643701009247
 20
103.69398466474451
 30
0.0
  0
VERTEX
  5
3B8C
  8
0
 10
57.962993124149513
 20
103.4749990624848
 30
0.0
  0
VERTEX
  5
3B8D
  8
0
 10
58.133675681076717
 20
103.3286771101419
 30
0.0
  0
VERTEX
  5
3B8E
  8
0
 10
58.331944943986613
 20
103.2772960437003
 30
0.0
  0
VERTEX
  5
3B8F
  8
0
 10
58.526818604789447
 20
103.3286771101419
 30
0.0
  0
VERTEX
  5
3B90
  8
0
 10
58.68930645438261
 20
103.4749990624848
 30
0.0
  0
VERTEX
  5
3B91
  8
0
 10
58.796462567172718
 20
103.69398466474451
 30
0.0
  0
VERTEX
  5
3B92
  8
0
 10
58.833817915640559
 20
103.9522962940398
 30
0.0
  0
SEQEND
  5
3B93
  8
0
  0
LINE
  5
2F67
  8
0
 10
41.765538008533191
 20
104.1837243658963
 30
0.0
 11
41.752506011746611
 21
104.1837243658963
 31
0.0
  0
LINE
  5
2F68
  8
0
 10
41.141724178217132
 20
104.1837243658963
 30
0.0
 11
41.12771149875946
 21
104.1837243658963
 31
0.0
  0
POLYLINE
  5
2F69
  8
0
 66
     1
 10
0.0
 20
0.0
 30
0.0
 70
   128
  0
VERTEX
  5
3B94
  8
0
 10
38.396589422248077
 20
105.1522961182061
 30
0.0
  0
VERTEX
  5
3B95
  8
0
 10
38.446783052406978
 20
105.81417217082419
 30
0.0
  0
VERTEX
  5
3B96
  8
0
 10
38.59662354143687
 20
106.40144369728
 30
0.0
  0
VERTEX
  5
3B97
  8
0
 10
38.841337861142833
 20
106.84730320400629
 30
0.0
  0
VERTEX
  5
3B98
  8
0
 10
39.165873976073939
 20
107.1017442566815
 30
0.0
  0
VERTEX
  5
3B99
  8
0
 10
39.418467284761149
 20
107.1522964460317
 30
0.0
  0
SEQEND
  5
3B9A
  8
0
  0
LINE
  5
2F6A
  8
0
 10
38.396589422248077
 20
105.1522961182061
 30
0.0
 11
38.396589422248077
 21
102.7522964698735
 31
0.0
  0
POLYLINE
  5
2F6B
  8
0
 66
     1
 10
0.0
 20
0.0
 30
0.0
 70
   128
  0
VERTEX
  5
3B9B
  8
0
 10
39.418467284761149
 20
100.752296142048
 30
0.0
  0
VERTEX
  5
3B9C
  8
0
 10
39.052365312002372
 20
100.8630136323634
 30
0.0
  0
VERTEX
  5
3B9D
  8
0
 10
38.750643806181628
 20
101.1854021174375
 30
0.0
  0
VERTEX
  5
3B9E
  8
0
 10
38.537275010369491
 20
101.681053854293
 30
0.0
  0
VERTEX
  5
3B9F
  8
0
 10
38.419790530226898
 20
102.2977644873324
 30
0.0
  0
VERTEX
  5
3BA0
  8
0
 10
38.396589422248077
 20
102.7522964698735
 30
0.0
  0
SEQEND
  5
3BA1
  8
0
  0
LINE
  5
2F6C
  8
0
 10
60.703429357729632
 20
100.752296142048
 30
0.0
 11
39.418467284761149
 21
100.752296142048
 31
0.0
  0
POLYLINE
  5
2F6D
  8
0
 66
     1
 10
0.0
 20
0.0
 30
0.0
 70
   128
  0
VERTEX
  5
3BA2
  8
0
 10
61.725307220242691
 20
102.7522964698735
 30
0.0
  0
VERTEX
  5
3BA3
  8
0
 10
61.675113590083782
 20
102.0904204172555
 30
0.0
  0
VERTEX
  5
3BA4
  8
0
 10
61.525273101053912
 20
101.5031507534448
 30
0.0
  0
VERTEX
  5
3BA5
  8
0
 10
61.280558781347942
 20
101.0572893840734
 30
0.0
  0
VERTEX
  5
3BA6
  8
0
 10
60.956022666416843
 20
100.802848331398
 30
0.0
  0
VERTEX
  5
3BA7
  8
0
 10
60.703429357729632
 20
100.752296142048
 30
0.0
  0
SEQEND
  5
3BA8
  8
0
  0
LINE
  5
2F6E
  8
0
 10
61.725307220242691
 20
105.1522961182061
 30
0.0
 11
61.725307220242691
 21
102.7522964698735
 31
0.0
  0
POLYLINE
  5
2F6F
  8
0
 66
     1
 10
0.0
 20
0.0
 30
0.0
 70
   128
  0
VERTEX
  5
3BA9
  8
0
 10
60.703429357729632
 20
107.1522964460317
 30
0.0
  0
VERTEX
  5
3BAA
  8
0
 10
61.069531330488402
 20
107.0415789557162
 30
0.0
  0
VERTEX
  5
3BAB
  8
0
 10
61.371252836309139
 20
106.7191904706422
 30
0.0
  0
VERTEX
  5
3BAC
  8
0
 10
61.584621632121276
 20
106.2235387337867
 30
0.0
  0
VERTEX
  5
3BAD
  8
0
 10
61.70210611226387
 20
105.6068299633924
 30
0.0
  0
VERTEX
  5
3BAE
  8
0
 10
61.725307220242691
 20
105.1522961182061
 30
0.0
  0
SEQEND
  5
3BAF
  8
0
  0
LINE
  5
2F70
  8
0
 10
60.703429357729632
 20
107.1522964460317
 30
0.0
 11
39.418467284761149
 21
107.1522964460317
 31
0.0
  0
LINE
  5
2F71
  8
0
 10
62.060948425553512
 20
81.75229652016499
 30
0.0
 11
38.060948216937241
 21
81.75229652016499
 31
0.0
  0
POLYLINE
  5
2F72
  8
0
 66
     1
 10
0.0
 20
0.0
 30
0.0
 70
   128
  0
VERTEX
  5
3BB0
  8
0
 10
39.690966682158191
 20
107.1522964460317
 30
0.0
  0
VERTEX
  5
3BB1
  8
0
 10
39.323177152894218
 20
107.04167581326401
 30
0.0
  0
VERTEX
  5
3BB2
  8
0
 10
39.020444230757427
 20
106.71943820244699
 30
0.0
  0
VERTEX
  5
3BB3
  8
0
 10
38.806687073431682
 20
106.2240695876542
 30
0.0
  0
VERTEX
  5
3BB4
  8
0
 10
38.689047062419128
 20
105.6075731588069
 30
0.0
  0
VERTEX
  5
3BB5
  8
0
 10
38.665766792021472
 20
105.1522961182061
 30
0.0
  0
SEQEND
  5
3BB6
  8
0
  0
POLYLINE
  5
2F73
  8
0
 66
     1
 10
0.0
 20
0.0
 30
0.0
 70
   128
  0
VERTEX
  5
3BB7
  8
0
 10
61.456129850469303
 20
105.1522961182061
 30
0.0
  0
VERTEX
  5
3BB8
  8
0
 10
61.405926907084663
 20
105.8141647202436
 30
0.0
  0
VERTEX
  5
3BB9
  8
0
 10
61.255943925700862
 20
106.401430658764
 30
0.0
  0
VERTEX
  5
3BBA
  8
0
 10
61.010695026837062
 20
106.8472603631679
 30
0.0
  0
VERTEX
  5
3BBB
  8
0
 10
60.685060882590491
 20
107.10165857500471
 30
0.0
  0
VERTEX
  5
3BBC
  8
0
 10
60.430929960332591
 20
107.1522964460317
 30
0.0
  0
SEQEND
  5
3BBD
  8
0
  0
LINE
  5
2F74
  8
0
 10
61.456129850469303
 20
102.7522964698735
 30
0.0
 11
61.456129850469303
 21
105.1522961182061
 31
0.0
  0
POLYLINE
  5
2F75
  8
0
 66
     1
 10
0.0
 20
0.0
 30
0.0
 70
   128
  0
VERTEX
  5
3BBE
  8
0
 10
60.430929960332591
 20
100.752296142048
 30
0.0
  0
VERTEX
  5
3BBF
  8
0
 10
60.798719489596557
 20
100.8629167748157
 30
0.0
  0
VERTEX
  5
3BC0
  8
0
 10
61.101452411733341
 20
101.1851543856326
 30
0.0
  0
VERTEX
  5
3BC1
  8
0
 10
61.315209569059093
 20
101.6805230004254
 30
0.0
  0
VERTEX
  5
3BC2
  8
0
 10
61.43284958007164
 20
102.29701942927279
 30
0.0
  0
VERTEX
  5
3BC3
  8
0
 10
61.456129850469303
 20
102.7522964698735
 30
0.0
  0
SEQEND
  5
3BC4
  8
0
  0
POLYLINE
  5
2F76
  8
0
 66
     1
 10
0.0
 20
0.0
 30
0.0
 70
   128
  0
VERTEX
  5
3BC5
  8
0
 10
38.665766792021472
 20
102.7522964698735
 30
0.0
  0
VERTEX
  5
3BC6
  8
0
 10
38.715969735406112
 20
102.0904278678361
 30
0.0
  0
VERTEX
  5
3BC7
  8
0
 10
38.865952716789913
 20
101.5031619293157
 30
0.0
  0
VERTEX
  5
3BC8
  8
0
 10
39.111201615653712
 20
101.0573322249118
 30
0.0
  0
VERTEX
  5
3BC9
  8
0
 10
39.436835759900291
 20
100.802934013075
 30
0.0
  0
VERTEX
  5
3BCA
  8
0
 10
39.690966682158191
 20
100.752296142048
 30
0.0
  0
SEQEND
  5
3BCB
  8
0
  0
LINE
  5
2F77
  8
0
 10
38.665766792021472
 20
102.7522964698735
 30
0.0
 11
38.665766792021472
 21
105.1522961182061
 31
0.0
  0
POLYLINE
  5
2F78
  8
0
 66
     1
 10
0.0
 20
0.0
 30
0.0
 70
   128
  0
VERTEX
  5
3BCC
  8
0
 10
60.523959772310903
 20
115.5107805801097
 30
0.0
  0
VERTEX
  5
3BCD
  8
0
 10
60.539733582757158
 20
115.2920613361064
 30
0.0
  0
VERTEX
  5
3BCE
  8
0
 10
60.270626062176902
 20
114.67328689224161
 30
0.0
  0
VERTEX
  5
3BCF
  8
0
 10
59.673352131269652
 20
114.0503662002746
 30
0.0
  0
VERTEX
  5
3BD0
  8
0
 10
58.768076786421013
 20
113.4588534308139
 30
0.0
  0
VERTEX
  5
3BD1
  8
0
 10
57.585650087915141
 20
112.9262486768428
 30
0.0
  0
VERTEX
  5
3BD2
  8
0
 10
56.150197481386137
 20
112.4670097900096
 30
0.0
  0
VERTEX
  5
3BD3
  8
0
 10
54.583257494143929
 20
112.11942530400179
 30
0.0
  0
VERTEX
  5
3BD4
  8
0
 10
52.86648749525078
 20
111.87414101488029
 30
0.0
  0
VERTEX
  5
3BD5
  8
0
 10
51.171184714533169
 20
111.7508748841945
 30
0.0
  0
VERTEX
  5
3BD6
  8
0
 10
49.441968753583517
 20
111.7347592783633
 30
0.0
  0
VERTEX
  5
3BD7
  8
0
 10
47.801143919698688
 20
111.8226053488914
 30
0.0
  0
VERTEX
  5
3BD8
  8
0
 10
46.223223406471107
 20
112.0057592464152
 30
0.0
  0
VERTEX
  5
3BD9
  8
0
 10
44.742157181374502
 20
112.2794004452888
 30
0.0
  0
VERTEX
  5
3BDA
  8
0
 10
43.402209376565892
 20
112.6300471199218
 30
0.0
  0
VERTEX
  5
3BDB
  8
0
 10
42.183831298373413
 20
113.06640154845149
 30
0.0
  0
VERTEX
  5
3BDC
  8
0
 10
41.177106985471909
 20
113.5571601165
 30
0.0
  0
VERTEX
  5
3BDD
  8
0
 10
40.363483095191192
 20
114.12095300084979
 30
0.0
  0
VERTEX
  5
3BDE
  8
0
 10
39.826103450380032
 20
114.7105733228389
 30
0.0
  0
VERTEX
  5
3BDF
  8
0
 10
39.560948462806401
 20
115.51282576448359
 30
0.0
  0
SEQEND
  5
3BE0
  8
0
  0
LINE
  5
2F79
  8
0
 10
58.560948783181367
 20
117.7522952032748
 30
0.0
 11
41.560947859309358
 21
117.7522952032748
 31
0.0
  0
LINE
  5
2F7A
  8
0
 10
43.560948187134933
 20
80.252296448918784
 30
0.0
 11
56.560948455355813
 21
80.252296448918784
 31
0.0
  0
LINE
  5
2F7B
  8
0
 10
56.06094837339942
 20
79.752296425170059
 30
0.0
 11
44.060948269091298
 21
79.752296425170059
 31
0.0
  0
LINE
  5
2F7C
  8
1
 10
50.060948321245242
 20
131.75229684240259
 30
0.0
 11
50.060948321245242
 21
75.752296425170059
 31
0.0
  0
INSERT
  5
2F7D
  8
0
  6
CONTINUOUS
 62
     7
  2
*X3
 10
0.0
 20
0.0
 30
0.0
1001
ACAD
1000
HATCH
1002
{
1070
    19
1000
ANSI31
1040
1.0
1040
0.0
1000
R14_HATCH_DATA
1000
2F7D
1011
1.0
1021
0.0
1031
0.0
1021
0.0
1031
0.0
1011
0.0
1021
0.0
1031
0.0
1021
1.0
1031
0.0
1011
0.0
1021
0.0
1031
0.0
1021
0.0
1031
1.0
1040
0.0
1010
0.0
1020
0.0
1030
1.0
1000
ANSI31
1070
     0
1070
     0
1071
        1
1071
        0
1071
        4
1070
     1
1040
315.14257368690028
1040
85.188125474560053
1040
315.14257368690028
1040
84.188125474560039
1070
     1
1040
315.14257368690028
1040
84.188125474560039
1040
317.44257368690018
1040
84.188125474560039
1070
     1
1040
317.44257368690018
1040
84.188125474560039
1040
317.44257368690018
1040
85.188125474560053
1070
     1
1040
317.44257368690018
1040
85.188125474560053
1040
315.14257368690028
1040
85.188125474560053
1071
        0
1070
     0
1070
     1
1040
0.0
1040
1.0
1070
     0
1070
     1
1040
0.7853981633974483
1040
5.07682298468265
1040
13.92611208469247
1040
-2.2450640302672871
1040
2.2450640302672871
1070
     0
1071
        1
1040
5.07682298468265
1040
13.92611208469247
1040
0.0
1002
}
  0
LINE
  5
2F7E
  8
0
 10
255.7721084971333
 20
116.23075253493219
 30
0.0
 11
255.71187940057149
 21
123.2031325174037
 31
0.0
  0
LINE
  5
2F7F
  8
0
 10
240.83144851591231
 20
123.2029760552112
 30
0.0
 11
240.7721088324094
 21
116.2306556773845
 31
0.0
  0
POLYLINE
  5
2F80
  8
0
 66
     1
 10
0.0
 20
0.0
 30
0.0
 70
   128
  0
VERTEX
  5
3BE1
  8
0
 10
241.56281287412881
 20
125.7164666724864
 30
0.0
  0
VERTEX
  5
3BE2
  8
0
 10
240.9952301217395
 20
124.5545282842463
 30
0.0
  0
SEQEND
  5
3BE3
  8
0
  0
POLYLINE
  5
2F81
  8
0
 66
     1
 10
0.0
 20
0.0
 30
0.0
 70
   128
  0
VERTEX
  5
3BE4
  8
0
 10
255.71187940057149
 20
123.2031325174037
 30
0.0
  0
VERTEX
  5
3BE5
  8
0
 10
255.5869917946722
 20
124.4307193280289
 30
0.0
  0
SEQEND
  5
3BE6
  8
0
  0
POLYLINE
  5
2F82
  8
0
 66
     1
 10
0.0
 20
0.0
 30
0.0
 70
   128
  0
VERTEX
  5
3BE7
  8
0
 10
240.7721088324094
 20
116.2306556773845
 30
0.0
  0
VERTEX
  5
3BE8
  8
0
 10
241.01609252955561
 20
115.452669776744
 30
0.0
  0
VERTEX
  5
3BE9
  8
0
 10
241.2865919117236
 20
114.8608738852206
 30
0.0
  0
VERTEX
  5
3BEA
  8
0
 10
241.67327331941371
 20
114.3696235788528
 30
0.0
  0
VERTEX
  5
3BEB
  8
0
 10
242.12803813259839
 20
113.98899204260741
 30
0.0
  0
VERTEX
  5
3BEC
  8
0
 10
243.1061363835239
 20
113.5020816994372
 30
0.0
  0
VERTEX
  5
3BED
  8
0
 10
244.10270928036209
 20
113.23999262577929
 30
0.0
  0
VERTEX
  5
3BEE
  8
0
 10
245.1518939864242
 20
113.06986606842911
 30
0.0
  0
VERTEX
  5
3BEF
  8
0
 10
246.1624271758252
 20
112.9740367007915
 30
0.0
  0
VERTEX
  5
3BF0
  8
0
 10
247.05601931180601
 20
112.9345225465957
 30
0.0
  0
VERTEX
  5
3BF1
  8
0
 10
247.8247380871677
 20
112.9264349413577
 30
0.0
  0
VERTEX
  5
3BF2
  8
0
 10
248.7604648280309
 20
112.9272694063846
 30
0.0
  0
VERTEX
  5
3BF3
  8
0
 10
249.81203098412391
 20
112.9443424118224
 30
0.0
  0
VERTEX
  5
3BF4
  8
0
 10
251.0674747694635
 20
113.02288270718491
 30
0.0
  0
VERTEX
  5
3BF5
  8
0
 10
252.24376870881559
 20
113.21580804116159
 30
0.0
  0
VERTEX
  5
3BF6
  8
0
 10
253.64018912058111
 20
113.7145946098033
 30
0.0
  0
VERTEX
  5
3BF7
  8
0
 10
254.33750292848589
 20
114.1453983557883
 30
0.0
  0
VERTEX
  5
3BF8
  8
0
 10
254.9483420383537
 20
114.7094482851688
 30
0.0
  0
VERTEX
  5
3BF9
  8
0
 10
255.40138530175921
 20
115.3816657436553
 30
0.0
  0
VERTEX
  5
3BFA
  8
0
 10
255.7721084971333
 20
116.23075253493219
 30
0.0
  0
SEQEND
  5
3BFB
  8
0
  0
LINE
  5
2F83
  8
0
 10
251.69999087791689
 20
127.7522968424026
 30
0.0
 11
244.84378616887869
 21
127.7522968424026
 31
0.0
  0
ARC
  5
2F84
  8
0
 10
251.1336472913199
 20
123.177027712165
 30
0.0
 40
4.6101879215692572
 50
33.427548659975471
 51
82.943612521784843
  0
ARC
  5
2F85
  8
0
 10
245.4107813709434
 20
123.1768096474467
 30
0.0
 40
4.6104844246965211
 50
97.064091044032125
 51
146.57163643710891
  0
POLYLINE
  5
2F86
  8
0
 66
     1
 10
0.0
 20
0.0
 30
0.0
 70
   128
  0
VERTEX
  5
3BFC
  8
0
 10
257.94309825267447
 20
117.3145624173347
 30
0.0
  0
VERTEX
  5
3BFD
  8
0
 10
257.6340509634818
 20
118.3436701369945
 30
0.0
  0
VERTEX
  5
3BFE
  8
0
 10
257.36802239533318
 20
119.1867964637939
 30
0.0
  0
VERTEX
  5
3BFF
  8
0
 10
257.1422167178597
 20
119.8750661981765
 30
0.0
  0
VERTEX
  5
3C00
  8
0
 10
256.95392191972388
 20
120.4323659015361
 30
0.0
  0
VERTEX
  5
3C01
  8
0
 10
256.80056941326512
 20
120.8768004847232
 30
0.0
  0
VERTEX
  5
3C02
  8
0
 10
256.67980667765988
 20
121.2218890262309
 30
0.0
  0
VERTEX
  5
3C03
  8
0
 10
256.57691229697122
 20
121.5132551563445
 30
0.0
  0
VERTEX
  5
3C04
  8
0
 10
256.40100315775533
 20
122.007683135337
 30
0.0
  0
VERTEX
  5
3C05
  8
0
 10
256.1920898091401
 20
122.5934515071574
 30
0.0
  0
VERTEX
  5
3C06
  8
0
 10
255.96217653345121
 20
123.2478509021464
 30
0.0
  0
VERTEX
  5
3C07
  8
0
 10
255.72665576454051
 20
123.954668856925
 30
0.0
  0
VERTEX
  5
3C08
  8
0
 10
255.55399976351259
 20
124.5431740433786
 30
0.0
  0
SEQEND
  5
3C09
  8
0
  0
POLYLINE
  5
2F87
  8
0
 66
     1
 10
0.0
 20
0.0
 30
0.0
 70
   128
  0
VERTEX
  5
3C0A
  8
0
 10
240.9952301217395
 20
124.5545282842464
 30
0.0
  0
VERTEX
  5
3C0B
  8
0
 10
240.9085080083812
 20
124.2478380275432
 30
0.0
  0
VERTEX
  5
3C0C
  8
0
 10
240.77299079488759
 20
123.81543985731039
 30
0.0
  0
VERTEX
  5
3C0D
  8
0
 10
240.63946381773599
 20
123.41498232609661
 30
0.0
  0
VERTEX
  5
3C0E
  8
0
 10
240.5132197831179
 20
123.0496133042041
 30
0.0
  0
VERTEX
  5
3C0F
  8
0
 10
240.39878585006841
 20
122.7247121108237
 30
0.0
  0
VERTEX
  5
3C10
  8
0
 10
240.29989895041831
 20
122.44655213481821
 30
0.0
  0
VERTEX
  5
3C11
  8
0
 10
240.2076710071768
 20
122.18811757094301
 30
0.0
  0
VERTEX
  5
3C12
  8
0
 10
240.065352810582
 20
121.78924328810611
 30
0.0
  0
VERTEX
  5
3C13
  8
0
 10
239.87915348823921
 20
121.2639103007976
 30
0.0
  0
VERTEX
  5
3C14
  8
0
 10
239.6444993149843
 20
120.5905305517379
 30
0.0
  0
VERTEX
  5
3C15
  8
0
 10
239.35655020739691
 20
119.7385901880923
 30
0.0
  0
VERTEX
  5
3C16
  8
0
 10
239.01037853773491
 20
118.6658183408443
 30
0.0
  0
VERTEX
  5
3C17
  8
0
 10
238.60111907686851
 20
117.3145624173347
 30
0.0
  0
SEQEND
  5
3C18
  8
0
  0
POLYLINE
  5
2F88
  8
0
 66
     1
 10
0.0
 20
0.0
 30
0.0
 70
   128
  0
VERTEX
  5
3C19
  8
0
 10
238.60109206851379
 20
117.3144804609481
 30
0.0
  0
VERTEX
  5
3C1A
  8
0
 10
238.45369350727461
 20
117.2736363781158
 30
0.0
  0
VERTEX
  5
3C1B
  8
0
 10
237.93621156927011
 20
117.0376094353858
 30
0.0
  0
SEQEND
  5
3C1C
  8
0
  0
POLYLINE
  5
2F89
  8
0
 66
     1
 10
0.0
 20
0.0
 30
0.0
 70
   128
  0
VERTEX
  5
3C1D
  8
0
 10
258.60795453753133
 20
117.03763551241791
 30
0.0
  0
VERTEX
  5
3C1E
  8
0
 10
258.08821973021878
 20
117.27627388364699
 30
0.0
  0
VERTEX
  5
3C1F
  8
0
 10
257.94309545870681
 20
117.31457359320559
 30
0.0
  0
SEQEND
  5
3C20
  8
0
  0
LINE
  5
2F8A
  8
0
 10
235.27210839655069
 20
113.40082085854451
 30
0.0
 11
235.27210839655069
 21
82.752296451247076
 31
0.0
  0
LINE
  5
2F8B
  8
0
 10
261.27210893299241
 20
82.752296451247076
 30
0.0
 11
261.27210893299241
 21
113.40071655041611
 31
0.0
  0
ARC
  5
2F8C
  8
0
 10
236.27210866477159
 20
82.752296425170059
 30
0.0
 40
1.0
 50
180.0
 51
270.0
  0
ARC
  5
2F8D
  8
0
 10
260.27210866477151
 20
82.752296425170059
 30
0.0
 40
1.0000000000000271
 50
270.0
 51
0.0
  0
ARC
  5
2F8E
  8
0
 10
257.0235461978786
 20
113.0827657518528
 30
0.0
 40
4.2604412172646233
 50
4.2873689685635359
 51
68.167810258157971
  0
ARC
  5
2F8F
  8
0
 10
239.5238417100704
 20
113.0803364993959
 30
0.0
 40
4.2638727285174198
 50
111.8597640581137
 51
175.69028037128771
  0
LINE
  5
2F90
  8
0
 10
241.77210853066109
 20
80.252296448918784
 30
0.0
 11
242.2721086126175
 21
79.752296425170059
 31
0.0
  0
LINE
  5
2F91
  8
0
 10
254.2721087169256
 20
79.752296425170059
 30
0.0
 11
254.77210879888199
 21
80.252296448918784
 31
0.0
  0
LINE
  5
2F92
  8
0
 10
254.77210879888199
 20
80.252296448918784
 30
0.0
 11
254.77210879888199
 21
81.75229652016499
 31
0.0
  0
LINE
  5
2F93
  8
0
 10
241.77210853066109
 20
81.75229652016499
 30
0.0
 11
241.77210853066109
 21
80.252296448918784
 31
0.0
  0
LINE
  5
2F94
  8
0
 10
248.27210866477139
 20
96.538195602363714
 30
0.0
 11
251.2721086908484
 21
98.270245112246641
 31
0.0
  0
LINE
  5
2F95
  8
0
 10
251.2721086908484
 20
98.270245112246641
 30
0.0
 11
251.2721086908484
 21
101.73434785730279
 31
0.0
  0
LINE
  5
2F96
  8
0
 10
251.2721086908484
 20
101.73434785730279
 30
0.0
 11
248.27210866477139
 21
103.46639736718571
 31
0.0
  0
LINE
  5
2F97
  8
0
 10
248.27210866477139
 20
103.46639736718571
 30
0.0
 11
245.27210863869439
 21
101.73434785730279
 31
0.0
  0
LINE
  5
2F98
  8
0
 10
245.27210863869439
 20
101.73434785730279
 30
0.0
 11
245.27210863869439
 21
98.270245112246641
 31
0.0
  0
LINE
  5
2F99
  8
0
 10
245.27210863869439
 20
98.270245112246641
 30
0.0
 11
248.27210866477139
 21
96.538195602363714
 31
0.0
  0
LINE
  5
2F9A
  8
0
 10
255.7721084971333
 20
110.39335302240291
 30
0.0
 11
255.7721084971333
 21
108.7468939197723
 31
0.0
  0
LINE
  5
2F9B
  8
0
 10
240.77210883240949
 20
108.7468939197723
 30
0.0
 11
240.77210883240949
 21
110.3932729286615
 31
0.0
  0
LINE
  5
2F9C
  8
0
 10
255.7721084971333
 20
108.7468939197723
 30
0.0
 11
255.7721084971333
 21
92.752296693390946
 31
0.0
  0
ARC
  5
2F9D
  8
0
 10
251.77210866477139
 20
92.752296425170044
 30
0.0
 40
3.999999999999996
 50
318.18968510422212
 51
0.0000000000004071
  0
ARC
  5
2F9E
  8
0
 10
251.7720154000011
 20
92.75250415599217
 30
0.0
 40
4.000208119342056
 50
270.00133739731081
 51
318.1883561965634
  0
LINE
  5
2F9F
  8
0
 10
246.1721087396497
 20
88.752296037739853
 30
0.0
 11
244.772108556738
 21
88.752296037739853
 31
0.0
  0
LINE
  5
2FA0
  8
0
 10
251.77210877280481
 20
88.752296037739853
 30
0.0
 11
250.37210858989309
 21
88.752296037739853
 31
0.0
  0
ARC
  5
2FA1
  8
0
 10
248.27210866477139
 20
43.634909446513092
 30
0.0
 40
45.166232657901858
 50
87.335077134694487
 51
92.664922865305513
  0
LINE
  5
2FA2
  8
0
 10
240.77210883240949
 20
92.752296693390946
 30
0.0
 11
240.77210883240949
 21
108.7468939197723
 31
0.0
  0
ARC
  5
2FA3
  8
0
 10
244.77212096833571
 20
92.752323121267935
 30
0.0
 40
4.0000270835473284
 50
221.81048418796621
 51
269.99982221816271
  0
ARC
  5
2FA4
  8
0
 10
244.77210866477139
 20
92.752296425170044
 30
0.0
 40
4.0000000000000284
 50
179.9999999999996
 51
221.8103148957791
  0
LINE
  5
2FA5
  8
0
 10
255.7721084971333
 20
92.752296693390946
 30
0.0
 11
255.7721084971333
 21
92.751138364623145
 31
0.0
  0
LINE
  5
2FA6
  8
0
 10
240.77210883240949
 20
92.751138364417557
 30
0.0
 11
240.77210883240949
 21
92.752296693390946
 31
0.0
  0
LINE
  5
2FA7
  8
0
 10
254.2721087169256
 20
79.752296425170059
 30
0.0
 11
242.2721086126175
 21
79.752296425170059
 31
0.0
  0
LINE
  5
2FA8
  8
0
 10
241.77210853066109
 20
80.252296448918784
 30
0.0
 11
254.77210879888199
 21
80.252296448918784
 31
0.0
  0
LINE
  5
2FA9
  8
0
 10
95.186112080745559
 20
104.604862846202
 30
0.0
 11
95.186112080745559
 21
100.95229580230151
 31
0.0
  0
LINE
  5
2FAA
  8
0
 10
95.186112080745559
 20
106.9522967857782
 30
0.0
 11
95.186112080745559
 21
105.73500602669159
 31
0.0
  0
LINE
  5
2FAB
  8
0
 10
95.206112233035427
 20
105.4425781888429
 30
0.0
 11
95.206112233035427
 21
104.6049187255565
 31
0.0
  0
ARC
  5
2FAC
  8
0
 10
96.936118323756546
 20
109.38943135289701
 30
0.0
 40
2.0000067496552201
 50
111.3089401503303
 51
179.99987501414029
  0
LINE
  5
2FAD
  8
0
 10
94.936111574106107
 20
100.752296142048
 30
0.0
 11
94.936111574106107
 21
82.752296451247133
 31
0.0
  0
LINE
  5
2FAE
  8
0
 10
94.936111574106107
 20
109.390693001217
 30
0.0
 11
94.936111574106107
 21
107.1522964460317
 31
0.0
  0
ARC
  5
2FAF
  8
0
 10
95.936111842327009
 20
82.75229642517013
 30
0.0
 40
1.0
 50
180.0
 51
270.0000000000008
  0
LINE
  5
2FB0
  8
0
 10
95.23611199580894
 20
107.1522964460317
 30
0.0
 11
95.23611199580894
 21
106.9522967857782
 31
0.0
  0
LINE
  5
2FB1
  8
0
 10
95.23611199580894
 20
100.95229580230151
 30
0.0
 11
95.23611199580894
 21
100.752296142048
 31
0.0
  0
ARC
  5
2FB2
  8
0
 10
177.93610150905261
 20
121.97798524158959
 30
0.0
 40
5.00001331351885
 50
0.0001266847441595
 51
81.469962254835352
  0
LINE
  5
2FB3
  8
0
 10
182.9361148225592
 20
116.41423425800239
 30
0.0
 11
182.9361148225592
 21
121.9792926979724
 31
0.0
  0
ARC
  5
2FB4
  8
0
 10
179.43610857528651
 20
116.4143991445999
 30
0.0
 40
3.5000062472828879
 50
256.7033481479354
 51
359.99986209086188
  0
ARC
  5
2FB5
  8
0
 10
99.436111842326994
 20
115.7522964251701
 30
0.0
 40
2.0
 50
90.0
 51
180.0
  0
LINE
  5
2FB6
  8
0
 10
97.436111983888011
 20
115.75229487544929
 30
0.0
 11
97.436111983888011
 21
111.7274614346687
 31
0.0
  0
LINE
  5
2FB7
  8
0
 10
101.4361117082165
 20
80.252296448918813
 30
0.0
 11
101.9361117901729
 21
79.752296425170101
 31
0.0
  0
LINE
  5
2FB8
  8
0
 10
113.936111894481
 20
79.752296425170101
 30
0.0
 11
114.4361119764374
 21
80.252296448918813
 31
0.0
  0
LINE
  5
2FB9
  8
0
 10
114.4361119764374
 20
80.252296448918813
 30
0.0
 11
114.4361119764374
 21
81.75229652016499
 31
0.0
  0
LINE
  5
2FBA
  8
0
 10
101.4361117082165
 20
81.75229652016499
 30
0.0
 11
101.4361117082165
 21
80.252296448918813
 31
0.0
  0
POLYLINE
  5
2FBB
  8
0
 66
     1
 10
0.0
 20
0.0
 30
0.0
 70
   128
  0
VERTEX
  5
3C21
  8
0
 10
95.186186586551571
 20
104.604862846202
 30
0.0
  0
VERTEX
  5
3C22
  8
0
 10
95.18660661303268
 20
104.6272965443794
 30
0.0
  0
VERTEX
  5
3C23
  8
0
 10
95.188392889730792
 20
104.60177271789939
 30
0.0
  0
VERTEX
  5
3C24
  8
0
 10
95.190934469036947
 20
104.52888741321
 30
0.0
  0
VERTEX
  5
3C25
  8
0
 10
95.193169643216024
 20
104.418911255664
 30
0.0
  0
VERTEX
  5
3C26
  8
0
 10
95.194052537016731
 20
104.28979641920959
 30
0.0
  0
SEQEND
  5
3C27
  8
0
  0
LINE
  5
2FBC
  8
0
 10
95.194052537016731
 20
104.28979641920959
 30
0.0
 11
95.194052537016731
 21
102.1522956264678
 31
0.0
  0
LINE
  5
2FBD
  8
0
 10
95.283267651729474
 20
102.1522956264678
 30
0.0
 11
95.194052537016731
 21
102.1522956264678
 31
0.0
  0
LINE
  5
2FBE
  8
0
 10
95.283267651729474
 20
102.1522956264678
 30
0.0
 11
95.283267651729474
 21
104.28979641920959
 31
0.0
  0
POLYLINE
  5
2FBF
  8
0
 66
     1
 10
0.0
 20
0.0
 30
0.0
 70
   128
  0
VERTEX
  5
3C28
  8
0
 10
95.283267651729474
 20
104.28979641920959
 30
0.0
  0
VERTEX
  5
3C29
  8
0
 10
95.286487233869906
 20
104.4190211517278
 30
0.0
  0
VERTEX
  5
3C2A
  8
0
 10
95.29581815474495
 20
104.5283733231489
 30
0.0
  0
VERTEX
  5
3C2B
  8
0
 10
95.310595450036416
 20
104.6014895958368
 30
0.0
  0
VERTEX
  5
3C2C
  8
0
 10
95.329249841205964
 20
104.6272965443794
 30
0.0
  0
VERTEX
  5
3C2D
  8
0
 10
95.349154998593193
 20
104.60177271789939
 30
0.0
  0
VERTEX
  5
3C2E
  8
0
 10
95.367075507573944
 20
104.52888741321
 30
0.0
  0
VERTEX
  5
3C2F
  8
0
 10
95.379633461170073
 20
104.418911255664
 30
0.0
  0
VERTEX
  5
3C30
  8
0
 10
95.384126161270004
 20
104.28979641920959
 30
0.0
  0
SEQEND
  5
3C31
  8
0
  0
LINE
  5
2FC0
  8
0
 10
95.384126161270004
 20
104.28979641920959
 30
0.0
 11
95.384126161270004
 21
102.1522956264678
 31
0.0
  0
LINE
  5
2FC1
  8
0
 10
95.63020114325748
 20
102.1522956264678
 30
0.0
 11
95.384126161270004
 21
102.1522956264678
 31
0.0
  0
LINE
  5
2FC2
  8
0
 10
95.63020114325748
 20
102.1522956264678
 30
0.0
 11
95.63020114325748
 21
104.28979641920959
 31
0.0
  0
POLYLINE
  5
2FC3
  8
0
 66
     1
 10
0.0
 20
0.0
 30
0.0
 70
   128
  0
VERTEX
  5
3C32
  8
0
 10
95.63020114325748
 20
104.28979641920959
 30
0.0
  0
VERTEX
  5
3C33
  8
0
 10
95.61546296351419
 20
104.6928560656968
 30
0.0
  0
VERTEX
  5
3C34
  8
0
 10
95.573941809170137
 20
105.0647387576763
 30
0.0
  0
VERTEX
  5
3C35
  8
0
 10
95.512520154051643
 20
105.3765381050769
 30
0.0
  0
VERTEX
  5
3C36
  8
0
 10
95.441026245288711
 20
105.6041756940547
 30
0.0
  0
VERTEX
  5
3C37
  8
0
 10
95.369784724943514
 20
105.7300197256271
 30
0.0
  0
VERTEX
  5
3C38
  8
0
 10
95.307399150960308
 20
105.74432856566349
 30
0.0
  0
VERTEX
  5
3C39
  8
0
 10
95.259123113982554
 20
105.6458765936557
 30
0.0
  0
VERTEX
  5
3C3A
  8
0
 10
95.226293061904769
 20
105.4425781888429
 30
0.0
  0
SEQEND
  5
3C3B
  8
0
  0
POLYLINE
  5
2FC4
  8
0
 66
     1
 10
0.0
 20
0.0
 30
0.0
 70
   128
  0
VERTEX
  5
3C3C
  8
0
 10
95.226293061904769
 20
105.4425781888429
 30
0.0
  0
VERTEX
  5
3C3D
  8
0
 10
95.203182292215715
 20
105.64584492868821
 30
0.0
  0
VERTEX
  5
3C3E
  8
0
 10
95.188864138953576
 20
105.7443304283086
 30
0.0
  0
VERTEX
  5
3C3F
  8
0
 10
95.187585433058587
 20
105.73500602669159
 30
0.0
  0
SEQEND
  5
3C40
  8
0
  0
POLYLINE
  5
2FC5
  8
0
 66
     1
 10
0.0
 20
0.0
 30
0.0
 70
   128
  0
VERTEX
  5
3C41
  8
0
 10
95.186899979643684
 20
105.7300160003368
 30
0.0
  0
VERTEX
  5
3C42
  8
0
 10
95.197078404061685
 20
105.60416451818379
 30
0.0
  0
VERTEX
  5
3C43
  8
0
 10
95.206112233035427
 20
105.49269824451839
 30
0.0
  0
SEQEND
  5
3C44
  8
0
  0
LINE
  5
2FC6
  8
0
 10
96.931531657509694
 20
102.1522956264678
 30
0.0
 11
96.931531657509694
 21
104.28979641920959
 31
0.0
  0
POLYLINE
  5
2FC7
  8
0
 66
     1
 10
0.0
 20
0.0
 30
0.0
 70
   128
  0
VERTEX
  5
3C45
  8
0
 10
96.931531657509694
 20
104.28979641920959
 30
0.0
  0
VERTEX
  5
3C46
  8
0
 10
96.875727740161281
 20
104.84948217100541
 30
0.0
  0
VERTEX
  5
3C47
  8
0
 10
96.721449499063354
 20
105.3239444566432
 30
0.0
  0
VERTEX
  5
3C48
  8
0
 10
96.503540505700016
 20
105.6409703863325
 30
0.0
  0
VERTEX
  5
3C49
  8
0
 10
96.266870950393582
 20
105.7522969616119
 30
0.0
  0
VERTEX
  5
3C4A
  8
0
 10
96.052680728070641
 20
105.6409759742681
 30
0.0
  0
VERTEX
  5
3C4B
  8
0
 10
95.889013824097972
 20
105.32395376986899
 30
0.0
  0
VERTEX
  5
3C4C
  8
0
 10
95.788936694197545
 20
104.8494877589408
 30
0.0
  0
VERTEX
  5
3C4D
  8
0
 10
95.755572062961946
 20
104.28979641920959
 30
0.0
  0
SEQEND
  5
3C4E
  8
0
  0
LINE
  5
2FC8
  8
0
 10
95.755572062961946
 20
104.28979641920959
 30
0.0
 11
95.755572062961946
 21
102.1522956264678
 31
0.0
  0
LINE
  5
2FC9
  8
0
 10
96.134985429279695
 20
102.1522956264678
 30
0.0
 11
95.755572062961946
 21
102.1522956264678
 31
0.0
  0
LINE
  5
2FCA
  8
0
 10
96.134985429279695
 20
102.1522956264678
 30
0.0
 11
96.134985429279695
 21
102.93979591853061
 31
0.0
  0
LINE
  5
2FCB
  8
0
 10
96.406925101809364
 20
102.93979591853061
 30
0.0
 11
96.134985429279695
 21
102.93979591853061
 31
0.0
  0
LINE
  5
2FCC
  8
0
 10
96.406925101809364
 20
102.93979591853061
 30
0.0
 11
96.406925101809364
 21
102.1522956264678
 31
0.0
  0
LINE
  5
2FCD
  8
0
 10
96.931531657509694
 20
102.1522956264678
 30
0.0
 11
96.406925101809364
 21
102.1522956264678
 31
0.0
  0
ARC
  5
2FCE
  8
0
 10
100.45265099817431
 20
105.27525478959259
 30
0.0
 40
1.682340726955563
 50
355.80863724415991
 51
85.451369784150856
  0
LINE
  5
2FCF
  8
0
 10
102.1304923156725
 20
105.15229611820619
 30
0.0
 11
102.1304923156725
 21
102.7522964698736
 31
0.0
  0
ARC
  5
2FD0
  8
0
 10
100.41219144410979
 20
102.6640525985374
 30
0.0
 40
1.720565275146934
 50
275.8001332215681
 51
2.9398597501242159
  0
LINE
  5
2FD1
  8
0
 10
95.186112080745559
 20
100.95229580230151
 30
0.0
 11
100.586069379978
 21
100.95229580230151
 31
0.0
  0
LINE
  5
2FD2
  8
0
 10
95.186112080745559
 20
106.9522967857782
 30
0.0
 11
100.586069379978
 21
106.9522967857782
 31
0.0
  0
POLYLINE
  5
2FD3
  8
0
 66
     1
 10
0.0
 20
0.0
 30
0.0
 70
   128
  0
VERTEX
  5
3C4F
  8
0
 10
99.493190278344045
 20
103.9522962940399
 30
0.0
  0
VERTEX
  5
3C50
  8
0
 10
99.390577157072869
 20
104.63995508081339
 30
0.0
  0
VERTEX
  5
3C51
  8
0
 10
99.105214332275253
 20
105.2253434730235
 30
0.0
  0
VERTEX
  5
3C52
  8
0
 10
98.693471965424905
 20
105.6152547074024
 30
0.0
  0
VERTEX
  5
3C53
  8
0
 10
98.232436557345252
 20
105.7520157021943
 30
0.0
  0
VERTEX
  5
3C54
  8
0
 10
97.8001110302733
 20
105.6145543528262
 30
0.0
  0
VERTEX
  5
3C55
  8
0
 10
97.456610393755341
 20
105.22435999638471
 30
0.0
  0
VERTEX
  5
3C56
  8
0
 10
97.239374746613365
 20
104.6401171309415
 30
0.0
  0
VERTEX
  5
3C57
  8
0
 10
97.16585241728292
 20
103.9511954707567
 30
0.0
  0
VERTEX
  5
3C58
  8
0
 10
97.239935402803283
 20
103.2626370263759
 30
0.0
  0
VERTEX
  5
3C59
  8
0
 10
97.457361039750481
 20
102.6786493433181
 30
0.0
  0
VERTEX
  5
3C5A
  8
0
 10
97.801306848459134
 20
102.2890882862274
 30
0.0
  0
VERTEX
  5
3C5B
  8
0
 10
98.233833541207204
 20
102.1528506947223
 30
0.0
  0
VERTEX
  5
3C5C
  8
0
 10
98.694771160416494
 20
102.28996372944751
 30
0.0
  0
VERTEX
  5
3C5D
  8
0
 10
99.106388730041843
 20
102.68068893975649
 30
0.0
  0
VERTEX
  5
3C5E
  8
0
 10
99.391139675907951
 20
103.26726942486199
 30
0.0
  0
VERTEX
  5
3C5F
  8
0
 10
99.493190278344045
 20
103.9522962940399
 30
0.0
  0
SEQEND
  5
3C60
  8
0
  0
ARC
  5
2FD4
  8
0
 10
100.4754628720506
 20
102.6292822286629
 30
0.0
 40
1.6823001469575061
 50
274.55511794059481
 51
4.1933617144946149
  0
LINE
  5
2FD5
  8
0
 10
100.6090679252969
 20
100.95229580230151
 30
0.0
 11
100.586069379978
 21
100.95229580230151
 31
0.0
  0
LINE
  5
2FD6
  8
0
 10
100.586069379978
 20
106.9522967857782
 30
0.0
 11
100.6090679252969
 21
106.9522967857782
 31
0.0
  0
ARC
  5
2FD7
  8
0
 10
100.4349788830298
 20
105.24057979906731
 30
0.0
 40
1.720547016861889
 50
357.05878158374088
 51
84.192738761170119
  0
LINE
  5
2FD8
  8
0
 10
102.15325942733151
 20
105.15229611820619
 30
0.0
 11
102.15325942733151
 21
102.7522964698736
 31
0.0
  0
POLYLINE
  5
2FD9
  8
0
 66
     1
 10
0.0
 20
0.0
 30
0.0
 70
   128
  0
VERTEX
  5
3C61
  8
0
 10
99.506433685355091
 20
103.9522962940399
 30
0.0
  0
VERTEX
  5
3C62
  8
0
 10
99.403981682889309
 20
104.63995508081339
 30
0.0
  0
VERTEX
  5
3C63
  8
0
 10
99.119066824250069
 20
105.2253434730235
 30
0.0
  0
VERTEX
  5
3C64
  8
0
 10
98.707969863943944
 20
105.6152547074024
 30
0.0
  0
VERTEX
  5
3C65
  8
0
 10
98.24765809350481
 20
105.7520157021943
 30
0.0
  0
VERTEX
  5
3C66
  8
0
 10
97.816010569267164
 20
105.6145543528262
 30
0.0
  0
VERTEX
  5
3C67
  8
0
 10
97.473049168519864
 20
105.22435999638471
 30
0.0
  0
VERTEX
  5
3C68
  8
0
 10
97.256153454117666
 20
104.6401171309415
 30
0.0
  0
VERTEX
  5
3C69
  8
0
 10
97.182746608786431
 20
103.9511954707567
 30
0.0
  0
VERTEX
  5
3C6A
  8
0
 10
97.256713178985024
 20
103.2626370263759
 30
0.0
  0
VERTEX
  5
3C6B
  8
0
 10
97.473797951869855
 20
102.6786493433181
 30
0.0
  0
VERTEX
  5
3C6C
  8
0
 10
97.817204524807792
 20
102.2890882862274
 30
0.0
  0
VERTEX
  5
3C6D
  8
0
 10
98.249052283398996
 20
102.1528506947223
 30
0.0
  0
VERTEX
  5
3C6E
  8
0
 10
98.70926812761293
 20
102.28996372944751
 30
0.0
  0
VERTEX
  5
3C6F
  8
0
 10
99.120239359371567
 20
102.68068893975649
 30
0.0
  0
VERTEX
  5
3C70
  8
0
 10
99.404543270401845
 20
103.26726942486199
 30
0.0
  0
VERTEX
  5
3C71
  8
0
 10
99.506433685355091
 20
103.9522962940399
 30
0.0
  0
SEQEND
  5
3C72
  8
0
  0
POLYLINE
  5
2FDA
  8
0
 66
     1
 10
0.0
 20
0.0
 30
0.0
 70
   128
  0
VERTEX
  5
3C73
  8
0
 10
98.698638011746269
 20
103.9522962940399
 30
0.0
  0
VERTEX
  5
3C74
  8
0
 10
98.663414460651765
 20
104.2106079233352
 30
0.0
  0
VERTEX
  5
3C75
  8
0
 10
98.563934308521652
 20
104.4295935255947
 30
0.0
  0
VERTEX
  5
3C76
  8
0
 10
98.417361830406051
 20
104.5759154779378
 30
0.0
  0
VERTEX
  5
3C77
  8
0
 10
98.248079051308537
 20
104.6272965443794
 30
0.0
  0
VERTEX
  5
3C78
  8
0
 10
98.248048317663574
 20
104.6272872311536
 30
0.0
  0
SEQEND
  5
3C79
  8
0
  0
ARC
  5
2FDB
  8
0
 10
98.102392543017345
 20
103.86241392909579
 30
0.0
 40
0.6029821709700564
 50
283.98158198684217
 51
8.5726331804075908
  0
POLYLINE
  5
2FDC
  8
0
 66
     1
 10
0.0
 20
0.0
 30
0.0
 70
   128
  0
VERTEX
  5
3C7A
  8
0
 10
98.684125212066064
 20
103.9522962940399
 30
0.0
  0
VERTEX
  5
3C7B
  8
0
 10
98.648846712939587
 20
104.2106079233352
 30
0.0
  0
VERTEX
  5
3C7C
  8
0
 10
98.549210098616982
 20
104.4295935255947
 30
0.0
  0
VERTEX
  5
3C7D
  8
0
 10
98.402406652502904
 20
104.5759154779378
 30
0.0
  0
VERTEX
  5
3C7E
  8
0
 10
98.232858446471553
 20
104.6272965443794
 30
0.0
  0
VERTEX
  5
3C7F
  8
0
 10
98.067293507091861
 20
104.5759154779378
 30
0.0
  0
VERTEX
  5
3C80
  8
0
 10
97.930104103915554
 20
104.4295935255947
 30
0.0
  0
VERTEX
  5
3C81
  8
0
 10
97.84007966988554
 20
104.2106079233352
 30
0.0
  0
VERTEX
  5
3C82
  8
0
 10
97.808781643443012
 20
103.9522962940399
 30
0.0
  0
VERTEX
  5
3C83
  8
0
 10
97.84007966988554
 20
103.69398466474451
 30
0.0
  0
VERTEX
  5
3C84
  8
0
 10
97.930104103915554
 20
103.4749990624849
 30
0.0
  0
VERTEX
  5
3C85
  8
0
 10
98.067293507091861
 20
103.3286771101419
 30
0.0
  0
VERTEX
  5
3C86
  8
0
 10
98.232858446471553
 20
103.2772960437003
 30
0.0
  0
VERTEX
  5
3C87
  8
0
 10
98.402406652502904
 20
103.3286771101419
 30
0.0
  0
VERTEX
  5
3C88
  8
0
 10
98.549210098616982
 20
103.4749990624849
 30
0.0
  0
VERTEX
  5
3C89
  8
0
 10
98.648846712939587
 20
103.69398466474451
 30
0.0
  0
VERTEX
  5
3C8A
  8
0
 10
98.684125212066064
 20
103.9522962940399
 30
0.0
  0
SEQEND
  5
3C8B
  8
0
  0
POLYLINE
  5
2FDD
  8
0
 66
     1
 10
0.0
 20
0.0
 30
0.0
 70
   128
  0
VERTEX
  5
3C8C
  8
0
 10
96.285152812533227
 20
105.75228578574099
 30
0.0
  0
VERTEX
  5
3C8D
  8
0
 10
96.071316492788696
 20
105.6409703863325
 30
0.0
  0
VERTEX
  5
3C8E
  8
0
 10
95.907906633846636
 20
105.32394073135291
 30
0.0
  0
VERTEX
  5
3C8F
  8
0
 10
95.807988760106426
 20
104.8494709951345
 30
0.0
  0
VERTEX
  5
3C90
  8
0
 10
95.774678145580154
 20
104.28979641920959
 30
0.0
  0
SEQEND
  5
3C91
  8
0
  0
LINE
  5
2FDE
  8
0
 10
95.774678145580154
 20
104.28979641920959
 30
0.0
 11
95.774678145580154
 21
102.1522956264678
 31
0.0
  0
LINE
  5
2FDF
  8
0
 10
96.425010454885864
 20
102.93979591853061
 30
0.0
 11
96.425010454885864
 21
102.1522956264678
 31
0.0
  0
LINE
  5
2FE0
  8
0
 10
96.425010454885864
 20
103.8397962523166
 30
0.0
 11
96.425010454885864
 21
104.28979641920959
 31
0.0
  0
POLYLINE
  5
2FE1
  8
0
 66
     1
 10
0.0
 20
0.0
 30
0.0
 70
   128
  0
VERTEX
  5
3C92
  8
0
 10
96.425010454885864
 20
104.28979641920959
 30
0.0
  0
VERTEX
  5
3C93
  8
0
 10
96.413998496763611
 20
104.4189354700509
 30
0.0
  0
VERTEX
  5
3C94
  8
0
 10
96.383281615607586
 20
104.5282820535365
 30
0.0
  0
VERTEX
  5
3C95
  8
0
 10
96.337853563063035
 20
104.6014579308692
 30
0.0
  0
VERTEX
  5
3C96
  8
0
 10
96.285253395371299
 20
104.6272965443794
 30
0.0
  0
SEQEND
  5
3C97
  8
0
  0
LINE
  5
2FE2
  8
0
 10
96.406925101809364
 20
103.8397962523166
 30
0.0
 11
96.406925101809364
 21
104.28979641920959
 31
0.0
  0
LINE
  5
2FE3
  8
0
 10
96.406925101809364
 20
103.8397962523166
 30
0.0
 11
96.134985429279695
 21
103.8397962523166
 31
0.0
  0
LINE
  5
2FE4
  8
0
 10
96.134985429279695
 20
104.28979641920959
 30
0.0
 11
96.134985429279695
 21
103.8397962523166
 31
0.0
  0
POLYLINE
  5
2FE5
  8
0
 66
     1
 10
0.0
 20
0.0
 30
0.0
 70
   128
  0
VERTEX
  5
3C98
  8
0
 10
96.406925101809364
 20
104.28979641920959
 30
0.0
  0
VERTEX
  5
3C99
  8
0
 10
96.395881478719573
 20
104.4190211517278
 30
0.0
  0
VERTEX
  5
3C9A
  8
0
 10
96.365091954402786
 20
104.5283733231489
 30
0.0
  0
VERTEX
  5
3C9B
  8
0
 10
96.319598709278011
 20
104.6014914584819
 30
0.0
  0
VERTEX
  5
3C9C
  8
0
 10
96.266951044134984
 20
104.6272965443794
 30
0.0
  0
VERTEX
  5
3C9D
  8
0
 10
96.21560629927383
 20
104.60177271789939
 30
0.0
  0
VERTEX
  5
3C9E
  8
0
 10
96.172932167582417
 20
104.52888741321
 30
0.0
  0
VERTEX
  5
3C9F
  8
0
 10
96.144754071764851
 20
104.418911255664
 30
0.0
  0
VERTEX
  5
3CA0
  8
0
 10
96.134985429279695
 20
104.28979641920959
 30
0.0
  0
SEQEND
  5
3CA1
  8
0
  0
LINE
  5
2FE6
  8
0
 10
96.406925101809364
 20
103.8397962523166
 30
0.0
 11
96.425010454885864
 21
103.8397962523166
 31
0.0
  0
LINE
  5
2FE7
  8
0
 10
96.425010454885864
 20
102.93979591853061
 30
0.0
 11
96.406925101809364
 21
102.93979591853061
 31
0.0
  0
POLYLINE
  5
2FE8
  8
0
 66
     1
 10
0.0
 20
0.0
 30
0.0
 70
   128
  0
VERTEX
  5
3CA2
  8
0
 10
95.350555707745428
 20
105.7389622849885
 30
0.0
  0
VERTEX
  5
3CA3
  8
0
 10
95.32720465683208
 20
105.7443248403732
 30
0.0
  0
VERTEX
  5
3CA4
  8
0
 10
95.279001263015132
 20
105.6459715885583
 30
0.0
  0
VERTEX
  5
3CA5
  8
0
 10
95.246229884259563
 20
105.4425781888429
 30
0.0
  0
SEQEND
  5
3CA6
  8
0
  0
LINE
  5
2FE9
  8
0
 10
95.226293061904769
 20
105.4425781888429
 30
0.0
 11
95.246229884259563
 21
105.4425781888429
 31
0.0
  0
LINE
  5
2FEA
  8
0
 10
95.40381618314251
 20
104.28979641920959
 30
0.0
 11
95.40381618314251
 21
102.1522956264678
 31
0.0
  0
ARC
  5
2FEB
  8
0
 10
94.824311861800112
 20
104.3689679253819
 30
0.0
 40
0.5848874984508961
 50
352.22045039074737
 51
26.20961368387681
  0
LINE
  5
2FEC
  8
0
 10
95.214039650790554
 20
104.28979641920959
 30
0.0
 11
95.214039650790554
 21
102.1522956264678
 31
0.0
  0
POLYLINE
  5
2FED
  8
0
 66
     1
 10
0.0
 20
0.0
 30
0.0
 70
   128
  0
VERTEX
  5
3CA7
  8
0
 10
95.206184876196275
 20
104.6049187255565
 30
0.0
  0
VERTEX
  5
3CA8
  8
0
 10
95.206607696645122
 20
104.6272965443794
 30
0.0
  0
VERTEX
  5
3CA9
  8
0
 10
95.208398629956136
 20
104.60160507983601
 30
0.0
  0
VERTEX
  5
3CAA
  8
0
 10
95.210939277939687
 20
104.5284441036645
 30
0.0
  0
VERTEX
  5
3CAB
  8
0
 10
95.213160482280145
 20
104.4189522338573
 30
0.0
  0
VERTEX
  5
3CAC
  8
0
 10
95.214039650790554
 20
104.28979641920959
 30
0.0
  0
SEQEND
  5
3CAD
  8
0
  0
ARC
  5
2FEE
  8
0
 10
192.87213599441151
 20
-136.5597902671565
 30
0.0
 40
265.99761867448711
 50
107.47695897619511
 51
111.3089823262459
  0
LINE
  5
2FEF
  8
0
 10
100.4703497561143
 20
100.752296142048
 30
0.0
 11
94.936111574106107
 21
100.752296142048
 31
0.0
  0
ARC
  5
2FF0
  8
0
 10
100.32614506500219
 20
102.6216876588137
 30
0.0
 40
1.874945235438759
 50
274.4110556216396
 51
3.9944628411836631
  0
LINE
  5
2FF1
  8
0
 10
102.19653565906749
 20
105.15229611820619
 30
0.0
 11
102.19653565906749
 21
102.7522964698736
 31
0.0
  0
ARC
  5
2FF2
  8
0
 10
100.2832620005307
 20
105.2458928646496
 30
0.0
 40
1.915561652204292
 50
357.19934115690961
 51
84.395140380269893
  0
LINE
  5
2FF3
  8
0
 10
100.4703497561143
 20
107.1522964460317
 30
0.0
 11
94.936111574106107
 21
107.1522964460317
 31
0.0
  0
POLYLINE
  5
2FF4
  8
0
 66
     1
 10
0.0
 20
0.0
 30
0.0
 70
   128
  0
VERTEX
  5
3CAE
  8
0
 10
112.98713377215731
 20
117.1587931287948
 30
0.0
  0
VERTEX
  5
3CAF
  8
0
 10
115.4611549387203
 20
117.9245377255145
 30
0.0
  0
VERTEX
  5
3CB0
  8
0
 10
115.7573169144319
 20
118.01444015628731
 30
0.0
  0
SEQEND
  5
3CB1
  8
0
  0
LINE
  5
2FF5
  8
0
 10
117.9708899977134
 20
118.6744908166591
 30
0.0
 11
115.7573169144319
 21
118.01444015628731
 31
0.0
  0
LINE
  5
2FF6
  8
0
 10
117.97045786403881
 20
118.674364156789
 30
0.0
 11
118.1139066862391
 21
118.71641523367801
 31
0.0
  0
ARC
  5
2FF7
  8
0
 10
192.87280590517611
 20
-136.56148320904029
 30
0.0
 40
265.99943316811408
 50
97.617739919868953
 51
106.3228277812606
  0
POLYLINE
  5
2FF8
  8
0
 66
     1
 10
0.0
 20
0.0
 30
0.0
 70
   128
  0
VERTEX
  5
3CB2
  8
0
 10
115.76743573420509
 20
118.0175023449127
 30
0.0
  0
VERTEX
  5
3CB3
  8
0
 10
115.8258138271497
 20
118.0351751220886
 30
0.0
  0
VERTEX
  5
3CB4
  8
0
 10
117.9127158644126
 20
118.6574066353504
 30
0.0
  0
VERTEX
  5
3CB5
  8
0
 10
117.97001548581579
 20
118.67423377162849
 30
0.0
  0
SEQEND
  5
3CB6
  8
0
  0
LINE
  5
2FF9
  8
0
 10
126.82462957971561
 20
84.561723034596824
 30
0.0
 11
126.29101527207359
 21
82.627296430758022
 31
0.0
  0
ARC
  5
2FFA
  8
0
 10
163.91148943603599
 20
50.723812132459358
 30
0.0
 40
64.000127409199436
 50
89.935260090817167
 51
104.76046751516181
  0
ARC
  5
2FFB
  8
0
 10
125.2988587853215
 20
82.75229642517013
 30
0.0
 40
1.0000000000000071
 50
270.0000000000008
 51
352.81924421854001
  0
LINE
  5
2FFC
  8
0
 10
125.2988587853215
 20
81.75229642517013
 30
0.0
 11
95.936111738018852
 21
81.75229652016499
 31
0.0
  0
POLYLINE
  5
2FFD
  8
0
 66
     1
 10
0.0
 20
0.0
 30
0.0
 70
   128
  0
VERTEX
  5
3CB7
  8
0
 10
147.5743182050513
 20
112.6034075689975
 30
0.0
  0
VERTEX
  5
3CB8
  8
0
 10
147.569747273855
 20
112.6021484208766
 30
0.0
  0
VERTEX
  5
3CB9
  8
0
 10
147.45582789652809
 20
112.5693770421211
 30
0.0
  0
SEQEND
  5
3CBA
  8
0
  0
ARC
  5
2FFE
  8
0
 10
148.64957972033679
 20
108.6900595079392
 30
0.0
 40
4.058386681628054
 50
104.7724712692012
 51
105.3622278910958
  0
ARC
  5
2FFF
  8
0
 10
148.2693125332375
 20
109.2997676941127
 30
0.0
 40
3.378741814278206
 50
101.1185958578769
 51
189.41783370708509
  0
ARC
  5
3000
  8
0
 10
167.5503974978167
 20
52.729265936207611
 30
0.0
 40
75.02320927894344
 50
81.47049424614714
 51
83.851163211963055
  0
POLYLINE
  5
3001
  8
0
 66
     1
 10
0.0
 20
0.0
 30
0.0
 70
   128
  0
VERTEX
  5
3CBB
  8
0
 10
178.6311321007536
 20
113.0082199645702
 30
0.0
  0
VERTEX
  5
3CBC
  8
0
 10
178.63812819593409
 20
113.0065659356777
 30
0.0
  0
VERTEX
  5
3CBD
  8
0
 10
178.64256129138931
 20
113.0055154038135
 30
0.0
  0
VERTEX
  5
3CBE
  8
0
 10
178.62755582206711
 20
113.0090656054679
 30
0.0
  0
VERTEX
  5
3CBF
  8
0
 10
178.48043665760011
 20
113.04364002472791
 30
0.0
  0
VERTEX
  5
3CC0
  8
0
 10
178.34593877666461
 20
113.0749287379447
 30
0.0
  0
VERTEX
  5
3CC1
  8
0
 10
178.17074582450849
 20
113.11522892839351
 30
0.0
  0
VERTEX
  5
3CC2
  8
0
 10
177.58536115758881
 20
113.2461319041911
 30
0.0
  0
VERTEX
  5
3CC3
  8
0
 10
176.75266191833481
 20
113.4224536193076
 30
0.0
  0
VERTEX
  5
3CC4
  8
0
 10
175.73492750995621
 20
113.6223154438201
 30
0.0
  0
VERTEX
  5
3CC5
  8
0
 10
174.620253597431
 20
113.8216557276908
 30
0.0
  0
SEQEND
  5
3CC6
  8
0
  0
ARC
  5
3002
  8
0
 10
167.5533351901436
 20
52.753142124150799
 30
0.0
 40
74.999155790577873
 50
83.851440813785956
 51
92.903532303178579
  0
ARC
  5
3003
  8
0
 10
133.23611271851519
 20
81.75229642517013
 30
0.0
 40
7.0
 50
90.0
 51
156.33760717254609
  0
LINE
  5
3004
  8
0
 10
142.93611151450139
 20
88.75229603773991
 30
0.0
 11
133.2361130910443
 21
88.75229603773991
 31
0.0
  0
ARC
  5
3005
  8
0
 10
163.91146259110141
 20
50.723945739231681
 30
0.0
 40
63.999993832850841
 50
80.367682061298893
 51
89.935235922843631
  0
ARC
  5
3006
  8
0
 10
167.55317597277531
 20
52.753831422166677
 30
0.0
 40
74.998459312482524
 50
92.903437498170106
 51
97.617806532347686
  0
LINE
  5
3007
  8
0
 10
147.60637432806951
 20
112.6120949459735
 30
0.0
 11
147.5744299637602
 21
112.6034410966102
 31
0.0
  0
ARC
  5
3008
  8
0
 10
142.93609488839849
 20
90.752312991668333
 30
0.0
 40
2.0000169539975561
 50
270.00047629872643
 51
359.99952370127528
  0
LINE
  5
3009
  8
0
 10
99.436111380391026
 20
117.7522952032749
 30
0.0
 11
114.9341939995514
 21
117.7522952032749
 31
0.0
  0
LINE
  5
300A
  8
0
 10
113.936111894481
 20
79.752296425170101
 30
0.0
 11
101.9361117901729
 21
79.752296425170101
 31
0.0
  0
LINE
  5
300B
  8
0
 10
101.4361117082165
 20
80.252296448918813
 30
0.0
 11
114.4361119764374
 21
80.252296448918813
 31
0.0
  0
LINE
  5
300C
  8
0
 10
139.38611150258049
 20
46.836497856656067
 30
0.0
 11
139.38611150258049
 21
45.39312213973885
 31
0.0
  0
LINE
  5
300D
  8
0
 10
139.38611150258049
 20
45.39312213973885
 30
0.0
 11
140.6361103104876
 21
44.671434281280241
 31
0.0
  0
LINE
  5
300E
  8
0
 10
140.6361103104876
 20
44.671434281280241
 30
0.0
 11
141.886112843685
 21
45.39312213973885
 31
0.0
  0
LINE
  5
300F
  8
0
 10
141.886112843685
 20
45.39312213973885
 30
0.0
 11
141.886112843685
 21
46.836497856656067
 31
0.0
  0
LINE
  5
3010
  8
0
 10
141.886112843685
 20
46.836497856656067
 30
0.0
 11
140.6361103104876
 21
47.558185715114682
 31
0.0
  0
LINE
  5
3011
  8
0
 10
140.6361103104876
 20
47.558185715114682
 30
0.0
 11
139.38611150258049
 21
46.836497856656067
 31
0.0
  0
ARC
  5
3012
  8
0
 10
122.8609233989263
 20
28.61480999819749
 30
0.0
 40
10.0
 50
93.600801403373126
 51
130.45908308078941
  0
ARC
  5
3013
  8
0
 10
121.9845014326703
 20
42.593877373021833
 30
0.0
 40
4.0065151669886081
 50
273.55422898377037
 51
359.9399050832709
  0
ARC
  5
3014
  8
0
 10
107.93611184232699
 20
46.114809998197487
 30
0.0
 40
13.0
 50
49.540916919210602
 51
310.45908308079009
  0
ARC
  5
3015
  8
0
 10
121.986393363345
 20
49.637522556596913
 30
0.0
 40
4.004621765145842
 50
0.0346570803083472
 51
86.471208852651927
  0
ARC
  5
3016
  8
0
 10
122.8609233989263
 20
63.614809998197501
 30
0.0
 40
10.000000000000011
 50
229.54091691921121
 51
266.39919859663229
  0
POLYLINE
  5
3017
  8
0
 66
     1
 10
0.0
 20
0.0
 30
0.0
 70
   128
  0
VERTEX
  5
3CC7
  8
0
 10
122.23287821286191
 20
53.634551540834849
 30
0.0
  0
VERTEX
  5
3CC8
  8
0
 10
122.443276089661
 20
53.623535391760981
 30
0.0
  0
VERTEX
  5
3CC9
  8
0
 10
122.86092304163439
 20
53.614809830559402
 30
0.0
  0
SEQEND
  5
3CCA
  8
0
  0
POLYLINE
  5
3018
  8
0
 66
     1
 10
0.0
 20
0.0
 30
0.0
 70
   128
  0
VERTEX
  5
3CCB
  8
0
 10
122.86092304163439
 20
38.614810165835529
 30
0.0
  0
VERTEX
  5
3CCC
  8
0
 10
122.4477157043742
 20
38.606269472165017
 30
0.0
  0
VERTEX
  5
3CCD
  8
0
 10
122.23287821286191
 20
38.595068455560131
 30
0.0
  0
SEQEND
  5
3CCE
  8
0
  0
LINE
  5
3019
  8
0
 10
132.936112214856
 20
38.614810165835507
 30
0.0
 11
122.86092304163439
 21
38.614810165835529
 31
0.0
  0
LINE
  5
301A
  8
0
 10
122.86092304163439
 20
53.614809830559402
 30
0.0
 11
132.936112214856
 21
53.614809830559388
 31
0.0
  0
LINE
  5
301B
  8
0
 10
143.9361126648711
 20
38.614810165835507
 30
0.0
 11
132.936112214856
 21
38.614810165835507
 31
0.0
  0
LINE
  5
301C
  8
0
 10
144.9361109661387
 20
51.85087788931834
 30
0.0
 11
144.9361109661387
 21
40.378742107076548
 31
0.0
  0
LINE
  5
301D
  8
0
 10
132.936112214856
 20
53.614809830559388
 30
0.0
 11
143.9361126648711
 21
53.614809830559388
 31
0.0
  0
LINE
  5
301E
  8
0
 10
144.9361109661387
 20
40.378742107076548
 30
0.0
 11
144.9361109661387
 21
39.614809864087
 31
0.0
  0
ARC
  5
301F
  8
0
 10
143.93611184232699
 20
39.61480999819743
 30
0.0
 40
1.0000000000000271
 50
270.0
 51
0.0
  0
ARC
  5
3020
  8
0
 10
143.93611184232699
 20
52.614809998197437
 30
0.0
 40
1.0000000000000271
 50
0.0
 51
90.0
  0
LINE
  5
3021
  8
0
 10
144.9361109661387
 20
52.614810132307888
 30
0.0
 11
144.9361109661387
 21
51.85087788931834
 31
0.0
  0
POLYLINE
  5
3022
  8
0
 66
     1
 10
0.0
 20
0.0
 30
0.0
 70
   128
  0
VERTEX
  5
3CCF
  8
0
 10
114.6153547848092
 20
57.267734036667221
 30
0.0
  0
VERTEX
  5
3CD0
  8
0
 10
116.63534082942471
 20
56.345393136961349
 30
0.0
  0
VERTEX
  5
3CD1
  8
0
 10
118.9022591384575
 20
55.883179605824822
 30
0.0
  0
SEQEND
  5
3CD2
  8
0
  0
POLYLINE
  5
3023
  8
0
 66
     1
 10
0.0
 20
0.0
 30
0.0
 70
   128
  0
VERTEX
  5
3CD3
  8
0
 10
118.9022591384575
 20
36.346440390570038
 30
0.0
  0
VERTEX
  5
3CD4
  8
0
 10
116.68596845590341
 20
35.900690779907592
 30
0.0
  0
VERTEX
  5
3CD5
  8
0
 10
114.6153547848092
 20
34.961885959727653
 30
0.0
  0
SEQEND
  5
3CD6
  8
0
  0
POLYLINE
  5
3024
  8
0
 66
     1
 10
0.0
 20
0.0
 30
0.0
 70
   128
  0
VERTEX
  5
3CD7
  8
0
 10
118.9022591384575
 20
55.883179605824822
 30
0.0
  0
VERTEX
  5
3CD8
  8
0
 10
123.6085273372458
 20
55.495270714981402
 30
0.0
  0
VERTEX
  5
3CD9
  8
0
 10
128.66148502104741
 20
55.110015162153083
 30
0.0
  0
VERTEX
  5
3CDA
  8
0
 10
134.0054176794813
 20
54.737709649724792
 30
0.0
  0
SEQEND
  5
3CDB
  8
0
  0
POLYLINE
  5
3025
  8
0
 66
     1
 10
0.0
 20
0.0
 30
0.0
 70
   128
  0
VERTEX
  5
3CDC
  8
0
 10
133.9945305185841
 20
37.491188571674662
 30
0.0
  0
VERTEX
  5
3CDD
  8
0
 10
128.6170870112704
 20
37.116360106391753
 30
0.0
  0
VERTEX
  5
3CDE
  8
0
 10
123.57421182566149
 20
36.731622368914948
 30
0.0
  0
VERTEX
  5
3CDF
  8
0
 10
118.9022591384575
 20
36.346440390570038
 30
0.0
  0
SEQEND
  5
3CE0
  8
0
  0
POLYLINE
  5
3026
  8
0
 66
     1
 10
0.0
 20
0.0
 30
0.0
 70
   128
  0
VERTEX
  5
3CE1
  8
0
 10
144.40274760597211
 20
38.112966530842598
 30
0.0
  0
VERTEX
  5
3CE2
  8
0
 10
139.08354901247489
 20
37.8122750677894
 30
0.0
  0
VERTEX
  5
3CE3
  8
0
 10
133.9945305185841
 20
37.491188571674662
 30
0.0
  0
SEQEND
  5
3CE4
  8
0
  0
POLYLINE
  5
3027
  8
0
 66
     1
 10
0.0
 20
0.0
 30
0.0
 70
   128
  0
VERTEX
  5
3CE5
  8
0
 10
134.0056765871571
 20
54.737692885918463
 30
0.0
  0
VERTEX
  5
3CE6
  8
0
 10
139.073403184347
 20
54.417952150924052
 30
0.0
  0
VERTEX
  5
3CE7
  8
0
 10
144.4027736830042
 20
54.116652534229601
 30
0.0
  0
SEQEND
  5
3CE8
  8
0
  0
LINE
  5
3028
  8
0
 10
143.93669087261139
 20
38.614810165835451
 30
0.0
 11
143.9361126648711
 21
38.614810165835451
 31
0.0
  0
LINE
  5
3029
  8
0
 10
143.63611266487109
 20
53.614809830559317
 30
0.0
 11
143.6366908727833
 21
53.614809830559317
 31
0.0
  0
POLYLINE
  5
302A
  8
0
 66
     1
 10
0.0
 20
0.0
 30
0.0
 70
   128
  0
VERTEX
  5
3CE9
  8
0
 10
147.29511887305239
 20
38.261504099590603
 30
0.0
  0
VERTEX
  5
3CEA
  8
0
 10
146.5897873091028
 20
38.2262535401414
 30
0.0
  0
VERTEX
  5
3CEB
  8
0
 10
145.8365187095927
 20
38.187914715034779
 30
0.0
  0
VERTEX
  5
3CEC
  8
0
 10
145.12690306179979
 20
38.151144237143811
 30
0.0
  0
VERTEX
  5
3CED
  8
0
 10
144.40274760597211
 20
38.112966530842598
 30
0.0
  0
SEQEND
  5
3CEE
  8
0
  0
POLYLINE
  5
302B
  8
0
 66
     1
 10
0.0
 20
0.0
 30
0.0
 70
   128
  0
VERTEX
  5
3CEF
  8
0
 10
144.4027736830042
 20
54.116652534229601
 30
0.0
  0
VERTEX
  5
3CF0
  8
0
 10
145.33667415850621
 20
54.067540169579807
 30
0.0
  0
VERTEX
  5
3CF1
  8
0
 10
146.34324759715059
 20
54.015835934204901
 30
0.0
  0
VERTEX
  5
3CF2
  8
0
 10
147.29435518854109
 20
53.968154081029716
 30
0.0
  0
SEQEND
  5
3CF3
  8
0
  0
POLYLINE
  5
302C
  8
0
 66
     1
 10
0.0
 20
0.0
 30
0.0
 70
   128
  0
VERTEX
  5
3CF4
  8
0
 10
164.04298469894391
 20
38.914633636249107
 30
0.0
  0
VERTEX
  5
3CF5
  8
0
 10
159.79982689493161
 20
38.78251714713673
 30
0.0
  0
VERTEX
  5
3CF6
  8
0
 10
155.5962577509211
 20
38.629320171547931
 30
0.0
  0
VERTEX
  5
3CF7
  8
0
 10
151.17174163930881
 20
38.444066141618322
 30
0.0
  0
VERTEX
  5
3CF8
  8
0
 10
147.29511514776209
 20
38.261504099590603
 30
0.0
  0
SEQEND
  5
3CF9
  8
0
  0
POLYLINE
  5
302D
  8
0
 66
     1
 10
0.0
 20
0.0
 30
0.0
 70
   128
  0
VERTEX
  5
3CFA
  8
0
 10
147.2943626391218
 20
53.968153149707128
 30
0.0
  0
VERTEX
  5
3CFB
  8
0
 10
151.3084597932623
 20
53.779460676832031
 30
0.0
  0
VERTEX
  5
3CFC
  8
0
 10
155.6054443167971
 20
53.599940799994272
 30
0.0
  0
VERTEX
  5
3CFD
  8
0
 10
159.8017975734995
 20
53.447036259693903
 30
0.0
  0
VERTEX
  5
3CFE
  8
0
 10
164.04298469894391
 20
53.31498636014561
 30
0.0
  0
SEQEND
  5
3CFF
  8
0
  0
ARC
  5
302E
  8
0
 10
175.43611130855101
 20
46.114809998197352
 30
0.0
 40
7.5000002290525041
 50
265.4396457782882
 51
94.560354221712629
  0
ARC
  5
302F
  8
0
 10
166.88890526831139
 20
-61.044778586911143
 30
0.0
 40
99.999916779399527
 50
85.439659983003935
 51
91.630813922309045
  0
ARC
  5
3030
  8
0
 10
166.88891239783979
 20
153.27411976490541
 30
0.0
 40
99.999638276835441
 50
268.36917744800093
 51
274.56034864668783
  0
LINE
  5
3031
  8
0
 10
125.9910143958853
 20
49.639944872705271
 30
0.0
 11
125.9910143958853
 21
42.589675123689737
 31
0.0
  0
POLYLINE
  5
3032
  8
0
 66
     1
 10
0.0
 20
0.0
 30
0.0
 70
   128
  0
VERTEX
  5
3D00
  8
0
 10
240.95457961441889
 20
124.4107689356501
 30
0.0
  0
VERTEX
  5
3D01
  8
0
 10
240.83144851591231
 20
123.2029760552112
 30
0.0
  0
SEQEND
  5
3D02
  8
0
  0
POLYLINE
  5
3033
  8
0
 66
     1
 10
0.0
 20
0.0
 30
0.0
 70
   128
  0
VERTEX
  5
3D03
  8
0
 10
255.55399976351259
 20
124.5431740433786
 30
0.0
  0
VERTEX
  5
3D04
  8
0
 10
254.98179980184671
 20
125.7159265053931
 30
0.0
  0
SEQEND
  5
3D05
  8
0
  0
LINE
  5
3034
  8
1
 10
107.93611184232699
 20
63.114809998197487
 30
0.0
 11
107.93611184232699
 21
29.11480999819749
 31
0.0
  0
LINE
  5
3035
  8
1
 10
248.27210866477139
 20
131.75229684240259
 30
0.0
 11
248.27210866477139
 21
75.752296425170059
 31
0.0
  0
LINE
  5
3036
  8
1
 10
186.93611153760349
 20
46.114809998197487
 30
0.0
 11
90.936111842327009
 21
46.114809998197487
 31
0.0
  0
LINE
  5
3037
  8
1
 10
186.93611147360781
 20
185.32586425658411
 30
0.0
 11
90.936112300313695
 21
185.32586425658411
 31
0.0
  0
LINE
  5
3038
  8
1
 10
107.93611184232699
 20
75.752296425170101
 30
0.0
 11
107.93611184232699
 21
121.7522952032749
 31
0.0
  0
LINE
  5
3039
  8
1
 10
107.93611184232699
 20
168.32586438934911
 30
0.0
 11
107.93611184232699
 21
202.325864123819
 31
0.0
  0
LINE
  5
303A
  8
0
 10
260.27210866477151
 20
81.752296425170044
 30
0.0
 11
236.27210866477159
 21
81.752296425170087
 31
0.0
  0
LINE
  5
303B
  8
2
 10
111.93611184232699
 20
79.752296425170101
 30
0.0
 11
111.93611184232699
 21
101.7523383635756
 31
0.0
  0
LINE
  5
303C
  8
2
 10
111.2596118423271
 20
79.752296425170101
 30
0.0
 11
111.2596118423271
 21
101.7523383635756
 31
0.0
  0
LINE
  5
303D
  8
2
 10
104.6126118423269
 20
79.752296425170101
 30
0.0
 11
104.6126118423269
 21
101.7523383635756
 31
0.0
  0
LINE
  5
303E
  8
2
 10
103.93611184232699
 20
79.752296425170101
 30
0.0
 11
103.93611184232699
 21
101.7523383635756
 31
0.0
  0
LINE
  5
303F
  8
2
 10
103.93611184232699
 20
101.7523383635756
 30
0.0
 11
111.93611184232699
 21
101.7523383635756
 31
0.0
  0
LINE
  5
3040
  8
2
 10
54.060948321245363
 20
79.752296425170059
 30
0.0
 11
54.060948321245363
 21
101.7523383635756
 31
0.0
  0
LINE
  5
3041
  8
2
 10
53.384448321245472
 20
79.752296425170059
 30
0.0
 11
53.384448321245472
 21
101.7523383635756
 31
0.0
  0
LINE
  5
3042
  8
2
 10
46.737448321245253
 20
79.752296425170059
 30
0.0
 11
46.737448321245253
 21
101.7523383635756
 31
0.0
  0
LINE
  5
3043
  8
2
 10
46.060948321245363
 20
79.752296425170059
 30
0.0
 11
46.060948321245363
 21
101.7523383635756
 31
0.0
  0
LINE
  5
3044
  8
2
 10
46.060948321245363
 20
101.7523383635756
 30
0.0
 11
54.060948321245363
 21
101.7523383635756
 31
0.0
  0
LINE
  5
3045
  8
2
 10
252.27210866477139
 20
79.752296425170059
 30
0.0
 11
252.27210866477139
 21
101.7523383635756
 31
0.0
  0
LINE
  5
3046
  8
2
 10
251.5956086647715
 20
79.752296425170059
 30
0.0
 11
251.5956086647715
 21
101.7523383635756
 31
0.0
  0
LINE
  5
3047
  8
2
 10
244.94860866477131
 20
79.752296425170059
 30
0.0
 11
244.94860866477131
 21
101.7523383635756
 31
0.0
  0
LINE
  5
3048
  8
2
 10
244.27210866477139
 20
79.752296425170059
 30
0.0
 11
244.27210866477139
 21
101.7523383635756
 31
0.0
  0
LINE
  5
3049
  8
2
 10
244.27210866477139
 20
101.7523383635756
 30
0.0
 11
252.27210866477139
 21
101.7523383635756
 31
0.0
  0
LINE
  5
304A
  8
0
 10
144.93611184232699
 20
90.752296365565485
 30
0.0
 11
144.93611184232699
 21
108.7468939276293
 31
0.0
  0
INSERT
  5
304B
  8
0
  6
CONTINUOUS
 62
     7
  2
*X4
 10
0.0
 20
0.0
 30
0.0
1001
ACAD
1000
HATCH
1002
{
1070
    19
1000
ANSI31
1040
1.0
1040
0.0
1000
R14_HATCH_DATA
1000
304B
1011
1.0
1021
0.0
1031
0.0
1021
0.0
1031
0.0
1011
0.0
1021
0.0
1031
0.0
1021
1.0
1031
0.0
1011
0.0
1021
0.0
1031
0.0
1021
0.0
1031
1.0
1040
0.0
1010
0.0
1020
0.0
1030
1.0
1000
ANSI31
1070
     0
1070
     0
1071
        1
1071
        0
1071
        4
1070
     1
1040
625.82197813904065
1040
185.12338523102281
1040
625.82197813904065
1040
184.12338523102281
1070
     1
1040
625.82197813904065
1040
184.12338523102281
1040
628.12197813904072
1040
184.12338523102281
1070
     1
1040
628.12197813904072
1040
184.12338523102281
1040
628.12197813904072
1040
185.12338523102281
1070
     1
1040
628.12197813904072
1040
185.12338523102281
1040
625.82197813904065
1040
185.12338523102281
1071
        0
1070
     0
1070
     1
1040
0.0
1040
1.0
1070
     0
1070
     1
1040
0.7853981633974483
1040
315.75622743682311
1040
113.8613718411552
1040
-2.2450640302672871
1040
2.2450640302672871
1070
     0
1071
        1
1040
315.75622743682311
1040
113.8613718411552
1040
0.0
1002
}
  0
ARC
  5
304C
  8
0
  6
CONTINUOUS
 62
     7
 10
107.93611184232699
 20
46.114809998197487
 30
0.0
 40
8.5
 50
96.756327030587812
 51
83.243672969412174
  0
CIRCLE
  5
304D
  8
0
  6
CONTINUOUS
 62
     7
 10
107.93611184232699
 20
46.114809998197487
 30
0.0
 40
9.0
  0
CIRCLE
  5
304E
  8
0
  6
CONTINUOUS
 62
     7
 10
107.93611184232699
 20
46.114809998197487
 30
0.0
 40
6.0000000000000142
  0
CIRCLE
  5
304F
  8
0
  6
CONTINUOUS
 62
     7
 10
107.93611184232699
 20
46.114809998197487
 30
0.0
 40
6.5
  0
CIRCLE
  5
3050
  8
0
  6
CONTINUOUS
 62
     7
 10
107.93611184232699
 20
46.114809998197487
 30
0.0
 40
4.6000000000000068
  0
CIRCLE
  5
3051
  8
0
  6
CONTINUOUS
 62
     7
 10
110.18611184232699
 20
53.11195227201182
 30
0.0
 40
0.5999999999999801
  0
LINE
  5
3052
  8
0
  6
CONTINUOUS
 62
     7
 10
108.9361118898244
 20
52.53742607392185
 30
0.0
 11
108.9361118898244
 21
54.555781372709198
 31
0.0
  0
LINE
  5
3053
  8
0
  6
CONTINUOUS
 62
     7
 10
106.9361117948295
 20
54.555781372709198
 30
0.0
 11
106.9361117948295
 21
52.53742607392185
 31
0.0
  0
CIRCLE
  5
3054
  8
0
  6
CONTINUOUS
 62
     7
 10
105.68611184232699
 20
53.11195227201182
 30
0.0
 40
0.6000000000000088
  0
CIRCLE
  5
3055
  8
3
 10
107.93611184232699
 20
46.114809998197487
 30
0.0
 40
4.0
  0
CIRCLE
  5
3056
  8
0
 10
107.93611184232699
 20
46.114809998197487
 30
0.0
 40
3.3235000000000001
  0
LINE
  5
3057
  8
1
 10
140.63611184232701
 20
53.014809998197443
 30
0.0
 11
140.63611184232701
 21
39.214809998197481
 31
0.0
  0
LINE
  5
3058
  8
1
 10
238.27210866477139
 20
100.00229642517
 30
0.0
 11
258.27210866477139
 21
100.00229642517
 31
0.0
  0
CIRCLE
  5
3059
  8
0
 10
140.63611184232701
 20
46.114809998197458
 30
0.0
 40
2.8999999999999839
  0
CIRCLE
  5
305A
  8
3
 10
140.63611184232701
 20
46.114809998197458
 30
0.0
 40
2.0670000000001991
  0
CIRCLE
  5
305B
  8
0
 10
140.63611184232701
 20
46.114809998197458
 30
0.0
 40
2.5
  0
CIRCLE
  5
305C
  8
3
 10
248.27210866477139
 20
100.00229642517
 30
0.0
 40
5.0530000000000239
  0
CIRCLE
  5
305D
  8
0
 10
248.27210866477139
 20
100.00229642517
 30
0.0
 40
6.0000000000000071
  0
CIRCLE
  5
305E
  8
3
 10
-42.766987565182532
 20
52.509987966305637
 30
0.0
 40
2.0670000000001991
  0
CIRCLE
  5
305F
  8
0
 10
-42.766987565182532
 20
52.509987966305637
 30
0.0
 40
2.5
  0
CIRCLE
  5
3060
  8
3
 10
-49.508428600080322
 20
72.416456077015624
 30
0.0
 40
5.0530000000000239
  0
CIRCLE
  5
3061
  8
0
 10
-49.508428600080322
 20
72.41645607701561
 30
0.0
 40
6.0000000000000071
  0
ENDBLK
  5
308D
  8
0
  0
BLOCK
  8
0
  2
*X3
 70
     1
 10
0.0
 20
0.0
 30
0.0
  3
*X3
  1

  0
ENDBLK
  5
3654
  8
0
  0
BLOCK
  8
0
  2
*X4
 70
     1
 10
0.0
 20
0.0
 30
0.0
  3
*X4
  1

  0
ENDBLK
  5
377C
  8
0
  0
BLOCK
  8
0
  2
RAB-M5X10B
 70
     0
 10
0.0
 20
0.0
 30
0.0
  3
RAB-M5X10B
  1

  0
LINE
  5
3064
  8
3
 10
2.4000000000000039
 20
-2.067000000000192
 30
0.0
 11
1.650022000323061
 21
-2.499999999999984
 31
0.0
  0
LINE
  5
3065
  8
0
 10
9.0999999999999641
 20
2.4999999999999711
 30
0.0
 11
9.0999999999999641
 21
-2.500000000000028
 31
0.0
  0
LINE
  5
3066
  8
0
 10
10.0
 20
-1.6000000000000221
 30
0.0
 11
9.0999999999999943
 21
-2.500000000000028
 31
0.0
  0
LINE
  5
3067
  8
0
 10
9.0999999999999943
 20
2.499999999999984
 30
0.0
 11
10.0
 21
1.5999999999999801
 31
0.0
  0
LINE
  5
3068
  8
3
 10
2.4000000000000039
 20
2.067000000000192
 30
0.0
 11
1.650022000323061
 21
2.499999999999984
 31
0.0
  0
LINE
  5
3069
  8
0
 10
2.4000000000000039
 20
2.499999999999984
 30
0.0
 11
2.4000000000000039
 21
-2.5000000000000142
 31
0.0
  0
LINE
  5
306A
  8
0
 10
10.0
 20
1.5999999999999801
 30
0.0
 11
10.0
 21
-1.6000000000000221
 31
0.0
  0
LINE
  5
306B
  8
0
 10
0.0
 20
2.499999999999984
 30
0.0
 11
9.0999999999999943
 21
2.499999999999984
 31
0.0
  0
LINE
  5
306C
  8
3
 10
2.3999999999999901
 20
2.067000000000192
 30
0.0
 11
9.5329999999997597
 21
2.067000000000176
 31
0.0
  0
LINE
  5
306D
  8
3
 10
2.4000000000000039
 20
-2.0670000000002049
 30
0.0
 11
9.5329999999998023
 21
-2.0670000000002191
 31
0.0
  0
LINE
  5
306E
  8
0
 10
0.0
 20
-2.5000000000000142
 30
0.0
 11
9.0999999999999943
 21
-2.500000000000028
 31
0.0
  0
LINE
  5
306F
  8
0
 10
-4.7000000000000171
 20
-4.249999999999984
 30
0.0
 11
-5.0
 21
-3.7303847577293809
 31
0.0
  0
LINE
  5
3070
  8
0
 10
-4.6999999999999869
 20
4.25
 30
0.0
 11
-5.0
 21
3.730384757729325
 31
0.0
  0
LINE
  5
3071
  8
0
 10
-4.6999999999999869
 20
-4.25
 30
0.0
 11
-4.7000000000000011
 21
4.2500000000000142
 31
0.0
  0
LINE
  5
3072
  8
0
 10
-5.0
 20
-3.7303847577293809
 30
0.0
 11
-5.0
 21
3.730384757729325
 31
0.0
  0
LINE
  5
3073
  8
0
 10
0.0
 20
-4.25
 30
0.0
 11
-4.6999999999999869
 21
-4.25
 31
0.0
  0
LINE
  5
3074
  8
0
 10
0.0
 20
4.25
 30
0.0
 11
0.0
 21
-4.25
 31
0.0
  0
LINE
  5
3075
  8
0
 10
-4.7000000000000011
 20
4.2500000000000142
 30
0.0
 11
0.0
 21
4.25
 31
0.0
  0
ENDBLK
  5
3076
  8
0
  0
BLOCK
  8
0
  2
RAB-M12X20B
 70
     0
 10
0.0
 20
0.0
 30
0.0
  3
RAB-M12X20B
  1

  0
LINE
  5
3079
  8
3
 10
5.25
 20
-5.0530000000000239
 30
0.0
 11
3.6097478852322791
 21
-6.0000000000000142
 31
0.0
  0
LINE
  5
307A
  8
3
 10
5.25
 20
5.0530000000000239
 30
0.0
 11
3.6097478852322791
 21
6.0000000000000142
 31
0.0
  0
LINE
  5
307B
  8
0
 10
5.25
 20
-6.0000000000000284
 30
0.0
 11
5.25
 21
6.0000000000000284
 31
0.0
  0
LINE
  5
307C
  8
0
 10
18.000000000000021
 20
5.999999999999984
 30
0.0
 11
17.999999999999918
 21
-6.0000000000000409
 31
0.0
  0
LINE
  5
307D
  8
0
 10
19.999999999999961
 20
-4.0000000000000284
 30
0.0
 11
17.999999999999918
 21
-6.0000000000000284
 31
0.0
  0
LINE
  5
307E
  8
0
 10
20.00000000000006
 20
3.9999999999999711
 30
0.0
 11
18.000000000000071
 21
5.9999999999999698
 31
0.0
  0
LINE
  5
307F
  8
0
 10
0.0
 20
5.999999999999984
 30
0.0
 11
18.000000000000071
 21
5.9999999999999698
 31
0.0
  0
LINE
  5
3080
  8
3
 10
5.25
 20
5.0530000000000239
 30
0.0
 11
18.946999999999999
 21
5.0530000000000097
 31
0.0
  0
LINE
  5
3081
  8
3
 10
5.25
 20
-5.0530000000000541
 30
0.0
 11
18.946999999999921
 21
-5.053000000000039
 31
0.0
  0
LINE
  5
3082
  8
0
 10
0.0
 20
-6.0000000000000142
 30
0.0
 11
17.999999999999918
 21
-6.0000000000000284
 31
0.0
  0
LINE
  5
3083
  8
0
 10
20.00000000000006
 20
3.9999999999999711
 30
0.0
 11
19.999999999999961
 21
-4.0000000000000284
 31
0.0
  0
LINE
  5
3084
  8
0
 10
-11.30000000000004
 20
-8.9999999999999876
 30
0.0
 11
-12.0
 21
-7.787564434701804
 31
0.0
  0
LINE
  5
3085
  8
0
 10
-11.30000000000001
 20
9.0
 30
0.0
 11
-12.0
 21
7.787564434701804
 31
0.0
  0
LINE
  5
3086
  8
0
 10
-11.30000000000001
 20
-9.0
 30
0.0
 11
-11.30000000000002
 21
9.0000000000000142
 31
0.0
  0
LINE
  5
3087
  8
0
 10
-12.0
 20
-7.787564434701804
 30
0.0
 11
-12.0
 21
7.787564434701804
 31
0.0
  0
LINE
  5
3088
  8
0
 10
0.0
 20
-9.0
 30
0.0
 11
-11.30000000000001
 21
-9.0
 31
0.0
  0
LINE
  5
3089
  8
0
 10
0.0
 20
9.0
 30
0.0
 11
0.0
 21
-9.0
 31
0.0
  0
LINE
  5
308A
  8
0
 10
-11.30000000000001
 20
9.0
 30
0.0
 11
0.0
 21
9.0
 31
0.0
  0
ENDBLK
  5
308B
  8
0
  0
BLOCK
  8
0
  2
ATCL8貼付け用
 70
     0
 10
0.0
 20
0.0
 30
0.0
  3
ATCL8貼付け用
  1

  0
POLYLINE
  5
32A9
  8
0
  6
CONTINUOUS
 62
     7
 66
     1
 10
0.0
 20
0.0
 30
0.0
 70
   128
  0
VERTEX
  5
3D06
  8
0
  6
CONTINUOUS
 62
     7
 10
43.2606262636521
 20
48.11880898921941
 30
0.0
  0
VERTEX
  5
3D07
  8
0
  6
CONTINUOUS
 62
     7
 10
43.15255838606145
 20
48.498539005212528
 30
0.0
  0
VERTEX
  5
3D08
  8
0
  6
CONTINUOUS
 62
     7
 10
42.996787234876408
 20
48.889131967715961
 30
0.0
  0
VERTEX
  5
3D09
  8
0
  6
CONTINUOUS
 62
     7
 10
42.796176161352648
 20
49.262081955365879
 30
0.0
  0
VERTEX
  5
3D0A
  8
0
  6
CONTINUOUS
 62
     7
 10
42.561323150728001
 20
49.585645769529087
 30
0.0
  0
VERTEX
  5
3D0B
  8
0
  6
CONTINUOUS
 62
     7
 10
42.30930493373063
 20
49.832513307027561
 30
0.0
  0
VERTEX
  5
3D0C
  8
0
  6
CONTINUOUS
 62
     7
 10
42.059790111813811
 20
49.9869452163503
 30
0.0
  0
VERTEX
  5
3D0D
  8
0
  6
CONTINUOUS
 62
     7
 10
41.83022980738069
 20
50.047820185117473
 30
0.0
  0
VERTEX
  5
3D0E
  8
0
  6
CONTINUOUS
 62
     7
 10
41.632405251000179
 20
50.026485447578182
 30
0.0
  0
SEQEND
  5
3D0F
  8
0
  6
CONTINUOUS
 62
     7
  0
LINE
  5
32AA
  8
0
  6
CONTINUOUS
 62
     7
 10
45.01714673984435
 20
25.76482550501083
 30
0.0
 11
45.01714673984435
 21
15.61998877003048
 31
0.0
  0
LINE
  5
32AB
  8
0
  6
CONTINUOUS
 62
     7
 10
43.2606262636521
 20
25.352537383131729
 30
0.0
 11
43.2606262636521
 21
48.11880898921941
 31
0.0
  0
POLYLINE
  5
32AC
  8
0
  6
CONTINUOUS
 62
     7
 66
     1
 10
0.0
 20
0.0
 30
0.0
 70
   128
  0
VERTEX
  5
3D10
  8
0
  6
CONTINUOUS
 62
     7
 10
44.36824168238428
 20
14.61998883894835
 30
0.0
  0
VERTEX
  5
3D11
  8
0
  6
CONTINUOUS
 62
     7
 10
44.494836825613049
 20
14.639203420646529
 30
0.0
  0
VERTEX
  5
3D12
  8
0
  6
CONTINUOUS
 62
     7
 10
44.61656627405074
 20
14.69610932543133
 30
0.0
  0
VERTEX
  5
3D13
  8
0
  6
CONTINUOUS
 62
     7
 10
44.728753391388921
 20
14.78851910940562
 30
0.0
  0
VERTEX
  5
3D14
  8
0
  6
CONTINUOUS
 62
     7
 10
44.827086154107107
 20
14.91288187242303
 30
0.0
  0
VERTEX
  5
3D15
  8
0
  6
CONTINUOUS
 62
     7
 10
44.907786186520113
 20
15.06441853269194
 30
0.0
  0
VERTEX
  5
3D16
  8
0
  6
CONTINUOUS
 62
     7
 10
44.967751253131887
 20
15.23730529732261
 30
0.0
  0
VERTEX
  5
3D17
  8
0
  6
CONTINUOUS
 62
     7
 10
45.004678193215391
 20
15.4248983438984
 30
0.0
  0
VERTEX
  5
3D18
  8
0
  6
CONTINUOUS
 62
     7
 10
45.01714673984435
 20
15.61998877003048
 30
0.0
  0
SEQEND
  5
3D19
  8
0
  6
CONTINUOUS
 62
     7
  0
POLYLINE
  5
32AD
  8
0
  6
CONTINUOUS
 62
     7
 66
     1
 10
0.0
 20
0.0
 30
0.0
 70
   128
  0
VERTEX
  5
3D1A
  8
0
  6
CONTINUOUS
 62
     7
 10
44.995132136825589
 20
26.827003557972649
 30
0.0
  0
VERTEX
  5
3D1B
  8
0
  6
CONTINUOUS
 62
     7
 10
45.821122128252043
 20
27.599199426166759
 30
0.0
  0
VERTEX
  5
3D1C
  8
0
  6
CONTINUOUS
 62
     7
 10
46.938054498020662
 20
28.687378142766701
 30
0.0
  0
VERTEX
  5
3D1D
  8
0
  6
CONTINUOUS
 62
     7
 10
48.094102415923132
 20
29.791362334780441
 30
0.0
  0
SEQEND
  5
3D1E
  8
0
  6
CONTINUOUS
 62
     7
  0
POLYLINE
  5
32AE
  8
0
  6
CONTINUOUS
 62
     7
 66
     1
 10
0.0
 20
0.0
 30
0.0
 70
   128
  0
VERTEX
  5
3D1F
  8
0
  6
CONTINUOUS
 62
     7
 10
43.2606262636521
 20
25.352537383131729
 30
0.0
  0
VERTEX
  5
3D20
  8
0
  6
CONTINUOUS
 62
     7
 10
43.276667829338571
 20
25.36617473959183
 30
0.0
  0
VERTEX
  5
3D21
  8
0
  6
CONTINUOUS
 62
     7
 10
43.592335425052909
 20
25.634318341307392
 30
0.0
  0
VERTEX
  5
3D22
  8
0
  6
CONTINUOUS
 62
     7
 10
44.995132136825589
 20
26.827003557972649
 30
0.0
  0
SEQEND
  5
3D23
  8
0
  6
CONTINUOUS
 62
     7
  0
ARC
  5
32AF
  8
0
  6
CONTINUOUS
 62
     7
 10
49.191534705566468
 20
26.382660642492421
 30
0.0
 40
4.219861981803791
 50
173.95566564110359
 51
188.4190083124472
  0
ARC
  5
32B0
  8
0
  6
CONTINUOUS
 62
     7
 10
95.426212190868341
 20
-18.809640590655469
 30
0.0
 40
67.82232371343045
 50
118.5870574017422
 51
132.4329670815888
  0
POLYLINE
  5
32B1
  8
0
  6
CONTINUOUS
 62
     7
 66
     1
 10
0.0
 20
0.0
 30
0.0
 70
   128
  0
VERTEX
  5
3D24
  8
0
  6
CONTINUOUS
 62
     7
 10
48.094102415923132
 20
29.791362334780441
 30
0.0
  0
VERTEX
  5
3D25
  8
0
  6
CONTINUOUS
 62
     7
 10
48.094146188084139
 20
29.791403312973721
 30
0.0
  0
VERTEX
  5
3D26
  8
0
  6
CONTINUOUS
 62
     7
 10
49.664647552851697
 20
31.247794379286521
 30
0.0
  0
SEQEND
  5
3D27
  8
0
  6
CONTINUOUS
 62
     7
  0
LINE
  5
32B2
  8
0
  6
CONTINUOUS
 62
     7
 10
76.215119335536031
 20
45.470570896558499
 30
0.0
 11
76.100574109438909
 21
45.436912898711903
 31
0.0
  0
POLYLINE
  5
32B3
  8
0
  6
CONTINUOUS
 62
     7
 66
     1
 10
0.0
 20
0.0
 30
0.0
 70
   128
  0
VERTEX
  5
3D28
  8
0
  6
CONTINUOUS
 62
     7
 10
76.214951697472586
 20
45.470533643655507
 30
0.0
  0
VERTEX
  5
3D29
  8
0
  6
CONTINUOUS
 62
     7
 10
76.250107262019185
 20
45.479362581662862
 30
0.0
  0
VERTEX
  5
3D2A
  8
0
  6
CONTINUOUS
 62
     7
 10
76.250155690793065
 20
45.479377482824049
 30
0.0
  0
SEQEND
  5
3D2B
  8
0
  6
CONTINUOUS
 62
     7
  0
POLYLINE
  5
32B4
  8
0
  6
CONTINUOUS
 62
     7
 66
     1
 10
0.0
 20
0.0
 30
0.0
 70
   128
  0
VERTEX
  5
3D2C
  8
0
  6
CONTINUOUS
 62
     7
 10
76.219589683894185
 20
45.471099887780881
 30
0.0
  0
VERTEX
  5
3D2D
  8
0
  6
CONTINUOUS
 62
     7
 10
76.215018752697972
 20
45.469840739659993
 30
0.0
  0
VERTEX
  5
3D2E
  8
0
  6
CONTINUOUS
 62
     7
 10
76.101099375371021
 20
45.437069360904417
 30
0.0
  0
SEQEND
  5
3D2F
  8
0
  6
CONTINUOUS
 62
     7
  0
ARC
  5
32B5
  8
0
  6
CONTINUOUS
 62
     7
 10
77.294851199179661
 20
41.55775182672253
 30
0.0
 40
4.0583866816280514
 50
104.7724712692012
 51
105.3622278910958
  0
LINE
  5
32B6
  8
0
  6
CONTINUOUS
 62
     7
 10
76.25164580691245
 20
45.479787264756887
 30
0.0
 11
76.219701442603153
 21
45.471133415393567
 31
0.0
  0
INSERT
  5
32B7
  8
0
  6
CONTINUOUS
 62
     7
  2
*X8
 10
0.0
 20
0.0
 30
0.0
1001
ACAD
1000
HATCH
1002
{
1070
    19
1000
ANSI31
1040
1.0
1040
0.0
1000
R14_HATCH_DATA
1000
32B7
1011
1.0
1021
0.0
1031
0.0
1021
0.0
1031
0.0
1011
0.0
1021
0.0
1031
0.0
1021
1.0
1031
0.0
1011
0.0
1021
0.0
1031
0.0
1021
0.0
1031
1.0
1040
0.0
1010
0.0
1020
0.0
1030
1.0
1000
ANSI31
1070
     0
1070
     0
1071
        1
1071
        0
1071
        4
1070
     1
1040
427.04539181136568
1040
5.6324840010266692
1040
427.04539181136568
1040
4.6324840010266692
1070
     1
1040
427.04539181136568
1040
4.6324840010266692
1040
429.34539181136603
1040
4.6324840010266692
1070
     1
1040
429.34539181136603
1040
4.6324840010266692
1040
429.34539181136603
1040
5.6324840010266692
1070
     1
1040
429.34539181136603
1040
5.6324840010266692
1040
427.04539181136579
1040
5.6324840010266692
1071
        0
1070
     0
1070
     1
1040
0.0
1040
1.0
1070
     0
1070
     1
1040
0.7853981633974483
1040
116.9796411091482
1040
-65.629529388840893
1040
-2.2450640302672871
1040
2.2450640302672871
1070
     0
1071
        1
1040
116.9796411091482
1040
-65.629529388840893
1040
0.0
1002
}
  0
INSERT
  5
32B8
  8
0
  6
CONTINUOUS
 62
     7
  2
*X9
 10
0.0
 20
0.0
 30
0.0
1001
ACAD
1000
HATCH
1002
{
1070
    19
1000
ANSI31
1040
1.0
1040
0.0
1000
R14_HATCH_DATA
1000
32B8
1011
1.0
1021
0.0
1031
0.0
1021
0.0
1031
0.0
1011
0.0
1021
0.0
1031
0.0
1021
1.0
1031
0.0
1011
0.0
1021
0.0
1031
0.0
1021
0.0
1031
1.0
1040
0.0
1010
0.0
1020
0.0
1030
1.0
1000
ANSI31
1070
     0
1070
     0
1071
        1
1071
        0
1071
        4
1070
     1
1040
737.72479626350616
1040
105.5677437574894
1040
737.72479626350616
1040
104.5677437574894
1070
     1
1040
737.72479626350616
1040
104.5677437574894
1040
740.02479626350635
1040
104.5677437574894
1070
     1
1040
740.02479626350635
1040
104.5677437574894
1040
740.02479626350635
1040
105.5677437574894
1070
     1
1040
740.02479626350635
1040
105.5677437574894
1040
737.72479626350616
1040
105.5677437574894
1071
        0
1070
     0
1070
     1
1040
0.0
1040
1.0
1070
     0
1070
     1
1040
0.7853981633974483
1040
427.65904556128868
1040
34.305730367621862
1040
-2.2450640302672871
1040
2.2450640302672871
1070
     0
1071
        1
1040
427.65904556128868
1040
34.305730367621862
1040
0.0
1002
}
  0
ARC
  5
32B9
  8
0
  6
CONTINUOUS
 62
     7
 10
83.73217232787087
 20
3.6496569209966192
 30
0.0
 40
42.508182343610471
 50
99.958368685038636
 51
119.23162028952
  0
ENDBLK
  5
32BB
  8
0
  0
BLOCK
  8
0
  2
*X8
 70
     1
 10
0.0
 20
0.0
 30
0.0
  3
*X8
  1

  0
ENDBLK
  5
37A9
  8
0
  0
BLOCK
  8
0
  2
*X9
 70
     1
 10
0.0
 20
0.0
 30
0.0
  3
*X9
  1

  0
ENDBLK
  5
37AC
  8
0
  0
ENDSEC
  0
SECTION
  2
ENTITIES
  0
LINE
  5
2675
  8
0
 10
133.76413309627699
 20
227.04730419016411
 30
0.0
 11
134.79938475096159
 21
227.1330240512543
 31
0.0
  0
LINE
  5
2676
  8
0
 10
171.8181644161933
 20
229.38217412254741
 30
0.0
 11
172.96688375675609
 21
229.48204543015879
 31
0.0
  0
LINE
  5
2677
  8
0
 10
120.7979857051515
 20
235.6609732708238
 30
0.0
 11
122.79798580014641
 21
234.50627274385619
 31
0.0
  0
LINE
  5
2678
  8
0
 10
122.79798580014641
 20
234.50627274385619
 30
0.0
 11
124.7979858951413
 21
235.6609732708238
 31
0.0
  0
LINE
  5
2679
  8
0
 10
124.7979858951413
 20
235.6609732708238
 30
0.0
 11
124.7979858951413
 21
237.97037432475909
 31
0.0
  0
LINE
  5
267A
  8
0
 10
124.7979858951413
 20
237.97037432475909
 30
0.0
 11
122.79798580014641
 21
239.12507485172679
 31
0.0
  0
LINE
  5
267B
  8
0
 10
122.79798580014641
 20
239.12507485172679
 30
0.0
 11
120.7979857051515
 21
237.97037432475909
 31
0.0
  0
LINE
  5
267C
  8
0
 10
120.7979857051515
 20
237.97037432475909
 30
0.0
 11
120.7979857051515
 21
235.6609732708238
 31
0.0
  0
CIRCLE
  5
267D
  8
0
 10
122.79798580014641
 20
236.8156737977915
 30
0.0
 40
3.30000000000001
  0
ARC
  5
267E
  8
0
 10
122.79798580014641
 20
236.8156737977915
 30
0.0
 40
1.999999999999984
 50
60.000000000000227
 51
120.0000000000001
  0
ARC
  5
267F
  8
0
 10
122.79798580014641
 20
236.8156737977915
 30
0.0
 40
2.0000000000000151
 50
180.0
 51
240.00000000000071
  0
ARC
  5
2680
  8
0
 10
122.79798580014641
 20
236.8156737977915
 30
0.0
 40
2.0
 50
120.0000000000005
 51
180.0
  0
ARC
  5
2681
  8
0
 10
122.79798580014641
 20
236.8156737977915
 30
0.0
 40
2.0
 50
0.0
 51
59.999999999999851
  0
ARC
  5
2682
  8
0
 10
122.79798580014641
 20
236.8156737977915
 30
0.0
 40
2.000000000000008
 50
299.99999999999972
 51
0.0
  0
ARC
  5
2683
  8
0
 10
122.79798580014641
 20
236.8156737977915
 30
0.0
 40
2.0000000000000151
 50
240.00000000000071
 51
300.0
  0
ARC
  5
2686
  8
0
 10
181.75078092499939
 20
129.65615165127701
 30
0.0
 40
99.999850416064589
 50
85.439657926671543
 51
91.630815978641436
  0
ARC
  5
2687
  8
0
 10
181.75078012083131
 20
343.97522739334983
 30
0.0
 40
99.999881829484281
 50
268.36918499473512
 51
274.56034109995358
  0
POLYLINE
  5
2688
  8
0
 66
     1
 10
0.0
 20
0.0
 30
0.0
 70
   128
  0
VERTEX
  5
390C
  8
0
 10
173.05202154123711
 20
244.20400572515061
 30
0.0
  0
VERTEX
  5
390D
  8
0
 10
175.97602052295139
 20
244.10462475887451
 30
0.0
  0
VERTEX
  5
390E
  8
0
 10
176.48189631903099
 20
244.088521260237
 30
0.0
  0
VERTEX
  5
390F
  8
0
 10
177.44160933101111
 20
244.05885444528391
 30
0.0
  0
VERTEX
  5
3910
  8
0
 10
178.90485865676331
 20
244.0158501597397
 30
0.0
  0
SEQEND
  5
3911
  8
0
  0
POLYLINE
  5
2689
  8
0
 66
     1
 10
0.0
 20
0.0
 30
0.0
 70
   128
  0
VERTEX
  5
3912
  8
0
 10
178.90485865676331
 20
229.6154974358432
 30
0.0
  0
VERTEX
  5
3913
  8
0
 10
177.43934435450959
 20
229.5724242324284
 30
0.0
  0
VERTEX
  5
3914
  8
0
 10
175.97109568917679
 20
229.52656451187059
 30
0.0
  0
VERTEX
  5
3915
  8
0
 10
174.36947045528819
 20
229.47344932279509
 30
0.0
  0
VERTEX
  5
3916
  8
0
 10
173.05202154123711
 20
229.4273418704324
 30
0.0
  0
SEQEND
  5
3917
  8
0
  0
LINE
  5
268A
  8
0
 10
173.05202154123711
 20
229.4273418704324
 30
0.0
 11
172.96645907366209
 21
229.54189547843259
 31
0.0
  0
ARC
  5
268B
  8
0
 10
190.29798520708829
 20
236.8156737977915
 30
0.0
 40
7.5000002243390327
 50
265.43964622973613
 51
94.560353770264655
  0
POLYLINE
  5
268C
  8
0
 66
     1
 10
0.0
 20
0.0
 30
0.0
 70
   128
  0
VERTEX
  5
3918
  8
0
 10
133.76413309627699
 20
246.5840434054189
 30
0.0
  0
VERTEX
  5
3919
  8
0
 10
137.95101666504081
 20
246.2375662619524
 30
0.0
  0
VERTEX
  5
391A
  8
0
 10
142.38928934240269
 20
245.89453221804439
 30
0.0
  0
VERTEX
  5
391B
  8
0
 10
146.64047328436311
 20
245.58932756579449
 30
0.0
  0
VERTEX
  5
391C
  8
0
 10
151.09446948075231
 20
245.2940601254158
 30
0.0
  0
VERTEX
  5
391D
  8
0
 10
155.36753950321611
 20
245.03432357258129
 30
0.0
  0
VERTEX
  5
391E
  8
0
 10
157.6978203436129
 20
244.90238217211291
 30
0.0
  0
VERTEX
  5
391F
  8
0
 10
160.21793080174851
 20
244.7673962781482
 30
0.0
  0
VERTEX
  5
3920
  8
0
 10
162.9279491087191
 20
244.63116613722369
 30
0.0
  0
VERTEX
  5
3921
  8
0
 10
165.0755342622989
 20
244.5297767738156
 30
0.0
  0
VERTEX
  5
3922
  8
0
 10
167.136715032696
 20
244.43792601621669
 30
0.0
  0
VERTEX
  5
3923
  8
0
 10
169.62028411829399
 20
244.33435409835491
 30
0.0
  0
VERTEX
  5
3924
  8
0
 10
171.6739807804816
 20
244.2545690903716
 30
0.0
  0
VERTEX
  5
3925
  8
0
 10
173.05202154123711
 20
244.20400572515061
 30
0.0
  0
SEQEND
  5
3926
  8
0
  0
POLYLINE
  5
268D
  8
0
 66
     1
 10
0.0
 20
0.0
 30
0.0
 70
   128
  0
VERTEX
  5
3927
  8
0
 10
171.81872320973801
 20
229.38205956987071
 30
0.0
  0
VERTEX
  5
3928
  8
0
 10
170.48050952756341
 20
229.33105848303961
 30
0.0
  0
VERTEX
  5
3929
  8
0
 10
168.53015614354541
 20
229.25248745403221
 30
0.0
  0
VERTEX
  5
392A
  8
0
 10
166.6074667652839
 20
229.1703471312575
 30
0.0
  0
VERTEX
  5
392B
  8
0
 10
164.98382879102161
 20
229.0973598467462
 30
0.0
  0
VERTEX
  5
392C
  8
0
 10
163.61558926904129
 20
229.0332778686932
 30
0.0
  0
VERTEX
  5
392D
  8
0
 10
162.0630447348349
 20
228.9577084923439
 30
0.0
  0
VERTEX
  5
392E
  8
0
 10
160.35435465776851
 20
228.87103030032441
 30
0.0
  0
VERTEX
  5
392F
  8
0
 10
157.02333418333461
 20
228.69147968984171
 30
0.0
  0
VERTEX
  5
3930
  8
0
 10
154.02939473891189
 20
228.5181633526735
 30
0.0
  0
VERTEX
  5
3931
  8
0
 10
150.7651575436584
 20
228.31631501710939
 30
0.0
  0
VERTEX
  5
3932
  8
0
 10
146.4120310326808
 20
228.0262005845361
 30
0.0
  0
VERTEX
  5
3933
  8
0
 10
142.2265314092628
 20
227.72467558777859
 30
0.0
  0
VERTEX
  5
3934
  8
0
 10
137.874239363312
 20
227.3876271540575
 30
0.0
  0
VERTEX
  5
3935
  8
0
 10
134.79938475096159
 20
227.1330240512543
 30
0.0
  0
SEQEND
  5
3936
  8
0
  0
POLYLINE
  5
268F
  8
0
 66
     1
 10
0.0
 20
0.0
 30
0.0
 70
   128
  0
VERTEX
  5
3937
  8
0
 10
129.06518555858659
 20
228.39117379433441
 30
0.0
  0
VERTEX
  5
3938
  8
0
 10
129.89714393073251
 20
229.07926937139561
 30
0.0
  0
VERTEX
  5
3939
  8
0
 10
130.69015672111439
 20
229.89009463733959
 30
0.0
  0
SEQEND
  5
393A
  8
0
  0
POLYLINE
  5
2690
  8
0
 66
     1
 10
0.0
 20
0.0
 30
0.0
 70
   128
  0
VERTEX
  5
393B
  8
0
 10
130.69015672111439
 20
243.74125295824339
 30
0.0
  0
VERTEX
  5
393C
  8
0
 10
129.61084279844101
 20
244.8053532609992
 30
0.0
  0
VERTEX
  5
393D
  8
0
 10
129.06518555858659
 20
245.2401738012484
 30
0.0
  0
SEQEND
  5
393E
  8
0
  0
ARC
  5
2691
  8
0
 10
122.79584665032741
 20
236.8156737977915
 30
0.0
 40
10.50160836259928
 50
318.73992952071859
 51
41.260070479282142
  0
POLYLINE
  5
2692
  8
0
 66
     1
 10
0.0
 20
0.0
 30
0.0
 70
   128
  0
VERTEX
  5
393F
  8
0
 10
133.76413309627699
 20
227.04730419016411
 30
0.0
  0
VERTEX
  5
3940
  8
0
 10
131.55993098074131
 20
226.6054419199281
 30
0.0
  0
VERTEX
  5
3941
  8
0
 10
129.4772287426286
 20
225.66274975932171
 30
0.0
  0
SEQEND
  5
3942
  8
0
  0
POLYLINE
  5
2693
  8
0
 66
     1
 10
0.0
 20
0.0
 30
0.0
 70
   128
  0
VERTEX
  5
3943
  8
0
 10
129.4772287426286
 20
247.9685978362613
 30
0.0
  0
VERTEX
  5
3944
  8
0
 10
131.57070731425219
 20
247.0224551255159
 30
0.0
  0
VERTEX
  5
3945
  8
0
 10
133.76413309627699
 20
246.5840434054189
 30
0.0
  0
SEQEND
  5
3946
  8
0
  0
ARC
  5
2694
  8
0
 10
122.7986297871995
 20
236.8156737977915
 30
0.0
 40
10.49961530457918
 50
53.356322524978381
 51
306.6436774750224
  0
ARC
  5
2695
  8
0
 10
122.797986125368
 20
236.8156737977915
 30
0.0
 40
12.999999867234919
 50
59.083529173672147
 51
300.91647082632852
  0
LINE
  5
2696
  8
0
 10
118.7979856101566
 20
239.12507485172679
 30
0.0
 11
118.7979856101566
 21
234.50627274385619
 31
0.0
  0
LINE
  5
2699
  8
0
 10
126.7979859901362
 20
234.50627274385619
 30
0.0
 11
126.7979859901362
 21
239.12507485172679
 31
0.0
  0
POLYLINE
  5
269A
  8
0
 66
     1
 10
0.0
 20
0.0
 30
0.0
 70
   128
  0
VERTEX
  5
3947
  8
0
 10
118.7979856101566
 20
234.50627274385619
 30
0.0
  0
VERTEX
  5
3948
  8
0
 10
119.4726736346029
 20
234.11674148908779
 30
0.0
  0
VERTEX
  5
3949
  8
0
 10
120.8185111233734
 20
233.33972183561849
 30
0.0
  0
VERTEX
  5
394A
  8
0
 10
122.12318526029151
 20
232.58646813726949
 30
0.0
  0
VERTEX
  5
394B
  8
0
 10
122.79798580014641
 20
232.1968716899209
 30
0.0
  0
SEQEND
  5
394C
  8
0
  0
POLYLINE
  5
269D
  8
0
 66
     1
 10
0.0
 20
0.0
 30
0.0
 70
   128
  0
VERTEX
  5
394D
  8
0
 10
126.7979859901362
 20
239.12507485172679
 30
0.0
  0
VERTEX
  5
394E
  8
0
 10
126.124442561134
 20
239.5139451002978
 30
0.0
  0
VERTEX
  5
394F
  8
0
 10
124.8215125003599
 20
240.26619227177429
 30
0.0
  0
VERTEX
  5
3950
  8
0
 10
123.47762770399009
 20
241.04208455926701
 30
0.0
  0
VERTEX
  5
3951
  8
0
 10
122.79798580014641
 20
241.434475905662
 30
0.0
  0
SEQEND
  5
3952
  8
0
  0
POLYLINE
  5
269F
  8
0
 66
     1
 10
0.0
 20
0.0
 30
0.0
 70
   128
  0
VERTEX
  5
3953
  8
0
 10
122.79798580014641
 20
232.1968716899209
 30
0.0
  0
VERTEX
  5
3954
  8
0
 10
123.3946901108839
 20
232.541379086142
 30
0.0
  0
VERTEX
  5
3955
  8
0
 10
124.66852774990279
 20
233.27682962215471
 30
0.0
  0
VERTEX
  5
3956
  8
0
 10
125.68867323601179
 20
233.86581082402691
 30
0.0
  0
VERTEX
  5
3957
  8
0
 10
126.7979859901362
 20
234.50627274385619
 30
0.0
  0
SEQEND
  5
3958
  8
0
  0
POLYLINE
  5
26A0
  8
0
 66
     1
 10
0.0
 20
0.0
 30
0.0
 70
   128
  0
VERTEX
  5
3959
  8
0
 10
122.79798580014641
 20
241.434475905662
 30
0.0
  0
VERTEX
  5
395A
  8
0
 10
121.7304871013158
 20
240.81815503112
 30
0.0
  0
VERTEX
  5
395B
  8
0
 10
120.6699330420934
 20
240.20584419875371
 30
0.0
  0
VERTEX
  5
395C
  8
0
 10
119.3980721352392
 20
239.47153476572561
 30
0.0
  0
VERTEX
  5
395D
  8
0
 10
118.7979856101566
 20
239.12507485172679
 30
0.0
  0
SEQEND
  5
395E
  8
0
  0
ARC
  5
26A2
  8
0
 10
122.79798580014641
 20
236.8156737977915
 30
0.0
 40
10.50000000000003
 50
59.321511226614938
 51
270.00000000000068
  0
ARC
  5
26A3
  8
0
 10
122.79798580014641
 20
236.8156737977915
 30
0.0
 40
10.49999999999998
 50
29.566573947152438
 51
43.296019900445643
  0
ARC
  5
26A4
  8
0
 10
122.79798580014641
 20
236.8156737977915
 30
0.0
 40
10.500000000000011
 50
307.64022359142388
 51
322.06039769560118
  0
LINE
  5
26A5
  8
0
 10
123.8155427915745
 20
226.365095503097
 30
0.0
 11
122.79798580014641
 21
226.31567393935251
 31
0.0
  0
ARC
  5
26A6
  8
0
 10
122.79798580014641
 20
236.8156737977915
 30
0.0
 40
3.9999999999999831
 50
59.999999999999851
 51
120.0000000000001
  0
ARC
  5
26A7
  8
0
 10
122.79798580014641
 20
236.8156737977915
 30
0.0
 40
4.0000000000000071
 50
240.00000000000091
 51
300.00000000000068
  0
ARC
  5
26A8
  8
0
 10
122.79798580014641
 20
236.8156737977915
 30
0.0
 40
4.0
 50
120.0000000000003
 51
180.0
  0
ARC
  5
26A9
  8
0
 10
122.79798580014641
 20
236.8156737977915
 30
0.0
 40
4.0
 50
0.0
 51
59.99999999999968
  0
ARC
  5
26AA
  8
0
 10
122.79798580014641
 20
236.8156737977915
 30
0.0
 40
4.0000000000000071
 50
300.00000000000068
 51
0.0
  0
ARC
  5
26AB
  8
0
 10
122.79798580014641
 20
236.8156737977915
 30
0.0
 40
4.0000000000000071
 50
180.0
 51
240.00000000000091
  0
CIRCLE
  5
26AC
  8
0
 10
122.79798580014641
 20
236.8156737977915
 30
0.0
 40
3.4000000000000341
  0
LINE
  5
26B7
  8
0
 10
54.835288932576411
 20
122.61810066133781
 30
0.0
 11
54.835288932576411
 21
103.8181009325389
 31
0.0
  0
LINE
  5
26B8
  8
0
 10
62.835289312556021
 20
103.8181009325389
 30
0.0
 11
62.835289312556021
 21
122.61810066133781
 31
0.0
  0
LINE
  5
26B9
  8
0
 10
54.835288932576411
 20
103.8181009325389
 30
0.0
 11
56.035289222404003
 21
102.6181011083726
 31
0.0
  0
LINE
  5
26BA
  8
0
 10
61.635289022728443
 20
102.6181011083726
 30
0.0
 11
62.835289312556021
 21
103.8181009325389
 31
0.0
  0
LINE
  5
26BB
  8
0
 10
45.835288854345322
 20
156.2665207865839
 30
0.0
 11
45.835288854345322
 21
125.6181006874148
 31
0.0
  0
LINE
  5
26BC
  8
0
 10
71.835289390787125
 20
125.6181006874148
 30
0.0
 11
71.835289390787125
 21
156.26662509471211
 31
0.0
  0
ARC
  5
26BD
  8
0
 10
50.083851589459201
 20
155.94856998802041
 30
0.0
 40
4.2604412172646908
 50
111.83218974184329
 51
175.7126310314361
  0
ARC
  5
26BE
  8
0
 10
67.583556077267247
 20
155.9461407355636
 30
0.0
 40
4.263872728517569
 50
4.3097196287136761
 51
68.140235941885379
  0
ARC
  5
26BF
  8
0
 10
46.835289122566223
 20
125.61810066133781
 30
0.0
 40
1.0000000000000031
 50
180.0
 51
270.0000000000008
  0
ARC
  5
26C0
  8
0
 10
70.835289122566223
 20
125.61810066133781
 30
0.0
 40
1.0
 50
270.0
 51
0.0
  0
POLYLINE
  5
26C1
  8
0
 66
     1
 10
0.0
 20
0.0
 30
0.0
 70
   128
  0
VERTEX
  5
395F
  8
0
 10
69.171186218067604
 20
159.90341367155361
 30
0.0
  0
VERTEX
  5
3960
  8
0
 10
68.65370428006311
 20
160.1394406142835
 30
0.0
  0
VERTEX
  5
3961
  8
0
 10
68.623790020714935
 20
160.147729843679
 30
0.0
  0
SEQEND
  5
3962
  8
0
  0
POLYLINE
  5
26C2
  8
0
 66
     1
 10
0.0
 20
0.0
 30
0.0
 70
   128
  0
VERTEX
  5
3963
  8
0
 10
49.049622253939397
 20
160.1501126400492
 30
0.0
  0
VERTEX
  5
3964
  8
0
 10
49.01917805711885
 20
160.14207811981481
 30
0.0
  0
VERTEX
  5
3965
  8
0
 10
48.499443249806362
 20
159.9034397485857
 30
0.0
  0
SEQEND
  5
3966
  8
0
  0
POLYLINE
  5
26C3
  8
0
 66
     1
 10
0.0
 20
0.0
 30
0.0
 70
   128
  0
VERTEX
  5
3967
  8
0
 10
51.567490648207077
 20
167.45244392181249
 30
0.0
  0
VERTEX
  5
3968
  8
0
 10
51.471688466175863
 20
167.11364226371089
 30
0.0
  0
VERTEX
  5
3969
  8
0
 10
51.336171252682277
 20
166.6812440934782
 30
0.0
  0
VERTEX
  5
396A
  8
0
 10
51.202644275530673
 20
166.28078656226441
 30
0.0
  0
VERTEX
  5
396B
  8
0
 10
51.076400240912541
 20
165.91541754037181
 30
0.0
  0
VERTEX
  5
396C
  8
0
 10
50.961966307863122
 20
165.59051634699151
 30
0.0
  0
VERTEX
  5
396D
  8
0
 10
50.863079408212997
 20
165.3123563709859
 30
0.0
  0
VERTEX
  5
396E
  8
0
 10
50.770851464971422
 20
165.0539218071107
 30
0.0
  0
VERTEX
  5
396F
  8
0
 10
50.628533268376721
 20
164.65504752427381
 30
0.0
  0
VERTEX
  5
3970
  8
0
 10
50.442333946033841
 20
164.12971453696531
 30
0.0
  0
VERTEX
  5
3971
  8
0
 10
50.207679772778903
 20
163.4563347879056
 30
0.0
  0
VERTEX
  5
3972
  8
0
 10
49.919730665191572
 20
162.60439442426011
 30
0.0
  0
VERTEX
  5
3973
  8
0
 10
49.573558995529588
 20
161.531622577012
 30
0.0
  0
VERTEX
  5
3974
  8
0
 10
49.187112113033322
 20
160.2556871643294
 30
0.0
  0
SEQEND
  5
3975
  8
0
  0
POLYLINE
  5
26C4
  8
0
 66
     1
 10
0.0
 20
0.0
 30
0.0
 70
   128
  0
VERTEX
  5
3976
  8
0
 10
68.483711089976069
 20
160.25551538729161
 30
0.0
  0
VERTEX
  5
3977
  8
0
 10
68.197231421276513
 20
161.2094743731621
 30
0.0
  0
VERTEX
  5
3978
  8
0
 10
67.931202853127886
 20
162.05260069996149
 30
0.0
  0
VERTEX
  5
3979
  8
0
 10
67.705397175654326
 20
162.7408704343442
 30
0.0
  0
VERTEX
  5
397A
  8
0
 10
67.517102377518569
 20
163.29817013770381
 30
0.0
  0
VERTEX
  5
397B
  8
0
 10
67.363749871059809
 20
163.74260472089091
 30
0.0
  0
VERTEX
  5
397C
  8
0
 10
67.242987135454555
 20
164.08769326239869
 30
0.0
  0
VERTEX
  5
397D
  8
0
 10
67.14009275476586
 20
164.37905939251229
 30
0.0
  0
VERTEX
  5
397E
  8
0
 10
66.964183615549928
 20
164.87348737150469
 30
0.0
  0
VERTEX
  5
397F
  8
0
 10
66.755270266934744
 20
165.4592557433252
 30
0.0
  0
VERTEX
  5
3980
  8
0
 10
66.525356991245843
 20
166.11365513831419
 30
0.0
  0
VERTEX
  5
3981
  8
0
 10
66.289836222335182
 20
166.82047309309289
 30
0.0
  0
VERTEX
  5
3982
  8
0
 10
66.082075385406071
 20
167.5103037241106
 30
0.0
  0
SEQEND
  5
3983
  8
0
  0
LINE
  5
26C5
  8
0
 10
62.263611618458647
 20
170.61810107857031
 30
0.0
 11
55.407406909420502
 21
170.61810107857031
 31
0.0
  0
POLYLINE
  5
26C6
  8
0
 66
     1
 10
0.0
 20
0.0
 30
0.0
 70
   128
  0
VERTEX
  5
3984
  8
0
 10
52.100637609168331
 20
168.6634785118703
 30
0.0
  0
VERTEX
  5
3985
  8
0
 10
51.803966665669734
 20
168.10379462271959
 30
0.0
  0
VERTEX
  5
3986
  8
0
 10
51.567490648207077
 20
167.45244392181249
 30
0.0
  0
SEQEND
  5
3987
  8
0
  0
POLYLINE
  5
26C7
  8
0
 66
     1
 10
0.0
 20
0.0
 30
0.0
 70
   128
  0
VERTEX
  5
3988
  8
0
 10
66.082075385406071
 20
167.5103037241106
 30
0.0
  0
VERTEX
  5
3989
  8
0
 10
65.86678620244507
 20
168.10317249923989
 30
0.0
  0
VERTEX
  5
398A
  8
0
 10
65.56993923897987
 20
168.66348223716059
 30
0.0
  0
SEQEND
  5
398B
  8
0
  0
LINE
  5
26CB
  8
0
 10
69.335288981005192
 20
158.3786300006513
 30
0.0
 11
69.335288981005192
 21
158.618099111617
 31
0.0
  0
LINE
  5
26CC
  8
0
 10
48.335289264127248
 20
158.618099111617
 30
0.0
 11
48.335289264127248
 21
158.3786300006513
 31
0.0
  0
ARC
  5
26CD
  8
0
 10
50.335289122566202
 20
158.61810066133779
 30
0.0
 40
2.0
 50
90.0
 51
180.0
  0
ARC
  5
26CE
  8
0
 10
67.335289122566209
 20
158.61810066133779
 30
0.0
 40
2.0000000000000071
 50
0.0
 51
90.0
  0
LINE
  5
26CF
  8
0
 10
65.335289256676674
 20
123.1181006850865
 30
0.0
 11
65.335289256676674
 21
124.61810075633269
 31
0.0
  0
LINE
  5
26D0
  8
0
 10
52.335288988455773
 20
124.61810075633269
 30
0.0
 11
52.335288988455773
 21
123.1181006850865
 31
0.0
  0
LINE
  5
26D1
  8
0
 10
52.335288988455773
 20
123.1181006850865
 30
0.0
 11
52.835289070412152
 21
122.61810066133781
 31
0.0
  0
LINE
  5
26D2
  8
0
 10
64.835289174720273
 20
122.61810066133781
 30
0.0
 11
65.335289256676674
 21
123.1181006850865
 31
0.0
  0
LINE
  5
26D3
  8
0
 10
54.835288932576411
 20
103.8181009325389
 30
0.0
 11
62.835289312556021
 21
103.8181009325389
 31
0.0
  0
LINE
  5
26D4
  8
0
 10
61.635289022728443
 20
102.6181011083726
 30
0.0
 11
56.035289222404003
 21
102.6181011083726
 31
0.0
  0
LINE
  5
277E
  8
0
 10
70.835289226874337
 20
124.61810075633269
 30
0.0
 11
46.835289018258067
 21
124.61810075633269
 31
0.0
  0
POLYLINE
  5
2785
  8
0
 66
     1
 10
0.0
 20
0.0
 30
0.0
 70
   128
  0
VERTEX
  5
398C
  8
0
 10
69.335288981005192
 20
158.3786300006513
 30
0.0
  0
VERTEX
  5
398D
  8
0
 10
69.314074384078026
 20
158.1578655722742
 30
0.0
  0
VERTEX
  5
398E
  8
0
 10
69.04496686349772
 20
157.5390911284093
 30
0.0
  0
VERTEX
  5
398F
  8
0
 10
68.447692932590499
 20
156.91617043644229
 30
0.0
  0
VERTEX
  5
3990
  8
0
 10
67.542417587741852
 20
156.32465766698161
 30
0.0
  0
VERTEX
  5
3991
  8
0
 10
66.359990889235988
 20
155.79205291301051
 30
0.0
  0
VERTEX
  5
3992
  8
0
 10
64.924538282707005
 20
155.3328140261774
 30
0.0
  0
VERTEX
  5
3993
  8
0
 10
63.357598295464783
 20
154.98522954016971
 30
0.0
  0
VERTEX
  5
3994
  8
0
 10
61.640828296571627
 20
154.739945251048
 30
0.0
  0
VERTEX
  5
3995
  8
0
 10
59.94552551585403
 20
154.61667912036219
 30
0.0
  0
VERTEX
  5
3996
  8
0
 10
58.216309554904363
 20
154.6005635145311
 30
0.0
  0
VERTEX
  5
3997
  8
0
 10
56.575484721019542
 20
154.68840958505911
 30
0.0
  0
VERTEX
  5
3998
  8
0
 10
54.99756420779196
 20
154.87156348258301
 30
0.0
  0
VERTEX
  5
3999
  8
0
 10
53.516497982695363
 20
155.14520468145651
 30
0.0
  0
VERTEX
  5
399A
  8
0
 10
52.17655017788676
 20
155.4958513560895
 30
0.0
  0
VERTEX
  5
399B
  8
0
 10
50.958172099694259
 20
155.9322057846193
 30
0.0
  0
VERTEX
  5
399C
  8
0
 10
49.951447786792748
 20
156.4229643526678
 30
0.0
  0
VERTEX
  5
399D
  8
0
 10
49.137823896512039
 20
156.9867572370176
 30
0.0
  0
VERTEX
  5
399E
  8
0
 10
48.600444251700871
 20
157.5763775590066
 30
0.0
  0
VERTEX
  5
399F
  8
0
 10
48.335289264127248
 20
158.3786300006513
 30
0.0
  0
SEQEND
  5
39A0
  8
0
  0
ARC
  5
278D
  8
0
 10
55.43933493188387
 20
166.82260743416899
 30
0.0
 40
3.795627932675858
 50
90.481965709485223
 51
151.3629107366076
  0
ARC
  5
278E
  8
0
 10
62.203573552849207
 20
166.7428319320538
 30
0.0
 40
3.8757341920292432
 50
29.706538951213091
 51
89.112409368078204
  0
LINE
  5
278F
  8
0
 10
67.33528958450222
 20
160.6180994394426
 30
0.0
 11
50.335288660630219
 21
160.6180994394426
 31
0.0
  0
LINE
  5
2790
  8
0
 10
52.335288988455773
 20
123.1181006850865
 30
0.0
 11
65.335289256676674
 21
123.1181006850865
 31
0.0
  0
LINE
  5
2791
  8
0
 10
64.835289174720273
 20
122.61810066133781
 30
0.0
 11
52.835289070412152
 21
122.61810066133781
 31
0.0
  0
LINE
  5
2792
  8
1
 10
58.835289122566088
 20
177.99081433245939
 30
0.0
 11
58.835289122566088
 21
95.61810066133782
 31
0.0
  0
LINE
  5
2B78
  8
0
 10
253.04644927610261
 20
122.61810066133781
 30
0.0
 11
253.04644927610261
 21
103.818100932539
 31
0.0
  0
LINE
  5
2B79
  8
0
 10
261.0464496560823
 20
103.818100932539
 30
0.0
 11
261.0464496560823
 21
122.61810066133781
 31
0.0
  0
LINE
  5
2B7A
  8
0
 10
253.04644927610261
 20
103.818100932539
 30
0.0
 11
254.24644956593011
 21
102.6181011083727
 31
0.0
  0
LINE
  5
2B7B
  8
0
 10
259.84644936625472
 20
102.6181011083727
 30
0.0
 11
261.0464496560823
 21
103.818100932539
 31
0.0
  0
LINE
  5
2B7C
  8
0
 10
264.54644929845421
 20
159.09655677110001
 30
0.0
 11
264.48622020189242
 21
166.06893675357151
 31
0.0
  0
LINE
  5
2B7D
  8
0
 10
249.6057893172331
 20
166.068780291379
 30
0.0
 11
249.54644963373019
 21
159.09645991355231
 31
0.0
  0
POLYLINE
  5
2B7E
  8
0
 66
     1
 10
0.0
 20
0.0
 30
0.0
 70
   128
  0
VERTEX
  5
39A1
  8
0
 10
250.3371536754496
 20
168.58227090865421
 30
0.0
  0
VERTEX
  5
39A2
  8
0
 10
249.7695709230604
 20
167.42033252041409
 30
0.0
  0
SEQEND
  5
39A3
  8
0
  0
POLYLINE
  5
2B7F
  8
0
 66
     1
 10
0.0
 20
0.0
 30
0.0
 70
   128
  0
VERTEX
  5
39A4
  8
0
 10
264.48622020189242
 20
166.06893675357151
 30
0.0
  0
VERTEX
  5
39A5
  8
0
 10
264.36133259599308
 20
167.29652356419641
 30
0.0
  0
SEQEND
  5
39A6
  8
0
  0
POLYLINE
  5
2B80
  8
0
 66
     1
 10
0.0
 20
0.0
 30
0.0
 70
   128
  0
VERTEX
  5
39A7
  8
0
 10
249.54644963373019
 20
159.09645991355231
 30
0.0
  0
VERTEX
  5
39A8
  8
0
 10
249.7904333308764
 20
158.31847401291179
 30
0.0
  0
VERTEX
  5
39A9
  8
0
 10
250.06093271304439
 20
157.7266781213884
 30
0.0
  0
VERTEX
  5
39AA
  8
0
 10
250.4476141207345
 20
157.2354278150205
 30
0.0
  0
VERTEX
  5
39AB
  8
0
 10
250.90237893391921
 20
156.85479627877521
 30
0.0
  0
VERTEX
  5
39AC
  8
0
 10
251.88047718484481
 20
156.36788593560499
 30
0.0
  0
VERTEX
  5
39AD
  8
0
 10
252.87705008168291
 20
156.105796861947
 30
0.0
  0
VERTEX
  5
39AE
  8
0
 10
253.92623478774499
 20
155.9356703045969
 30
0.0
  0
VERTEX
  5
39AF
  8
0
 10
254.9367679771461
 20
155.83984093695929
 30
0.0
  0
VERTEX
  5
39B0
  8
0
 10
255.8303601131268
 20
155.80032678276351
 30
0.0
  0
VERTEX
  5
39B1
  8
0
 10
256.59907888848858
 20
155.7922391775254
 30
0.0
  0
VERTEX
  5
39B2
  8
0
 10
257.53480562935169
 20
155.7930736425524
 30
0.0
  0
VERTEX
  5
39B3
  8
0
 10
258.58637178544478
 20
155.81014664799019
 30
0.0
  0
VERTEX
  5
39B4
  8
0
 10
259.84181557078438
 20
155.88868694335261
 30
0.0
  0
VERTEX
  5
39B5
  8
0
 10
261.01810951013641
 20
156.08161227732941
 30
0.0
  0
VERTEX
  5
39B6
  8
0
 10
262.41452992190199
 20
156.5803988459711
 30
0.0
  0
VERTEX
  5
39B7
  8
0
 10
263.11184372980671
 20
157.01120259195611
 30
0.0
  0
VERTEX
  5
39B8
  8
0
 10
263.72268283967452
 20
157.57525252133641
 30
0.0
  0
VERTEX
  5
39B9
  8
0
 10
264.17572610308002
 20
158.24746997982311
 30
0.0
  0
VERTEX
  5
39BA
  8
0
 10
264.54644929845421
 20
159.09655677110001
 30
0.0
  0
SEQEND
  5
39BB
  8
0
  0
LINE
  5
2B81
  8
0
 10
260.47433167923759
 20
170.61810107857039
 30
0.0
 11
253.61812697019951
 21
170.61810107857039
 31
0.0
  0
ARC
  5
2B82
  8
0
 10
259.95047940737248
 20
166.08667682265639
 30
0.0
 40
4.5505911330361766
 50
33.261544624191011
 51
83.808153796132274
  0
ARC
  5
2B83
  8
0
 10
254.1424195248118
 20
166.08667682265619
 30
0.0
 40
4.5505911330363107
 50
96.191846203867215
 51
146.7384553758076
  0
POLYLINE
  5
2B86
  8
0
 66
     1
 10
0.0
 20
0.0
 30
0.0
 70
   128
  0
VERTEX
  5
39BC
  8
0
 10
266.71743905399529
 20
160.1803666535024
 30
0.0
  0
VERTEX
  5
39BD
  8
0
 10
266.40839176480267
 20
161.20947437316229
 30
0.0
  0
VERTEX
  5
39BE
  8
0
 10
266.142363196654
 20
162.05260069996149
 30
0.0
  0
VERTEX
  5
39BF
  8
0
 10
265.91655751918051
 20
162.7408704343442
 30
0.0
  0
VERTEX
  5
39C0
  8
0
 10
265.7282627210447
 20
163.29817013770381
 30
0.0
  0
VERTEX
  5
39C1
  8
0
 10
265.574910214586
 20
163.74260472089099
 30
0.0
  0
VERTEX
  5
39C2
  8
0
 10
265.4541474789807
 20
164.08769326239869
 30
0.0
  0
VERTEX
  5
39C3
  8
0
 10
265.35125309829209
 20
164.37905939251229
 30
0.0
  0
VERTEX
  5
39C4
  8
0
 10
265.17534395907609
 20
164.87348737150481
 30
0.0
  0
VERTEX
  5
39C5
  8
0
 10
264.96643061046098
 20
165.4592557433252
 30
0.0
  0
VERTEX
  5
39C6
  8
0
 10
264.73651733477197
 20
166.11365513831419
 30
0.0
  0
VERTEX
  5
39C7
  8
0
 10
264.50099656586133
 20
166.82047309309289
 30
0.0
  0
VERTEX
  5
39C8
  8
0
 10
264.3283405648333
 20
167.4089782795468
 30
0.0
  0
SEQEND
  5
39C9
  8
0
  0
POLYLINE
  5
2B87
  8
0
 66
     1
 10
0.0
 20
0.0
 30
0.0
 70
   128
  0
VERTEX
  5
39CA
  8
0
 10
249.7695709230604
 20
167.42033252041409
 30
0.0
  0
VERTEX
  5
39CB
  8
0
 10
249.68284880970199
 20
167.113642263711
 30
0.0
  0
VERTEX
  5
39CC
  8
0
 10
249.54733159620841
 20
166.6812440934782
 30
0.0
  0
VERTEX
  5
39CD
  8
0
 10
249.41380461905689
 20
166.28078656226441
 30
0.0
  0
VERTEX
  5
39CE
  8
0
 10
249.28756058443869
 20
165.91541754037181
 30
0.0
  0
VERTEX
  5
39CF
  8
0
 10
249.17312665138931
 20
165.59051634699151
 30
0.0
  0
VERTEX
  5
39D0
  8
0
 10
249.07423975173921
 20
165.31235637098601
 30
0.0
  0
VERTEX
  5
39D1
  8
0
 10
248.98201180849759
 20
165.05392180711081
 30
0.0
  0
VERTEX
  5
39D2
  8
0
 10
248.8396936119029
 20
164.6550475242739
 30
0.0
  0
VERTEX
  5
39D3
  8
0
 10
248.65349428956
 20
164.12971453696539
 30
0.0
  0
VERTEX
  5
39D4
  8
0
 10
248.41884011630509
 20
163.45633478790569
 30
0.0
  0
VERTEX
  5
39D5
  8
0
 10
248.1308910087177
 20
162.60439442426011
 30
0.0
  0
VERTEX
  5
39D6
  8
0
 10
247.78471933905581
 20
161.531622577012
 30
0.0
  0
VERTEX
  5
39D7
  8
0
 10
247.3754598781893
 20
160.1803666535024
 30
0.0
  0
SEQEND
  5
39D8
  8
0
  0
POLYLINE
  5
2B88
  8
0
 66
     1
 10
0.0
 20
0.0
 30
0.0
 70
   128
  0
VERTEX
  5
39D9
  8
0
 10
247.3754328698347
 20
160.18028469711581
 30
0.0
  0
VERTEX
  5
39DA
  8
0
 10
247.22803430859551
 20
160.1394406142835
 30
0.0
  0
VERTEX
  5
39DB
  8
0
 10
246.71055237059099
 20
159.90341367155361
 30
0.0
  0
SEQEND
  5
39DC
  8
0
  0
POLYLINE
  5
2B89
  8
0
 66
     1
 10
0.0
 20
0.0
 30
0.0
 70
   128
  0
VERTEX
  5
39DD
  8
0
 10
267.38229533885209
 20
159.9034397485857
 30
0.0
  0
VERTEX
  5
39DE
  8
0
 10
266.8625605315396
 20
160.1420781198149
 30
0.0
  0
VERTEX
  5
39DF
  8
0
 10
266.71743626002763
 20
160.1803778293733
 30
0.0
  0
SEQEND
  5
39E0
  8
0
  0
ARC
  5
2B8A
  8
0
 10
245.04644946609241
 20
125.61810066133781
 30
0.0
 40
1.0
 50
180.0
 51
270.0
  0
ARC
  5
2B8B
  8
0
 10
269.0464494660925
 20
125.61810066133781
 30
0.0
 40
1.0000000000000271
 50
270.0
 51
0.0
  0
LINE
  5
2B8C
  8
0
 10
244.04644919787151
 20
156.26662509471211
 30
0.0
 11
244.04644919787151
 21
125.61810068741489
 31
0.0
  0
LINE
  5
2B8D
  8
0
 10
270.04644973431328
 20
125.61810068741489
 30
0.0
 11
270.04644973431328
 21
156.2665207865839
 31
0.0
  0
ARC
  5
2B8E
  8
0
 10
265.79788699919948
 20
155.94856998802069
 30
0.0
 40
4.2604412172646011
 50
4.2873689685632144
 51
68.167810258158539
  0
ARC
  5
2B8F
  8
0
 10
248.29818251139119
 20
155.9461407355638
 30
0.0
 40
4.2638727285173941
 50
111.8597640581139
 51
175.690280371288
  0
LINE
  5
2B91
  8
0
 10
263.54644960020289
 20
123.1181006850866
 30
0.0
 11
263.54644960020289
 21
124.61810075633269
 31
0.0
  0
LINE
  5
2B92
  8
0
 10
250.54644933198199
 20
124.61810075633269
 30
0.0
 11
250.54644933198199
 21
123.1181006850866
 31
0.0
  0
LINE
  5
2B93
  8
0
 10
250.54644933198199
 20
123.1181006850866
 30
0.0
 11
251.04644941393829
 21
122.61810066133781
 31
0.0
  0
LINE
  5
2B94
  8
0
 10
263.0464495182465
 20
122.61810066133781
 30
0.0
 11
263.54644960020289
 21
123.1181006850866
 31
0.0
  0
LINE
  5
2B95
  8
0
 10
253.04644927610261
 20
103.818100932539
 30
0.0
 11
261.0464496560823
 21
103.818100932539
 31
0.0
  0
LINE
  5
2B98
  8
0
 10
259.84644936625472
 20
102.6181011083727
 30
0.0
 11
254.24644956593011
 21
102.6181011083727
 31
0.0
  0
LINE
  5
2B9A
  8
0
 10
258.77850025654368
 20
139.8681002292042
 30
0.0
 11
260.5105510469952
 21
142.86810072094241
 31
0.0
  0
LINE
  5
2B9B
  8
0
 10
260.5105510469952
 20
142.86810072094241
 30
0.0
 11
258.77850025654368
 21
145.86810121268081
 31
0.0
  0
LINE
  5
2B9C
  8
0
 10
258.77850025654368
 20
145.86810121268081
 30
0.0
 11
255.3143986756408
 21
145.86810121268081
 31
0.0
  0
LINE
  5
2B9D
  8
0
 10
255.3143986756408
 20
145.86810121268081
 30
0.0
 11
253.58234788518931
 21
142.86810072094241
 31
0.0
  0
LINE
  5
2B9E
  8
0
 10
253.58234788518931
 20
142.86810072094241
 30
0.0
 11
255.3143986756408
 21
139.8681002292042
 31
0.0
  0
LINE
  5
2B9F
  8
0
 10
255.3143986756408
 20
139.8681002292042
 30
0.0
 11
258.77850025654368
 21
139.8681002292042
 31
0.0
  0
LINE
  5
2BA4
  8
0
 10
253.61812697019951
 20
170.61499046117109
 30
0.0
 11
253.6501861200162
 21
170.6072195056085
 31
0.0
  0
POLYLINE
  5
2BA5
  8
0
 66
     1
 10
0.0
 20
0.0
 30
0.0
 70
   128
  0
VERTEX
  5
39E1
  8
0
 10
260.44255867828213
 20
170.60803906947419
 30
0.0
  0
VERTEX
  5
39E2
  8
0
 10
260.46531461407028
 20
170.6176205161218
 30
0.0
  0
VERTEX
  5
39E3
  8
0
 10
260.47433167923759
 20
170.6156870904569
 30
0.0
  0
SEQEND
  5
39E4
  8
0
  0
LINE
  5
2BA6
  8
0
 10
264.54644929845432
 20
153.2591572585707
 30
0.0
 11
264.54644929845432
 21
151.61269815594
 31
0.0
  0
LINE
  5
2BA7
  8
0
 10
249.5464496337303
 20
151.61269815594
 30
0.0
 11
249.5464496337303
 21
153.25907716482919
 31
0.0
  0
LINE
  5
2BA8
  8
0
 10
264.54644929845432
 20
151.61269815594
 30
0.0
 11
264.54644929845432
 21
135.61810092955869
 31
0.0
  0
ARC
  5
2BAA
  8
0
 10
260.54644946609238
 20
135.61810066133791
 30
0.0
 40
4.0000000000000062
 50
318.18968510422212
 51
0.0000000000004071
  0
LINE
  5
2BAB
  8
0
 10
254.9464495409706
 20
131.61810027390769
 30
0.0
 11
253.54644935805891
 21
131.61810027390769
 31
0.0
  0
LINE
  5
2BAC
  8
0
 10
260.54644957412569
 20
131.61810027390769
 30
0.0
 11
259.14644939121388
 21
131.61810027390769
 31
0.0
  0
ARC
  5
2BAD
  8
0
 10
257.04644946609238
 20
86.500713682680924
 30
0.0
 40
45.166232657901858
 50
87.335077134694487
 51
92.664922865305513
  0
ARC
  5
2BAE
  8
0
 10
260.54635620132188
 20
135.61830839216
 30
0.0
 40
4.000208119342056
 50
270.00133739731041
 51
318.1883561965634
  0
LINE
  5
2BAF
  8
0
 10
249.5464496337303
 20
135.61810092955869
 30
0.0
 11
249.5464496337303
 21
151.61269815594
 31
0.0
  0
ARC
  5
2BB0
  8
0
 10
253.54646176965659
 20
135.61812735743581
 30
0.0
 40
4.0000270835473506
 50
221.81048418796641
 51
269.99982221816271
  0
ARC
  5
2BB1
  8
0
 10
253.5464494660923
 20
135.61810066133791
 30
0.0
 40
4.0000000000000284
 50
179.9999999999996
 51
221.8103148957793
  0
LINE
  5
2BB4
  8
0
 10
253.52131459158451
 20
124.61810075633269
 30
0.0
 11
250.5247336835096
 21
124.61810075633269
 31
0.0
  0
LINE
  5
2BB5
  8
0
 10
263.56816524867509
 20
124.61810075633269
 30
0.0
 11
260.57158434060011
 21
124.61810075633269
 31
0.0
  0
LINE
  5
2BB6
  8
0
 10
260.57158434060011
 20
124.61810075633269
 30
0.0
 11
253.52131459158451
 21
124.61810075633269
 31
0.0
  0
LINE
  5
2BB7
  8
0
 10
266.17688453052727
 20
124.61810075633269
 30
0.0
 11
263.56816524867509
 21
124.61810075633269
 31
0.0
  0
LINE
  5
2BB8
  8
0
 10
250.5247336835096
 20
124.61810075633269
 30
0.0
 11
247.91601440165741
 21
124.61810075633269
 31
0.0
  0
LINE
  5
2BB9
  8
0
 10
247.91601440165741
 20
124.61810075633269
 30
0.0
 11
245.04644936178431
 21
124.61810075633269
 31
0.0
  0
LINE
  5
2BBA
  8
0
 10
269.04644957040063
 20
124.61810075633269
 30
0.0
 11
266.17688453052727
 21
124.61810075633269
 31
0.0
  0
LINE
  5
2BC1
  8
0
 10
250.54644933198199
 20
123.1181006850866
 30
0.0
 11
263.54644960020289
 21
123.1181006850866
 31
0.0
  0
LINE
  5
2BC2
  8
0
 10
263.0464495182465
 20
122.61810066133781
 30
0.0
 11
251.04644941393829
 21
122.61810066133781
 31
0.0
  0
LINE
  5
2BC5
  8
0
 10
118.7979856101565
 20
122.61810066133781
 30
0.0
 11
118.7979856101565
 21
103.8181009325389
 31
0.0
  0
LINE
  5
2BC6
  8
0
 10
126.7979859901362
 20
103.8181009325389
 30
0.0
 11
126.7979859901362
 21
122.61810066133781
 31
0.0
  0
LINE
  5
2BC7
  8
0
 10
118.7979856101565
 20
103.8181009325389
 30
0.0
 11
119.9979858999841
 21
102.6181011083726
 31
0.0
  0
LINE
  5
2BC8
  8
0
 10
125.5979857003086
 20
102.6181011083726
 30
0.0
 11
126.7979859901362
 21
103.8181009325389
 31
0.0
  0
ARC
  5
2BCC
  8
0
 10
111.7979922815759
 20
152.25523558906471
 30
0.0
 40
2.0000067496552201
 50
111.3089401503303
 51
179.99987501414029
  0
LINE
  5
2BCD
  8
0
 10
109.79798553192541
 20
152.255239951909
 30
0.0
 11
109.79798553192551
 21
125.6181006874148
 31
0.0
  0
ARC
  5
2BCF
  8
0
 10
110.79798580014629
 20
125.61810066133781
 30
0.0
 40
1.0
 50
180.0
 51
270.0000000000008
  0
ARC
  5
2BD2
  8
0
 10
192.79797546687189
 20
164.84378947775741
 30
0.0
 40
5.0000133135188767
 50
0.0001266847441595
 51
81.469962254835096
  0
LINE
  5
2BD3
  8
0
 10
197.7979887803786
 20
159.2800384941701
 30
0.0
 11
197.7979887803786
 21
164.8450969341402
 31
0.0
  0
ARC
  5
2BD4
  8
0
 10
194.29798253310591
 20
159.2802033807676
 30
0.0
 40
3.5000062472828821
 50
256.70334814793489
 51
359.99986209086188
  0
LINE
  5
2BD5
  8
0
 10
112.2979859417074
 20
158.618099111617
 30
0.0
 11
112.2979859417074
 21
154.59326567083639
 31
0.0
  0
ARC
  5
2BD6
  8
0
 10
114.29798580014619
 20
158.61810066133779
 30
0.0
 40
2.0
 50
90.0
 51
180.0
  0
LINE
  5
2BD7
  8
0
 10
116.2979856660359
 20
123.1181006850865
 30
0.0
 11
116.7979857479923
 21
122.61810066133781
 31
0.0
  0
LINE
  5
2BD8
  8
0
 10
128.7979858523004
 20
122.61810066133781
 30
0.0
 11
129.29798593425679
 21
123.1181006850865
 31
0.0
  0
LINE
  5
2BD9
  8
0
 10
129.29798593425679
 20
123.1181006850865
 30
0.0
 11
129.29798593425679
 21
124.61810075633269
 31
0.0
  0
LINE
  5
2BDA
  8
0
 10
116.2979856660359
 20
124.61810075633269
 30
0.0
 11
116.2979856660359
 21
123.1181006850865
 31
0.0
  0
LINE
  5
2BDB
  8
0
 10
118.7979856101565
 20
103.8181009325389
 30
0.0
 11
126.7979859901362
 21
103.8181009325389
 31
0.0
  0
LINE
  5
2BDC
  8
0
 10
125.5979857003086
 20
102.6181011083726
 30
0.0
 11
119.9979858999841
 21
102.6181011083726
 31
0.0
  0
ARC
  5
2C10
  8
0
 10
207.73400995223091
 20
-93.693986030988725
 30
0.0
 40
265.99761867448711
 50
107.47695897619511
 51
111.3089823262459
  0
LINE
  5
2C16
  8
0
 10
130.58484416136071
 20
124.61810075633269
 30
0.0
 11
110.79798569583819
 21
124.61810075633269
 31
0.0
  0
POLYLINE
  5
2C17
  8
0
 66
     1
 10
0.0
 20
0.0
 30
0.0
 70
   128
  0
VERTEX
  5
39E5
  8
0
 10
127.84900772997671
 20
160.0245973649624
 30
0.0
  0
VERTEX
  5
39E6
  8
0
 10
130.32302889653971
 20
160.79034196168229
 30
0.0
  0
VERTEX
  5
39E7
  8
0
 10
130.61919087225129
 20
160.8802443924551
 30
0.0
  0
SEQEND
  5
39E8
  8
0
  0
LINE
  5
2C18
  8
0
 10
132.83276395553281
 20
161.54029505282679
 30
0.0
 11
130.61919087225129
 21
160.8802443924551
 31
0.0
  0
LINE
  5
2C19
  8
0
 10
132.83233182185819
 20
161.5401683929567
 30
0.0
 11
132.97578064405849
 21
161.58221946984571
 31
0.0
  0
LINE
  5
2C1A
  8
0
 10
137.03194843286201
 20
124.61810075633269
 30
0.0
 11
130.58484416136071
 21
124.61810075633269
 31
0.0
  0
ARC
  5
2C1B
  8
0
 10
207.73467986299539
 20
-93.695678972872585
 30
0.0
 40
265.99943316811408
 50
97.617739919868953
 51
106.3228277812606
  0
POLYLINE
  5
2C1C
  8
0
 66
     1
 10
0.0
 20
0.0
 30
0.0
 70
   128
  0
VERTEX
  5
39E9
  8
0
 10
130.62930969202449
 20
160.8833065810804
 30
0.0
  0
VERTEX
  5
39EA
  8
0
 10
130.68768778496911
 20
160.90097935825631
 30
0.0
  0
VERTEX
  5
39EB
  8
0
 10
132.774589822232
 20
161.5232108715181
 30
0.0
  0
VERTEX
  5
39EC
  8
0
 10
132.83188944363519
 20
161.5400380077962
 30
0.0
  0
SEQEND
  5
39ED
  8
0
  0
LINE
  5
2C1D
  8
0
 10
141.3865026613467
 20
127.4275272707645
 30
0.0
 11
140.85288835370471
 21
125.4931006669257
 31
0.0
  0
ARC
  5
2C1E
  8
0
 10
178.77336339385531
 20
93.589616368627077
 30
0.0
 40
64.000127409199436
 50
89.935260090817124
 51
104.76046751516169
  0
ARC
  5
2C1F
  8
0
 10
139.86073186695259
 20
125.61810066133781
 30
0.0
 40
1.0000000000000171
 50
270.00000000000171
 51
352.81924421854262
  0
LINE
  5
2C20
  8
0
 10
139.8607317885153
 20
124.61810075633269
 30
0.0
 11
137.03194843286201
 21
124.61810075633269
 31
0.0
  0
POLYLINE
  5
2C21
  8
0
 66
     1
 10
0.0
 20
0.0
 30
0.0
 70
   128
  0
VERTEX
  5
39EE
  8
0
 10
162.43619216287061
 20
155.4692118051652
 30
0.0
  0
VERTEX
  5
39EF
  8
0
 10
162.4316212316744
 20
155.46795265704441
 30
0.0
  0
VERTEX
  5
39F0
  8
0
 10
162.31770185434749
 20
155.43518127828881
 30
0.0
  0
SEQEND
  5
39F1
  8
0
  0
ARC
  5
2C22
  8
0
 10
163.5114536781561
 20
151.55586374410689
 30
0.0
 40
4.058386681628054
 50
104.7724712692012
 51
105.3622278910958
  0
ARC
  5
2C23
  8
0
 10
163.13118649105689
 20
152.16557193028041
 30
0.0
 40
3.3787418142781389
 50
101.1185958578761
 51
189.417833707086
  0
ARC
  5
2C24
  8
0
 10
182.4122714556361
 20
95.595070172375344
 30
0.0
 40
75.02320927894344
 50
81.470494246147183
 51
83.851163211963055
  0
POLYLINE
  5
2C25
  8
0
 66
     1
 10
0.0
 20
0.0
 30
0.0
 70
   128
  0
VERTEX
  5
39F2
  8
0
 10
193.493006058573
 20
155.87402420073781
 30
0.0
  0
VERTEX
  5
39F3
  8
0
 10
193.50000215375351
 20
155.8723701718454
 30
0.0
  0
VERTEX
  5
39F4
  8
0
 10
193.50443524920871
 20
155.8713196399811
 30
0.0
  0
VERTEX
  5
39F5
  8
0
 10
193.48942977988639
 20
155.8748698416357
 30
0.0
  0
VERTEX
  5
39F6
  8
0
 10
193.34231061541959
 20
155.9094442608957
 30
0.0
  0
VERTEX
  5
39F7
  8
0
 10
193.20781273448401
 20
155.94073297411251
 30
0.0
  0
VERTEX
  5
39F8
  8
0
 10
193.03261978232791
 20
155.98103316456121
 30
0.0
  0
VERTEX
  5
39F9
  8
0
 10
192.44723511540809
 20
156.11193614035881
 30
0.0
  0
VERTEX
  5
39FA
  8
0
 10
191.61453587615409
 20
156.28825785547539
 30
0.0
  0
VERTEX
  5
39FB
  8
0
 10
190.59680146777561
 20
156.4881196799879
 30
0.0
  0
VERTEX
  5
39FC
  8
0
 10
189.4821275552504
 20
156.6874599638586
 30
0.0
  0
SEQEND
  5
39FD
  8
0
  0
ARC
  5
2C26
  8
0
 10
182.41520914796291
 20
95.618946360318489
 30
0.0
 40
74.999155790577873
 50
83.851440813785956
 51
92.903532303178579
  0
ARC
  5
2C27
  8
0
 10
147.79798580014631
 20
124.61810066133781
 30
0.0
 40
6.9999999999999867
 50
90.0
 51
156.337607172546
  0
LINE
  5
2C28
  8
0
 10
157.79798459613249
 20
131.61810027390749
 30
0.0
 11
147.79798617267539
 21
131.61810027390749
 31
0.0
  0
LINE
  5
2C29
  8
0
 10
159.7979849239581
 20
151.61269815594
 30
0.0
 11
159.7979849239581
 21
135.61810092955869
 31
0.0
  0
LINE
  5
2C2A
  8
0
 10
159.7979849239581
 20
135.61810092955869
 30
0.0
 11
159.7979849239581
 21
133.6181006017332
 31
0.0
  0
ARC
  5
2C2B
  8
0
 10
178.77333654892081
 20
93.5897499753994
 30
0.0
 40
63.999993832850841
 50
80.367682061298893
 51
89.935235922843589
  0
ARC
  5
2C2C
  8
0
 10
182.41504993059471
 20
95.619635658334403
 30
0.0
 40
74.998459312482524
 50
92.903437498170106
 51
97.617806532347686
  0
LINE
  5
2C2D
  8
0
 10
162.4682482858889
 20
155.4778991821413
 30
0.0
 11
162.43630392157959
 21
155.46924533277789
 31
0.0
  0
ARC
  5
2C2E
  8
0
 10
157.79796797002959
 20
133.618117227836
 30
0.0
 40
2.0000169539975841
 50
270.00047629872722
 51
359.99952370127528
  0
LINE
  5
2C30
  8
0
 10
122.79798580014641
 20
160.6180994394426
 30
0.0
 11
129.7960679573707
 21
160.6180994394426
 31
0.0
  0
LINE
  5
2C31
  8
0
 10
114.2979853382104
 20
160.6180994394426
 30
0.0
 11
122.79798580014641
 21
160.6180994394426
 31
0.0
  0
LINE
  5
2C32
  8
0
 10
128.7979858523004
 20
122.61810066133781
 30
0.0
 11
116.7979857479923
 21
122.61810066133781
 31
0.0
  0
LINE
  5
2C33
  8
0
 10
116.2979856660359
 20
123.1181006850865
 30
0.0
 11
129.29798593425679
 21
123.1181006850865
 31
0.0
  0
LINE
  5
2C41
  8
0
 10
118.7979856101565
 20
122.61810066133781
 30
0.0
 11
118.7979856101565
 21
103.8181009325389
 31
0.0
  0
LINE
  5
2C42
  8
0
 10
126.7979859901362
 20
103.8181009325389
 30
0.0
 11
126.7979859901362
 21
122.61810066133781
 31
0.0
  0
LINE
  5
2C43
  8
0
 10
118.7979856101565
 20
103.8181009325389
 30
0.0
 11
119.9979858999841
 21
102.6181011083726
 31
0.0
  0
LINE
  5
2C44
  8
0
 10
125.5979857003086
 20
102.6181011083726
 30
0.0
 11
126.7979859901362
 21
103.8181009325389
 31
0.0
  0
ARC
  5
2C53
  8
0
 10
114.29798580014619
 20
158.61810066133779
 30
0.0
 40
2.0
 50
90.0
 51
166.28699954072991
  0
LINE
  5
2C54
  8
0
 10
129.29798593425679
 20
123.1181006850865
 30
0.0
 11
129.29798593425679
 21
124.61810075633269
 31
0.0
  0
LINE
  5
2C55
  8
0
 10
116.2979856660359
 20
124.61810075633269
 30
0.0
 11
116.2979856660359
 21
123.1181006850865
 31
0.0
  0
LINE
  5
2C56
  8
0
 10
116.2979856660359
 20
123.1181006850865
 30
0.0
 11
116.7979857479923
 21
122.61810066133781
 31
0.0
  0
LINE
  5
2C57
  8
0
 10
128.7979858523004
 20
122.61810066133781
 30
0.0
 11
129.29798593425679
 21
123.1181006850865
 31
0.0
  0
LINE
  5
2C5C
  8
0
 10
118.7979856101565
 20
103.8181009325389
 30
0.0
 11
126.7979859901362
 21
103.8181009325389
 31
0.0
  0
LINE
  5
2C5D
  8
0
 10
125.5979857003086
 20
102.6181011083726
 30
0.0
 11
119.9979858999841
 21
102.6181011083726
 31
0.0
  0
LINE
  5
2C94
  8
0
 10
123.7979858476438
 20
124.61810075633269
 30
0.0
 11
131.2979862620823
 21
124.61810075633269
 31
0.0
  0
LINE
  5
2C95
  8
0
 10
114.2979853382104
 20
124.61810075633269
 30
0.0
 11
121.7979857526489
 21
124.61810075633269
 31
0.0
  0
LINE
  5
2CB2
  8
0
 10
159.7979849239581
 20
140.1181007358436
 30
0.0
 11
159.7979849239581
 21
138.11810040801811
 31
0.0
  0
LINE
  5
2CB7
  8
0
 10
114.2979853382104
 20
160.6180994394426
 30
0.0
 11
116.3020303999775
 21
160.6180994394426
 31
0.0
  0
LINE
  5
2CB9
  8
0
 10
123.7979858476438
 20
124.61810075633269
 30
0.0
 11
121.7979857526489
 21
124.61810075633269
 31
0.0
  0
LINE
  5
2CBA
  8
0
 10
128.7979858523004
 20
122.61810066133781
 30
0.0
 11
116.7979857479923
 21
122.61810066133781
 31
0.0
  0
CIRCLE
  5
2CBE
  8
0
 10
122.79798580014641
 20
58.303211438864572
 30
0.0
 40
4.0
  0
LINE
  5
2CC1
  8
0
 10
154.55946070754459
 20
59.39979941623659
 30
0.0
 11
154.07905099594521
 21
58.03871940744483
 31
0.0
  0
LINE
  5
2CC2
  8
0
 10
154.07905099594521
 20
58.03871940744483
 30
0.0
 11
155.01757455670759
 21
56.942131459176551
 31
0.0
  0
LINE
  5
2CC3
  8
0
 10
155.01757455670759
 20
56.942131459176551
 30
0.0
 11
156.4365115543597
 21
57.20662346149237
 31
0.0
  0
LINE
  5
2CC4
  8
0
 10
156.4365115543597
 20
57.20662346149237
 30
0.0
 11
156.91692126595899
 21
58.56770347028413
 31
0.0
  0
LINE
  5
2CC5
  8
0
 10
156.91692126595899
 20
58.56770347028413
 30
0.0
 11
155.97839770519661
 21
59.664291418552409
 31
0.0
  0
LINE
  5
2CC6
  8
0
 10
155.97839770519661
 20
59.664291418552409
 30
0.0
 11
154.55946070754459
 21
59.39979941623659
 31
0.0
  0
CIRCLE
  5
2CC7
  8
0
 10
125.04798580014629
 20
65.300353712678856
 30
0.0
 40
0.5999999999999944
  0
LINE
  5
2CC8
  8
0
 10
123.7979858476438
 20
64.725827514588858
 30
0.0
 11
123.7979858476438
 21
66.744182813376213
 31
0.0
  0
ARC
  5
2CC9
  8
0
 10
122.79798580014641
 20
58.303211438864501
 30
0.0
 40
8.5000000000000053
 50
96.756327030587812
 51
83.243672969412174
  0
LINE
  5
2CCA
  8
0
 10
121.7979857526489
 20
66.744182813376213
 30
0.0
 11
121.7979857526489
 21
64.725827514588858
 31
0.0
  0
CIRCLE
  5
2CCB
  8
0
 10
120.54798580014641
 20
65.300353712678856
 30
0.0
 40
0.6000000000000088
  0
ARC
  5
2CCD
  8
0
 10
137.7227973567457
 20
40.803211438864487
 30
0.0
 40
10.000000000000011
 50
93.600801403372998
 51
130.4590830807893
  0
ARC
  5
2CCE
  8
0
 10
136.84637539048961
 20
54.782278813688862
 30
0.0
 40
4.0065151669886081
 50
273.5542289837702
 51
359.93990508327067
  0
ARC
  5
2CCF
  8
0
 10
122.79798580014641
 20
58.303211438864501
 30
0.0
 40
13.0
 50
49.54091691921051
 51
310.45908308079009
  0
CIRCLE
  5
2CD0
  8
0
 10
122.79798580014641
 20
58.303211438864501
 30
0.0
 40
9.0
  0
ARC
  5
2CD1
  8
0
 10
136.8482673211644
 20
61.825923997263878
 30
0.0
 40
4.0046217651458242
 50
0.0346570803087541
 51
86.471208852652737
  0
ARC
  5
2CD2
  8
0
 10
137.7227973567457
 20
75.803211438864494
 30
0.0
 40
10.00000000000002
 50
229.5409169192113
 51
266.39919859663229
  0
POLYLINE
  5
2CD3
  8
0
 66
     1
 10
0.0
 20
0.0
 30
0.0
 70
   128
  0
VERTEX
  5
39FE
  8
0
 10
137.0947521706812
 20
65.822952981501842
 30
0.0
  0
VERTEX
  5
39FF
  8
0
 10
137.30515004748031
 20
65.811936832428003
 30
0.0
  0
VERTEX
  5
3A00
  8
0
 10
137.72279699945381
 20
65.803211271226431
 30
0.0
  0
SEQEND
  5
3A01
  8
0
  0
POLYLINE
  5
2CD4
  8
0
 66
     1
 10
0.0
 20
0.0
 30
0.0
 70
   128
  0
VERTEX
  5
3A02
  8
0
 10
137.72279699945381
 20
50.803211606502543
 30
0.0
  0
VERTEX
  5
3A03
  8
0
 10
137.3095896621935
 20
50.794670912832032
 30
0.0
  0
VERTEX
  5
3A04
  8
0
 10
137.0947521706812
 20
50.78346989622716
 30
0.0
  0
SEQEND
  5
3A05
  8
0
  0
LINE
  5
2CD5
  8
0
 10
147.79798617267539
 20
50.803211606502501
 30
0.0
 11
137.72279699945381
 21
50.803211606502543
 31
0.0
  0
LINE
  5
2CD6
  8
0
 10
137.72279699945381
 20
65.803211271226431
 30
0.0
 11
147.79798617267539
 21
65.803211271226402
 31
0.0
  0
LINE
  5
2CD7
  8
0
 10
158.79798580014639
 20
50.803211438864452
 30
0.0
 11
147.79798617267539
 21
50.803211606502501
 31
0.0
  0
LINE
  5
2CD8
  8
0
 10
159.7979849239581
 20
64.803211572974917
 30
0.0
 11
159.7979849239581
 21
51.803211304754001
 31
0.0
  0
LINE
  5
2CDB
  8
0
 10
147.79798617267539
 20
65.803211271226402
 30
0.0
 11
158.79798662269039
 21
65.803211271226402
 31
0.0
  0
ARC
  5
2CDD
  8
0
 10
158.79798580014639
 20
51.803211438864452
 30
0.0
 40
1.0
 50
270.00000000000171
 51
0.0
  0
ARC
  5
2CDE
  8
0
 10
158.6405255638465
 20
64.737989273454545
 30
0.0
 40
1.1592963941443539
 50
3.2251708970797832
 51
66.758869500038472
  0
POLYLINE
  5
2CE0
  8
0
 66
     1
 10
0.0
 20
0.0
 30
0.0
 70
   128
  0
VERTEX
  5
3A06
  8
0
 10
129.4772287426286
 20
69.456135477334257
 30
0.0
  0
VERTEX
  5
3A07
  8
0
 10
131.4972147872441
 20
68.53379457762837
 30
0.0
  0
VERTEX
  5
3A08
  8
0
 10
133.76413309627699
 20
68.071581046491843
 30
0.0
  0
SEQEND
  5
3A09
  8
0
  0
POLYLINE
  5
2CE1
  8
0
 66
     1
 10
0.0
 20
0.0
 30
0.0
 70
   128
  0
VERTEX
  5
3A0A
  8
0
 10
133.76413309627699
 20
48.53484183123706
 30
0.0
  0
VERTEX
  5
3A0B
  8
0
 10
131.54784241372269
 20
48.089092220574599
 30
0.0
  0
VERTEX
  5
3A0C
  8
0
 10
129.4772287426286
 20
47.15028740039466
 30
0.0
  0
SEQEND
  5
3A0D
  8
0
  0
POLYLINE
  5
2CE2
  8
0
 66
     1
 10
0.0
 20
0.0
 30
0.0
 70
   128
  0
VERTEX
  5
3A0E
  8
0
 10
133.76413309627699
 20
68.071581046491843
 30
0.0
  0
VERTEX
  5
3A0F
  8
0
 10
138.47040129506519
 20
67.683672155648424
 30
0.0
  0
VERTEX
  5
3A10
  8
0
 10
143.52335897886681
 20
67.298416602820112
 30
0.0
  0
VERTEX
  5
3A11
  8
0
 10
148.8672916373007
 20
66.926111090391814
 30
0.0
  0
SEQEND
  5
3A12
  8
0
  0
POLYLINE
  5
2CE3
  8
0
 66
     1
 10
0.0
 20
0.0
 30
0.0
 70
   128
  0
VERTEX
  5
3A13
  8
0
 10
148.8564044764035
 20
49.67959001234167
 30
0.0
  0
VERTEX
  5
3A14
  8
0
 10
143.47896096908971
 20
49.304761547058767
 30
0.0
  0
VERTEX
  5
3A15
  8
0
 10
138.43608578348091
 20
48.920023809581927
 30
0.0
  0
VERTEX
  5
3A16
  8
0
 10
133.76413309627699
 20
48.53484183123706
 30
0.0
  0
SEQEND
  5
3A17
  8
0
  0
POLYLINE
  5
2CE4
  8
0
 66
     1
 10
0.0
 20
0.0
 30
0.0
 70
   128
  0
VERTEX
  5
3A18
  8
0
 10
159.26462156379151
 20
50.30136797150962
 30
0.0
  0
VERTEX
  5
3A19
  8
0
 10
153.9454229702942
 20
50.000676508456401
 30
0.0
  0
VERTEX
  5
3A1A
  8
0
 10
148.8564044764035
 20
49.67959001234167
 30
0.0
  0
SEQEND
  5
3A1B
  8
0
  0
POLYLINE
  5
2CE5
  8
0
 66
     1
 10
0.0
 20
0.0
 30
0.0
 70
   128
  0
VERTEX
  5
3A1C
  8
0
 10
148.8675505449765
 20
66.926094326585471
 30
0.0
  0
VERTEX
  5
3A1D
  8
0
 10
153.9352771421664
 20
66.606353591591059
 30
0.0
  0
VERTEX
  5
3A1E
  8
0
 10
159.2646476408236
 20
66.305053974896609
 30
0.0
  0
SEQEND
  5
3A1F
  8
0
  0
LINE
  5
2CE6
  8
0
 10
158.4985648303572
 20
50.803211606502458
 30
0.0
 11
158.49798662269041
 21
50.803211606502458
 31
0.0
  0
LINE
  5
2CE7
  8
0
 10
158.79798662269039
 20
65.803211271226346
 30
0.0
 11
159.0979858001464
 21
65.803211438864466
 31
0.0
  0
POLYLINE
  5
2CE8
  8
0
 66
     1
 10
0.0
 20
0.0
 30
0.0
 70
   128
  0
VERTEX
  5
3A20
  8
0
 10
162.15699283087179
 20
50.449905540257618
 30
0.0
  0
VERTEX
  5
3A21
  8
0
 10
161.4516612669222
 20
50.414654980808422
 30
0.0
  0
VERTEX
  5
3A22
  8
0
 10
160.69839266741201
 20
50.376316155701801
 30
0.0
  0
VERTEX
  5
3A23
  8
0
 10
159.98877701961919
 20
50.339545677810833
 30
0.0
  0
VERTEX
  5
3A24
  8
0
 10
159.26462156379151
 20
50.30136797150962
 30
0.0
  0
SEQEND
  5
3A25
  8
0
  0
POLYLINE
  5
2CE9
  8
0
 66
     1
 10
0.0
 20
0.0
 30
0.0
 70
   128
  0
VERTEX
  5
3A26
  8
0
 10
159.2646476408236
 20
66.305053974896609
 30
0.0
  0
VERTEX
  5
3A27
  8
0
 10
160.19854811632561
 20
66.255941610246822
 30
0.0
  0
VERTEX
  5
3A28
  8
0
 10
161.20512155496999
 20
66.204237374871894
 30
0.0
  0
VERTEX
  5
3A29
  8
0
 10
162.1562291463606
 20
66.156555521696731
 30
0.0
  0
SEQEND
  5
3A2A
  8
0
  0
POLYLINE
  5
2CEA
  8
0
 66
     1
 10
0.0
 20
0.0
 30
0.0
 70
   128
  0
VERTEX
  5
3A2B
  8
0
 10
178.90485865676331
 20
51.1030350769161
 30
0.0
  0
VERTEX
  5
3A2C
  8
0
 10
174.66170085275101
 20
50.970918587803723
 30
0.0
  0
VERTEX
  5
3A2D
  8
0
 10
170.4581317087405
 20
50.817721612214953
 30
0.0
  0
VERTEX
  5
3A2E
  8
0
 10
166.03361559712809
 20
50.632467582285329
 30
0.0
  0
VERTEX
  5
3A2F
  8
0
 10
162.15698910558149
 20
50.449905540257618
 30
0.0
  0
SEQEND
  5
3A30
  8
0
  0
POLYLINE
  5
2CEB
  8
0
 66
     1
 10
0.0
 20
0.0
 30
0.0
 70
   128
  0
VERTEX
  5
3A31
  8
0
 10
162.1562365969412
 20
66.156554590374157
 30
0.0
  0
VERTEX
  5
3A32
  8
0
 10
166.1703337510817
 20
65.967862117499038
 30
0.0
  0
VERTEX
  5
3A33
  8
0
 10
170.4673182746165
 20
65.788342240661294
 30
0.0
  0
VERTEX
  5
3A34
  8
0
 10
174.6636715313189
 20
65.635437700360924
 30
0.0
  0
VERTEX
  5
3A35
  8
0
 10
178.90485865676331
 20
65.503387800812632
 30
0.0
  0
SEQEND
  5
3A36
  8
0
  0
ARC
  5
2CEC
  8
0
 10
190.2979852663704
 20
58.303211438864381
 30
0.0
 40
7.5000002290525103
 50
265.4396457782882
 51
94.560354221712629
  0
ARC
  5
2CED
  8
0
 10
181.75077922613079
 20
-48.856377146244142
 30
0.0
 40
99.999916779399527
 50
85.439659983003935
 51
91.630813922309045
  0
ARC
  5
2CEE
  8
0
 10
181.7507863556591
 20
165.4625212055725
 30
0.0
 40
99.999638276835398
 50
268.36917744800093
 51
274.56034864668783
  0
CIRCLE
  5
2CEF
  8
0
 10
122.79798580014641
 20
58.303211438864501
 30
0.0
 40
6.0000000000000071
  0
CIRCLE
  5
2CF0
  8
0
 10
122.79798580014641
 20
58.303211438864501
 30
0.0
 40
6.5
  0
CIRCLE
  5
2CF1
  8
0
 10
122.79798580014641
 20
58.303211438864501
 30
0.0
 40
4.6000000000000014
  0
LINE
  5
2DBD
  8
0
 10
140.85288835370471
 20
61.828346313372279
 30
0.0
 11
140.85288835370471
 21
54.778076564356788
 31
0.0
  0
POLYLINE
  5
2DBE
  8
0
 66
     1
 10
0.0
 20
0.0
 30
0.0
 70
   128
  0
VERTEX
  5
3A37
  8
0
 10
249.72892041573971
 20
167.27657317181789
 30
0.0
  0
VERTEX
  5
3A38
  8
0
 10
249.6057893172331
 20
166.068780291379
 30
0.0
  0
SEQEND
  5
3A39
  8
0
  0
POLYLINE
  5
2DBF
  8
0
 66
     1
 10
0.0
 20
0.0
 30
0.0
 70
   128
  0
VERTEX
  5
3A3A
  8
0
 10
264.32834056483341
 20
167.40897827954669
 30
0.0
  0
VERTEX
  5
3A3B
  8
0
 10
263.75614060316758
 20
168.5817307415609
 30
0.0
  0
SEQEND
  5
3A3C
  8
0
  0
LINE
  5
2E05
  8
0
 10
54.835288932576411
 20
103.8181009325389
 30
0.0
 11
54.835288932576411
 21
122.6180945365779
 31
0.0
  0
LINE
  5
2E07
  8
3
 10
62.15878893257652
 20
103.1416008150761
 30
0.0
 11
62.15878893257652
 21
122.6180945365779
 31
0.0
  0
LINE
  5
2E08
  8
3
 10
55.511788932576287
 20
103.1416011950555
 30
0.0
 11
55.511788932576287
 21
122.6180945365779
 31
0.0
  0
LINE
  5
2E0A
  8
0
 10
126.7979856101566
 20
103.8181009325389
 30
0.0
 11
126.7979856101566
 21
122.6180945365779
 31
0.0
  0
LINE
  5
2E0B
  8
3
 10
126.1214856101567
 20
103.1416008150761
 30
0.0
 11
126.1214856101567
 21
122.6180945365779
 31
0.0
  0
LINE
  5
2E0C
  8
3
 10
119.47448561015641
 20
103.1416011950555
 30
0.0
 11
119.47448561015641
 21
122.6180945365779
 31
0.0
  0
LINE
  5
2E0D
  8
0
 10
118.7979856101565
 20
103.8181009325389
 30
0.0
 11
118.7979856101565
 21
122.6180945365779
 31
0.0
  0
LINE
  5
2E0E
  8
0
 10
261.04644927610258
 20
103.818100932539
 30
0.0
 11
261.04644927610258
 21
122.618094536578
 31
0.0
  0
LINE
  5
2E0F
  8
3
 10
260.36994927610272
 20
103.1416008150761
 30
0.0
 11
260.36994927610272
 21
122.618094536578
 31
0.0
  0
LINE
  5
2E10
  8
3
 10
253.7229492761025
 20
103.1416011950556
 30
0.0
 11
253.7229492761025
 21
122.618094536578
 31
0.0
  0
LINE
  5
2E11
  8
0
 10
253.04644927610261
 20
103.818100932539
 30
0.0
 11
253.04644927610261
 21
122.618094536578
 31
0.0
  0
LINE
  5
2E1A
  8
0
 10
253.7229492761025
 20
103.818100932539
 30
0.0
 11
253.7229492761025
 21
103.818100932539
 31
0.0
  0
LINE
  5
2E1F
  8
1
 10
122.79798580014641
 20
41.303211438864487
 30
0.0
 11
122.79798580014641
 21
75.303211438864523
 31
0.0
  0
LINE
  5
2E20
  8
1
 10
257.04644946609238
 20
98.618101108372727
 30
0.0
 11
257.04644946609238
 21
174.61810107857039
 31
0.0
  0
LINE
  5
2E21
  8
1
 10
105.79798580014641
 20
58.303211438864572
 30
0.0
 11
201.79798549542289
 21
58.303211438864572
 31
0.0
  0
LINE
  5
2E22
  8
1
 10
267.0464494660925
 20
142.86810066133779
 30
0.0
 11
247.04644946609241
 21
142.86810066133779
 31
0.0
  0
LINE
  5
2E23
  8
1
 10
201.79798543142741
 20
236.8156737977915
 30
0.0
 11
105.79798625813309
 21
236.8156737977915
 31
0.0
  0
LINE
  5
2E32
  8
1
 10
122.79798580014641
 20
98.618101108372656
 30
0.0
 11
122.79798580014641
 21
164.6180994394426
 31
0.0
  0
LINE
  5
2E33
  8
1
 10
122.79798580014641
 20
75.303211438864523
 30
0.0
 11
122.79798580014641
 21
73.654077381116295
 31
0.0
  0
LINE
  5
2E36
  8
1
 10
122.79798580014641
 20
219.8156739305565
 30
0.0
 11
122.79798580014641
 21
253.8156736650264
 31
0.0
  0
CIRCLE
  5
2E3F
  8
3
 10
122.79798580014641
 20
58.303211438864572
 30
0.0
 40
3.4000000450760122
  0
CIRCLE
  5
3256
  8
3
 10
155.4979858001463
 20
58.30321143886448
 30
0.0
 40
2.0670000000001991
  0
CIRCLE
  5
3257
  8
0
 10
155.4979858001463
 20
58.30321143886448
 30
0.0
 40
2.5
  0
CIRCLE
  5
3258
  8
3
 10
257.04644946609238
 20
142.86810066133779
 30
0.0
 40
5.0530000000000239
  0
CIRCLE
  5
3259
  8
0
 10
257.04644946609238
 20
142.86810066133779
 30
0.0
 40
6.0000000000000071
  0
LINE
  5
325B
  8
1
 10
155.4979858001463
 20
65.203211438864571
 30
0.0
 11
155.4979858001463
 21
51.403211438864602
 31
0.0
  0
CIRCLE
  5
325C
  8
0
 10
155.4979858001463
 20
58.303211438864572
 30
0.0
 40
2.8999999999999839
  0
POLYLINE
  5
32BD
  8
0
  6
CONTINUOUS
 62
     7
 66
     1
 10
0.0
 20
0.0
 30
0.0
 70
   128
  0
VERTEX
  5
3D30
  8
0
  6
CONTINUOUS
 62
     7
 10
129.19720488611611
 20
158.03659345831099
 30
0.0
  0
VERTEX
  5
3D31
  8
0
  6
CONTINUOUS
 62
     7
 10
129.0891370085254
 20
158.41632347430411
 30
0.0
  0
VERTEX
  5
3D32
  8
0
  6
CONTINUOUS
 62
     7
 10
128.93336585734039
 20
158.8069164368076
 30
0.0
  0
VERTEX
  5
3D33
  8
0
  6
CONTINUOUS
 62
     7
 10
128.7327547838166
 20
159.17986642445749
 30
0.0
  0
VERTEX
  5
3D34
  8
0
  6
CONTINUOUS
 62
     7
 10
128.49790177319201
 20
159.50343023862069
 30
0.0
  0
VERTEX
  5
3D35
  8
0
  6
CONTINUOUS
 62
     7
 10
128.2458835561946
 20
159.7502977761192
 30
0.0
  0
VERTEX
  5
3D36
  8
0
  6
CONTINUOUS
 62
     7
 10
127.9963687342777
 20
159.90472968544191
 30
0.0
  0
VERTEX
  5
3D37
  8
0
  6
CONTINUOUS
 62
     7
 10
127.7668084298446
 20
159.9656046542091
 30
0.0
  0
VERTEX
  5
3D38
  8
0
  6
CONTINUOUS
 62
     7
 10
127.56898387346411
 20
159.94426991666981
 30
0.0
  0
SEQEND
  5
3D39
  8
0
  6
CONTINUOUS
 62
     7
  0
LINE
  5
32BE
  8
0
  6
CONTINUOUS
 62
     7
 10
130.95372536230821
 20
135.68260997410241
 30
0.0
 11
130.95372536230821
 21
125.5377732391221
 31
0.0
  0
LINE
  5
32BF
  8
0
  6
CONTINUOUS
 62
     7
 10
129.19720488611611
 20
135.2703218522233
 30
0.0
 11
129.19720488611611
 21
158.03659345831099
 31
0.0
  0
POLYLINE
  5
32C0
  8
0
  6
CONTINUOUS
 62
     7
 66
     1
 10
0.0
 20
0.0
 30
0.0
 70
   128
  0
VERTEX
  5
3D3A
  8
0
  6
CONTINUOUS
 62
     7
 10
130.30482030484819
 20
124.53777330804
 30
0.0
  0
VERTEX
  5
3D3B
  8
0
  6
CONTINUOUS
 62
     7
 10
130.43141544807699
 20
124.5569878897381
 30
0.0
  0
VERTEX
  5
3D3C
  8
0
  6
CONTINUOUS
 62
     7
 10
130.55314489651471
 20
124.61389379452289
 30
0.0
  0
VERTEX
  5
3D3D
  8
0
  6
CONTINUOUS
 62
     7
 10
130.66533201385289
 20
124.7063035784972
 30
0.0
  0
VERTEX
  5
3D3E
  8
0
  6
CONTINUOUS
 62
     7
 10
130.76366477657109
 20
124.8306663415146
 30
0.0
  0
VERTEX
  5
3D3F
  8
0
  6
CONTINUOUS
 62
     7
 10
130.8443648089841
 20
124.9822030017835
 30
0.0
  0
VERTEX
  5
3D40
  8
0
  6
CONTINUOUS
 62
     7
 10
130.90432987559581
 20
125.15508976641421
 30
0.0
  0
VERTEX
  5
3D41
  8
0
  6
CONTINUOUS
 62
     7
 10
130.94125681567931
 20
125.34268281299001
 30
0.0
  0
VERTEX
  5
3D42
  8
0
  6
CONTINUOUS
 62
     7
 10
130.95372536230821
 20
125.5377732391221
 30
0.0
  0
SEQEND
  5
3D43
  8
0
  6
CONTINUOUS
 62
     7
  0
POLYLINE
  5
32C1
  8
0
  6
CONTINUOUS
 62
     7
 66
     1
 10
0.0
 20
0.0
 30
0.0
 70
   128
  0
VERTEX
  5
3D44
  8
0
  6
CONTINUOUS
 62
     7
 10
130.9317107592895
 20
136.74478802706429
 30
0.0
  0
VERTEX
  5
3D45
  8
0
  6
CONTINUOUS
 62
     7
 10
131.757700750716
 20
137.51698389525839
 30
0.0
  0
VERTEX
  5
3D46
  8
0
  6
CONTINUOUS
 62
     7
 10
132.87463312048459
 20
138.6051626118583
 30
0.0
  0
VERTEX
  5
3D47
  8
0
  6
CONTINUOUS
 62
     7
 10
134.030681038387
 20
139.70914680387199
 30
0.0
  0
SEQEND
  5
3D48
  8
0
  6
CONTINUOUS
 62
     7
  0
POLYLINE
  5
32C2
  8
0
  6
CONTINUOUS
 62
     7
 66
     1
 10
0.0
 20
0.0
 30
0.0
 70
   128
  0
VERTEX
  5
3D49
  8
0
  6
CONTINUOUS
 62
     7
 10
129.19720488611611
 20
135.2703218522233
 30
0.0
  0
VERTEX
  5
3D4A
  8
0
  6
CONTINUOUS
 62
     7
 10
129.21324645180249
 20
135.2839592086834
 30
0.0
  0
VERTEX
  5
3D4B
  8
0
  6
CONTINUOUS
 62
     7
 10
129.52891404751679
 20
135.55210281039899
 30
0.0
  0
VERTEX
  5
3D4C
  8
0
  6
CONTINUOUS
 62
     7
 10
130.9317107592895
 20
136.74478802706429
 30
0.0
  0
SEQEND
  5
3D4D
  8
0
  6
CONTINUOUS
 62
     7
  0
ARC
  5
32C3
  8
0
  6
CONTINUOUS
 62
     7
 10
135.12811332803039
 20
136.300445111584
 30
0.0
 40
4.219861981803791
 50
173.95566564110359
 51
188.41900831244709
  0
ARC
  5
32C4
  8
0
  6
CONTINUOUS
 62
     7
 10
181.36279081333231
 20
91.108143878436167
 30
0.0
 40
67.82232371343045
 50
118.5870574017422
 51
132.4329670815888
  0
POLYLINE
  5
32C5
  8
0
  6
CONTINUOUS
 62
     7
 66
     1
 10
0.0
 20
0.0
 30
0.0
 70
   128
  0
VERTEX
  5
3D4E
  8
0
  6
CONTINUOUS
 62
     7
 10
134.030681038387
 20
139.70914680387199
 30
0.0
  0
VERTEX
  5
3D4F
  8
0
  6
CONTINUOUS
 62
     7
 10
134.03072481054801
 20
139.7091877820653
 30
0.0
  0
VERTEX
  5
3D50
  8
0
  6
CONTINUOUS
 62
     7
 10
135.60122617531559
 20
141.16557884837809
 30
0.0
  0
SEQEND
  5
3D51
  8
0
  6
CONTINUOUS
 62
     7
  0
LINE
  5
32C6
  8
0
  6
CONTINUOUS
 62
     7
 10
162.151697958
 20
155.38835536565011
 30
0.0
 11
162.03715273190281
 21
155.35469736780351
 31
0.0
  0
POLYLINE
  5
32C7
  8
0
  6
CONTINUOUS
 62
     7
 66
     1
 10
0.0
 20
0.0
 30
0.0
 70
   128
  0
VERTEX
  5
3D52
  8
0
  6
CONTINUOUS
 62
     7
 10
162.15153031993651
 20
155.3883181127471
 30
0.0
  0
VERTEX
  5
3D53
  8
0
  6
CONTINUOUS
 62
     7
 10
162.1866858844831
 20
155.39714705075451
 30
0.0
  0
VERTEX
  5
3D54
  8
0
  6
CONTINUOUS
 62
     7
 10
162.18673431325701
 20
155.39716195191571
 30
0.0
  0
SEQEND
  5
3D55
  8
0
  6
CONTINUOUS
 62
     7
  0
POLYLINE
  5
32C8
  8
0
  6
CONTINUOUS
 62
     7
 66
     1
 10
0.0
 20
0.0
 30
0.0
 70
   128
  0
VERTEX
  5
3D56
  8
0
  6
CONTINUOUS
 62
     7
 10
162.1561683063581
 20
155.3888843568725
 30
0.0
  0
VERTEX
  5
3D57
  8
0
  6
CONTINUOUS
 62
     7
 10
162.15159737516191
 20
155.38762520875159
 30
0.0
  0
VERTEX
  5
3D58
  8
0
  6
CONTINUOUS
 62
     7
 10
162.03767799783481
 20
155.3548538299961
 30
0.0
  0
SEQEND
  5
3D59
  8
0
  6
CONTINUOUS
 62
     7
  0
ARC
  5
32C9
  8
0
  6
CONTINUOUS
 62
     7
 10
163.23142982164359
 20
151.47553629581421
 30
0.0
 40
4.0583866816280514
 50
104.7724712692012
 51
105.3622278910958
  0
LINE
  5
32CA
  8
0
  6
CONTINUOUS
 62
     7
 10
162.18822442937639
 20
155.39757173384851
 30
0.0
 11
162.15628006506711
 21
155.38891788448521
 31
0.0
  0
ARC
  5
32CD
  8
0
  6
CONTINUOUS
 62
     7
 10
169.66875095033481
 20
113.56744139008821
 30
0.0
 40
42.508182343610471
 50
99.958368685038636
 51
119.23162028952009
  0
LINE
  5
32E2
  8
1
 10
163.7979849239581
 20
142.86810066133779
 30
0.0
 11
149.7979849239581
 21
142.86810066133779
 31
0.0
  0
TEXT
  5
38E9
  8
0
 62
     3
 10
0.0
 20
0.0
 30
0.0
 40
10.0
  1
ATCL8X20-OG
  7
STANDARD1
  0
VIEWPORT
  5
2E40
 67
     1
  8
0
 10
0.0
 20
0.0
 30
0.0
 40
46.465342960288801
 41
18.899999999999999
 68
     1
 69
     1
1001
ACAD
1000
MVIEW
1002
{
1070
    16
1010
0.0
1020
0.0
1030
0.0
1010
0.0
1020
0.0
1030
1.0
1040
0.0
1040
18.899999999999999
1040
17.569494584837539
1040
8.4467509025270751
1040
50.0
1040
0.0
1040
0.0
1070
    16
1070
   100
1070
     1
1070
     3
1070
     0
1070
     0
1070
     0
1070
     0
1040
0.0
1040
0.0
1040
0.0
1040
0.5
1040
0.5
1040
0.0
1040
0.0
1070
     0
1002
{
1002
}
1002
}
  0
VIEWPORT
  5
2E41
 67
     1
  8
0
 10
5.25
 20
3.5
 30
0.0
 40
8.4000000000000004
 41
5.5999999999999988
 68
     2
 69
     2
1001
ACAD
1000
MVIEW
1002
{
1070
    16
1010
0.0
1020
0.0
1030
0.0
1010
0.0
1020
0.0
1030
1.0
1040
0.0
1040
216.7627114706851
1040
159.9408692943293
1040
147.55944255194541
1040
50.0
1040
0.0
1040
0.0
1070
     0
1070
   100
1070
     1
1070
     3
1070
     0
1070
     0
1070
     0
1070
     0
1040
0.0
1040
0.0
1040
0.0
1040
0.5
1040
0.5
1040
0.0
1040
0.0
1070
     0
1002
{
1002
}
1002
}
  0
ENDSEC
  0
EOF
