  0
SECTION
  2
HEADER
  9
$ACADVER
  1
AC1009
  9
$INSBASE
 10
0.0
 20
0.0
 30
0.0
  9
$EXTMIN
 10
0.0
 20
-2.960436562073669
 30
0.0
  9
$EXTMAX
 10
241.49999999999989
 20
131.0
 30
0.0
  9
$LIMMIN
 10
0.0
 20
0.0
  9
$LIMMAX
 10
375.0
 20
270.0
  9
$ORTHOMODE
 70
     1
  9
$REGENMODE
 70
     1
  9
$FILLMODE
 70
     1
  9
$QTEXTMODE
 70
     0
  9
$MIRRTEXT
 70
     0
  9
$DRAGMODE
 70
     2
  9
$LTSCALE
 40
5.0
  9
$OSMODE
 70
    37
  9
$ATTMODE
 70
     1
  9
$TEXTSIZE
 40
4.000000000000048
  9
$TRACEWID
 40
0.05
  9
$TEXTSTYLE
  7
STANDARD
  9
$CLAYER
  8
0
  9
$CELTYPE
  6
BYLAYER
  9
$CECOLOR
 62
   256
  9
$DIMSCALE
 40
1.0
  9
$DIMASZ
 40
3.0
  9
$DIMEXO
 40
2.0
  9
$DIMDLI
 40
0.38
  9
$DIMRND
 40
0.0
  9
$DIMDLE
 40
0.0
  9
$DIMEXE
 40
2.0
  9
$DIMTP
 40
0.0
  9
$DIMTM
 40
0.0
  9
$DIMTXT
 40
3.2000000000000002
  9
$DIMCEN
 40
0.0
  9
$DIMTSZ
 40
0.0
  9
$DIMTOL
 70
     0
  9
$DIMLIM
 70
     0
  9
$DIMTIH
 70
     0
  9
$DIMTOH
 70
     0
  9
$DIMSE1
 70
     0
  9
$DIMSE2
 70
     0
  9
$DIMTAD
 70
     1
  9
$DIMZIN
 70
     0
  9
$DIMBLK
  1

  9
$DIMASO
 70
     0
  9
$DIMSHO
 70
     0
  9
$DIMPOST
  1

  9
$DIMAPOST
  1

  9
$DIMALT
 70
     0
  9
$DIMALTD
 70
     2
  9
$DIMALTF
 40
25.399999999999999
  9
$DIMLFAC
 40
1.0
  9
$DIMTOFL
 70
     0
  9
$DIMTVP
 40
1.6000000000000001
  9
$DIMTIX
 70
     1
  9
$DIMSOXD
 70
     0
  9
$DIMSAH
 70
     0
  9
$DIMBLK1
  1

  9
$DIMBLK2
  1

  9
$DIMSTYLE
  2
STANDARD
  9
$DIMCLRD
 70
     4
  9
$DIMCLRE
 70
     4
  9
$DIMCLRT
 70
     4
  9
$DIMTFAC
 40
1.0
  9
$DIMGAP
 40
0.09
  9
$LUNITS
 70
     2
  9
$LUPREC
 70
     1
  9
$SKETCHINC
 40
0.1
  9
$FILLETRAD
 40
0.0
  9
$AUNITS
 70
     0
  9
$AUPREC
 70
     0
  9
$MENU
  1
E:\r13\win\SUPPORT\ACAD
  9
$ELEVATION
 40
0.0
  9
$PELEVATION
 40
0.0
  9
$THICKNESS
 40
0.0
  9
$LIMCHECK
 70
     0
  9
$BLIPMODE
 70
     0
  9
$CHAMFERA
 40
0.3
  9
$CHAMFERB
 40
0.3
  9
$SKPOLY
 70
     0
  9
$TDCREATE
 40
2450136.5827548611
  9
$TDUPDATE
 40
2456969.3925559381
  9
$TDINDWG
 40
0.0238896528
  9
$TDUSRTIMER
 40
0.0238896528
  9
$USRTIMER
 70
     1
  9
$ANGBASE
 50
0.0
  9
$ANGDIR
 70
     0
  9
$PDMODE
 70
     0
  9
$PDSIZE
 40
0.0
  9
$PLINEWID
 40
0.0
  9
$COORDS
 70
     1
  9
$SPLFRAME
 70
     0
  9
$SPLINETYPE
 70
     6
  9
$SPLINESEGS
 70
     8
  9
$ATTDIA
 70
     0
  9
$ATTREQ
 70
     1
  9
$HANDLING
 70
     1
  9
$HANDSEED
  5
1412
  9
$SURFTAB1
 70
     6
  9
$SURFTAB2
 70
     6
  9
$SURFTYPE
 70
     6
  9
$SURFU
 70
     6
  9
$SURFV
 70
     6
  9
$UCSNAME
  2

  9
$UCSORG
 10
0.0
 20
0.0
 30
0.0
  9
$UCSXDIR
 10
1.0
 20
0.0
 30
0.0
  9
$UCSYDIR
 10
0.0
 20
1.0
 30
0.0
  9
$PUCSNAME
  2

  9
$PUCSORG
 10
0.0
 20
0.0
 30
0.0
  9
$PUCSXDIR
 10
1.0
 20
0.0
 30
0.0
  9
$PUCSYDIR
 10
0.0
 20
1.0
 30
0.0
  9
$USERI1
 70
     0
  9
$USERI2
 70
     1
  9
$USERI3
 70
     0
  9
$USERI4
 70
     0
  9
$USERI5
 70
     0
  9
$USERR1
 40
0.0
  9
$USERR2
 40
0.0
  9
$USERR3
 40
0.0
  9
$USERR4
 40
0.0
  9
$USERR5
 40
0.0
  9
$WORLDVIEW
 70
     1
  9
$SHADEDGE
 70
     3
  9
$SHADEDIF
 70
    70
  9
$TILEMODE
 70
     1
  9
$MAXACTVP
 70
    16
  9
$PLIMCHECK
 70
     0
  9
$PEXTMIN
 10
1.0000000000000000E+020
 20
1.0000000000000000E+020
 30
1.0000000000000000E+020
  9
$PEXTMAX
 10
-1.0000000000000000E+020
 20
-1.0000000000000000E+020
 30
-1.0000000000000000E+020
  9
$PLIMMIN
 10
0.0
 20
0.0
  9
$PLIMMAX
 10
12.0
 20
9.0
  9
$UNITMODE
 70
     0
  9
$VISRETAIN
 70
     0
  9
$PLINEGEN
 70
     0
  9
$PSLTSCALE
 70
     0
  0
ENDSEC
  0
SECTION
  2
TABLES
  0
TABLE
  2
VPORT
 70
     1
  0
VPORT
  2
*ACTIVE
 70
     0
 10
0.0
 20
0.0
 11
1.0
 21
1.0
 12
235.63977746870651
 22
135.0
 13
0.0
 23
0.0
 14
10.0
 24
10.0
 15
10.0
 25
10.0
 16
0.0
 26
0.0
 36
1.0
 17
0.0
 27
0.0
 37
0.0
 40
270.0
 41
1.7454798331015291
 42
50.0
 43
0.0
 44
0.0
 50
0.0
 51
0.0
 71
     0
 72
   500
 73
     1
 74
     0
 75
     0
 76
     0
 77
     0
 78
     2
  0
ENDTAB
  0
TABLE
  2
LTYPE
 70
     5
  0
LTYPE
  2
CONTINUOUS
 70
     0
  3
Solid Line
 72
    65
 73
     0
 40
0.0
  0
LTYPE
  2
CENTER
 70
     0
  3
____ _ ____ _ ____ _ ____ _ ____ _ ____ _ ____
 72
    65
 73
     4
 40
2.0
 49
1.25
 49
-0.25
 49
0.25
 49
-0.25
  0
LTYPE
  2
PHANTOM2
 70
     0
  3
___ _ _ ___ _ _ ___ _ _ ___ _ _
 72
    65
 73
     6
 40
1.25
 49
0.625
 49
-0.125
 49
0.125
 49
-0.125
 49
0.125
 49
-0.125
  0
LTYPE
  2
PHANTOM
 70
     0
  3
_____ _ _ _____ _ _ _____ _ _ _____ _ _ ____
 72
    65
 73
     6
 40
2.5
 49
1.25
 49
-0.25
 49
0.25
 49
-0.25
 49
0.25
 49
-0.25
  0
LTYPE
  2
HIDDEN
 70
     0
  3
_ _ _ _ _ _ _ _ _ _ _ _ _ _ _ _ _ _ _ _ _ _ _
 72
    65
 73
     2
 40
0.375
 49
0.25
 49
-0.125
  0
ENDTAB
  0
TABLE
  2
LAYER
 70
     6
  0
LAYER
  2
0
 70
     0
 62
     7
  6
CONTINUOUS
  0
LAYER
  2
1
 70
     0
 62
     1
  6
CENTER
  0
LAYER
  2
3
 70
     0
 62
     3
  6
CONTINUOUS
  0
LAYER
  2
DEFPOINTS
 70
     0
 62
     7
  6
CONTINUOUS
  0
LAYER
  2
5
 70
     0
 62
     3
  6
PHANTOM
  0
LAYER
  2
2
 70
     0
 62
     2
  6
HIDDEN
  0
ENDTAB
  0
TABLE
  2
STYLE
 70
     2
  0
STYLE
  2
STANDARD
 70
     0
 40
0.0
 41
1.0
 50
0.0
 71
     0
 42
4.000000000000048
  3
SIMPLEX
  4
BIGFONT
  0
STYLE
  2
STANDARD1
 70
     0
 40
0.0
 41
1.0
 50
0.0
 71
     0
 42
3.0
  3
txt
  4

  0
ENDTAB
  0
TABLE
  2
VIEW
 70
     1
  0
VIEW
  2
ALL
 70
     0
 40
270.33333333333331
 10
220.8717648550103
 20
134.83333333333329
 41
441.74352971002048
 11
0.0
 21
0.0
 31
1.0
 12
0.0
 22
0.0
 32
0.0
 42
50.0
 43
0.0
 44
0.0
 50
0.0
 71
     0
  0
ENDTAB
  0
TABLE
  2
UCS
 70
     0
  0
ENDTAB
  0
TABLE
  2
APPID
 70
    40
  0
APPID
  2
ACAD
 70
     0
  0
APPID
  2
ACAD_MLEADERVER
 70
     0
  0
APPID
  2
DCO15
 70
     0
  0
APPID
  2
GENIUS_GENOREF_13
 70
     0
  0
APPID
  2
GENIUS_GENOENT_13
 70
     0
  0
APPID
  2
GENIUS_GENBH_13
 70
     0
  0
APPID
  2
GENIUS_GENOBJ_13
 70
     0
  0
APPID
  2
GENIUS_GENODEF_13
 70
     0
  0
APPID
  2
GENIUS_GENOLIS_13
 70
     0
  0
APPID
  2
GENIUS_GENOBJ-NBEHI-BHF_13
 70
     0
  0
APPID
  2
GENIUS_GENOBJ-NBEHI-BHB_13
 70
     0
  0
APPID
  2
GENIUS_GENOBJ-F-PART_13
 70
     0
  0
APPID
  2
GENIUS_GEFSTDP_13
 70
     0
  0
APPID
  2
GENIUS_GENOBJ-N-RSSYM_13
 70
     0
  0
APPID
  2
GENIUS_GENSYMENT_13
 70
     0
  0
APPID
  2
GENIUS_GENOBJ-N-TIT_13
 70
     0
  0
APPID
  2
GENIUS_GENTITLE_13
 70
     0
  0
APPID
  2
GENIUS_GENZVEED_13
 70
     0
  0
APPID
  2
GENIUS_GENOBJ-N-LEADER_13
 70
     0
  0
APPID
  2
GENIUS_GENOBJ-N-FIL_13
 70
     0
  0
APPID
  2
GENIUS_GENOBJ-N-SEC_13
 70
     0
  0
APPID
  2
GENIUS_GENOBJ-N-CRS_13
 70
     0
  0
APPID
  2
GENIUS_GENOBJ-N-ZOO_13
 70
     0
  0
APPID
  2
GENIUS_GENZOO_13
 70
     0
  0
APPID
  2
GENIUS_GENOBJ-F-TOL_13
 70
     0
  0
APPID
  2
GENIUS_GENFIL_13
 70
     0
  0
APPID
  2
GENIUS_GENOBJ-N-CHA_13
 70
     0
  0
APPID
  2
ASM_BASE
 70
     0
  0
APPID
  2
ASM_EXPLO_VER_2_00
 70
     0
  0
APPID
  2
ASM_CADM_VER_12_00
 70
     0
  0
APPID
  2
ASM_BASEFORO
 70
     0
  0
APPID
  2
ASM_BASETRAVI
 70
     0
  0
APPID
  2
ASM_BASETRAVI1
 70
     0
  0
APPID
  2
ASM_GRUPPI
 70
     0
  0
APPID
  2
ASM_CADM_ALBERO
 70
     0
  0
APPID
  2
ASM_GOLE
 70
     0
  0
APPID
  2
_CALL_MAC$
 70
     0
  0
APPID
  2
CONTENTBLOCKICON
 70
     0
  0
APPID
  2
ACAD_NAV_VCDISPLAY
 70
     0
  0
APPID
  2
ACAD_EXEMPT_FROM_CAD_STANDARDS
 70
     0
  0
ENDTAB
  0
TABLE
  2
DIMSTYLE
 70
     1
  0
DIMSTYLE
  2
STANDARD
 70
     0
  3

  4

  5

  6

  7

 40
1.0
 41
0.18
 42
0.0625
 43
0.38
 44
0.18
 45
0.0
 46
0.0
 47
0.0
 48
0.0
140
0.18
141
0.09
142
0.0
143
25.399999999999999
144
1.0
145
0.0
146
1.0
147
0.09
 71
     0
 72
     0
 73
     1
 74
     1
 75
     0
 76
     0
 77
     0
 78
     0
170
     0
171
     2
172
     0
173
     0
174
     0
175
     0
176
     0
177
     0
178
     0
  0
ENDTAB
  0
ENDSEC
  0
SECTION
  2
BLOCKS
  0
BLOCK
  8
0
  2
$MODEL_SPACE
 70
     0
 10
0.0
 20
0.0
 30
0.0
  3
$MODEL_SPACE
  1

  0
ENDBLK
  5
1B2
  8
0
  0
BLOCK
 67
     1
  8
0
  2
$PAPER_SPACE
 70
     0
 10
0.0
 20
0.0
 30
0.0
  3
$PAPER_SPACE
  1

  0
ENDBLK
  5
1B0
 67
     1
  8
0
  0
ENDSEC
  0
SECTION
  2
ENTITIES
  0
LINE
  5
EB
  8
0
 10
216.49999999999989
 20
74.0
 30
0.0
 11
216.49999999999989
 21
61.5
 31
0.0
  0
LINE
  5
EC
  8
0
 10
217.36602499999989
 20
60.0
 30
0.0
 11
240.63397499999991
 21
60.0
 31
0.0
  0
LINE
  5
ED
  8
0
 10
239.49999999999989
 20
76.0
 30
0.0
 11
218.49999999999989
 21
76.0
 31
0.0
  0
ARC
  5
EE
  8
0
 10
218.49999999999989
 20
74.0
 30
0.0
 40
2.0
 50
90.0
 51
180.0
  0
ARC
  5
EF
  8
0
 10
239.49999999999989
 20
74.0
 30
0.0
 40
2.0
 50
0.0
 51
90.0
  0
LINE
  5
F0
  8
0
 10
216.49999999999989
 20
61.5
 30
0.0
 11
217.36602499999989
 21
60.0
 31
0.0
  0
LINE
  5
F1
  8
0
 10
241.49999999999989
 20
61.5
 30
0.0
 11
216.49999999999989
 21
61.5
 31
0.0
  0
LINE
  5
F2
  8
0
 10
241.49999999999989
 20
74.0
 30
0.0
 11
241.49999999999989
 21
61.5
 31
0.0
  0
LINE
  5
F3
  8
0
 10
241.49999999999989
 20
61.5
 30
0.0
 11
240.63397499999991
 21
60.0
 31
0.0
  0
LINE
  5
F4
  8
1
 10
228.99999999999989
 20
81.0
 30
0.0
 11
228.99999999999989
 21
55.0
 31
0.0
  0
TEXT
  5
267
  8
0
 62
     3
 10
0.0
 20
0.0
 30
0.0
 40
10.0
  1
BJ101-08016
  7
STANDARD1
  0
LINE
  5
B3C
  8
1
 10
109.9999999999999
 20
118.5
 30
0.0
 11
191.49999999999989
 21
118.5
 31
0.0
  0
LINE
  5
B3D
  8
0
 10
116.4999999999998
 20
131.0
 30
0.0
 11
182.49999999999989
 21
131.0
 31
0.0
  0
LINE
  5
B3E
  8
0
 10
116.4999999999998
 20
106.0
 30
0.0
 11
182.49999999999989
 21
106.0
 31
0.0
  0
LINE
  5
B3F
  8
0
 10
186.49999999999989
 20
110.0
 30
0.0
 11
186.49999999999989
 21
127.0
 31
0.0
  0
LINE
  5
B40
  8
1
 10
176.4999999999998
 20
109.0
 30
0.0
 11
176.4999999999998
 21
128.10113087686301
 31
0.0
  0
ARC
  5
B41
  8
0
 10
159.99999999999989
 20
118.5
 30
0.0
 40
7.0
 50
90.0
 51
270.0
  0
LINE
  5
B42
  8
1
 10
159.99999999999989
 20
108.94943456156849
 30
0.0
 11
159.99999999999989
 21
128.05056543843151
 31
0.0
  0
LINE
  5
B43
  8
0
 10
159.99999999999989
 20
111.5
 30
0.0
 11
176.4999999999998
 21
111.5
 31
0.0
  0
LINE
  5
B44
  8
0
 10
159.99999999999989
 20
125.5
 30
0.0
 11
176.4999999999998
 21
125.5
 31
0.0
  0
ARC
  5
B45
  8
0
 10
182.49999999999989
 20
127.0
 30
0.0
 40
4.0
 50
0.0
 51
90.0
  0
ARC
  5
B46
  8
0
 10
182.49999999999989
 20
110.0
 30
0.0
 40
4.0
 50
270.0
 51
0.0
  0
LINE
  5
B47
  8
0
 10
129.72243186433531
 20
76.0
 30
0.0
 11
184.49999999999989
 21
76.0
 31
0.0
  0
LINE
  5
B48
  8
0
 10
186.49999999999989
 20
61.5
 30
0.0
 11
186.49999999999989
 21
74.0
 31
0.0
  0
ARC
  5
B49
  8
0
 10
184.49999999999989
 20
74.0
 30
0.0
 40
2.0
 50
0.0
 51
90.0
  0
LINE
  5
B4A
  8
0
 10
115.9999999999999
 20
61.5
 30
0.0
 11
186.49999999999989
 21
61.5
 31
0.0
  0
LINE
  5
B4B
  8
0
 10
124.4999999999999
 20
61.5
 30
0.0
 11
138.99999999999989
 21
76.0
 31
0.0
  0
LINE
  5
B4C
  8
0
 10
186.49999999999989
 20
61.5
 30
0.0
 11
184.99999999999989
 21
60.0
 31
0.0
  0
LINE
  5
B4D
  8
0
 10
179.99999999999989
 20
71.0
 30
0.0
 11
148.99999999999989
 21
71.0
 31
0.0
  0
LINE
  5
B4E
  8
0
 10
181.49999999999989
 20
69.5
 30
0.0
 11
181.49999999999989
 21
65.5
 31
0.0
  0
LINE
  5
B4F
  8
0
 10
179.99999999999989
 20
64.0
 30
0.0
 11
144.99999999999989
 21
64.0
 31
0.0
  0
LINE
  5
B50
  8
0
 10
143.93933982822011
 20
66.560660171779773
 30
0.0
 11
147.93933982822011
 21
70.560660171779773
 31
0.0
  0
ARC
  5
B51
  8
0
 10
144.99999999999989
 20
65.5
 30
0.0
 40
1.5
 50
135.00000000000031
 51
270.0
  0
ARC
  5
B52
  8
0
 10
148.99999999999989
 20
69.5
 30
0.0
 40
1.5
 50
90.0
 51
135.00000000000031
  0
ARC
  5
B53
  8
0
 10
179.99999999999989
 20
69.5
 30
0.0
 40
1.5
 50
0.0
 51
90.0
  0
ARC
  5
B54
  8
0
 10
179.99999999999989
 20
65.5
 30
0.0
 40
1.5
 50
270.0
 51
0.0
  0
LINE
  5
B56
  8
0
 10
139.00000000000031
 20
125.1906624327012
 30
0.0
 11
139.00000000000031
 21
131.0
 31
0.0
  0
LINE
  5
B57
  8
0
 10
139.00000000000031
 20
125.190662432701
 30
0.0
 11
144.65685424949271
 21
127.50006350945959
 31
0.0
  0
LINE
  5
B58
  8
0
 10
144.65685424949271
 20
127.50006350945959
 30
0.0
 11
144.65685424949271
 21
121.25
 31
0.0
  0
LINE
  5
B59
  8
0
 10
139.00000000000031
 20
111.8093375672989
 30
0.0
 11
144.65685424949271
 21
109.49993649054031
 31
0.0
  0
LINE
  5
B5A
  8
0
 10
139.00000000000031
 20
111.8093375672988
 30
0.0
 11
139.00000000000031
 21
106.0
 31
0.0
  0
ARC
  5
B5B
  8
3
 10
144.65685424949271
 20
118.5
 30
0.0
 40
5.0
 50
270.0
 51
90.0
  0
ARC
  5
B5C
  8
0
 10
144.65685424949271
 20
118.5
 30
0.0
 40
4.1879999999999988
 50
270.0
 51
90.0
  0
LINE
  5
B5D
  8
0
 10
144.65685424949271
 20
115.75
 30
0.0
 11
144.65685424949271
 21
109.49993649054031
 31
0.0
  0
LINE
  5
B5E
  8
0
 10
182.97204860432959
 20
65.5
 30
0.0
 11
182.97204860432959
 21
69.5
 31
0.0
  0
LINE
  5
B5F
  8
0
 10
179.97204860432959
 20
62.5
 30
0.0
 11
144.99999999999989
 21
62.5
 31
0.0
  0
LINE
  5
B60
  8
0
 10
179.97204860432959
 20
72.5
 30
0.0
 11
148.99999999999989
 21
72.5
 31
0.0
  0
LINE
  5
B61
  8
0
 10
142.8786796564402
 20
67.62132034355966
 30
0.0
 11
146.8786796564402
 21
71.62132034355966
 31
0.0
  0
ARC
  5
B62
  8
0
 10
179.97204860432959
 20
69.5
 30
0.0
 40
3.0
 50
0.0
 51
90.0
  0
ARC
  5
B63
  8
0
 10
179.97204860432959
 20
65.5
 30
0.0
 40
3.0
 50
270.0
 51
0.0
  0
ARC
  5
B64
  8
0
 10
144.99999999999989
 20
65.5
 30
0.0
 40
3.0
 50
135.00000000000031
 51
270.0
  0
ARC
  5
B65
  8
0
 10
148.99999999999989
 20
69.5
 30
0.0
 40
3.0
 50
90.0
 51
135.00000000000031
  0
LINE
  5
B66
  8
0
 10
60.000000000000007
 20
74.0
 30
0.0
 11
60.000000000000007
 21
61.5
 31
0.0
  0
LINE
  5
B67
  8
0
 10
60.866025403784427
 20
60.0
 30
0.0
 11
84.133974596215594
 21
60.0
 31
0.0
  0
LINE
  5
B68
  8
0
 10
82.999999999999901
 20
76.0
 30
0.0
 11
62.000000000000007
 21
76.0
 31
0.0
  0
ARC
  5
B69
  8
0
 10
62.000000000000007
 20
74.0
 30
0.0
 40
2.0
 50
90.0
 51
180.0
  0
ARC
  5
B6A
  8
0
 10
82.999999999999901
 20
74.0
 30
0.0
 40
2.0
 50
0.0
 51
90.0
  0
LINE
  5
B6B
  8
0
 10
60.000000000000007
 20
61.5
 30
0.0
 11
60.866025403784427
 21
60.0
 31
0.0
  0
LINE
  5
B6C
  8
0
 10
85.000000000000014
 20
61.5
 30
0.0
 11
60.000000000000007
 21
61.5
 31
0.0
  0
LINE
  5
B6D
  8
0
 10
85.000000000000014
 20
74.0
 30
0.0
 11
85.000000000000014
 21
61.5
 31
0.0
  0
LINE
  5
B6E
  8
0
 10
85.000000000000014
 20
61.5
 30
0.0
 11
84.133974596215594
 21
60.0
 31
0.0
  0
LINE
  5
B6F
  8
1
 10
72.500000000000014
 20
81.0
 30
0.0
 11
72.500000000000014
 21
55.0
 31
0.0
  0
ARC
  5
B70
  8
0
 10
116.4999999999998
 20
107.5
 30
0.0
 40
1.5
 50
180.0
 51
270.0
  0
ARC
  5
B71
  8
0
 10
116.4999999999999
 20
129.5
 30
0.0
 40
1.5
 50
90.0
 51
180.0
  0
ARC
  5
B72
  8
0
 10
142.76776695296721
 20
118.5
 30
0.0
 40
2.0
 50
139.6430411150277
 51
220.3569588849727
  0
ARC
  5
B73
  8
0
 10
144.65685424949291
 20
115.75
 30
0.0
 40
5.5
 50
90.0
 51
104.084831714694
  0
ARC
  5
B74
  8
0
 10
144.29181688542869
 20
117.2049047126313
 30
0.0
 40
3.9999999999999889
 50
104.084831714694
 51
139.6430411150277
  0
ARC
  5
B75
  8
0
 10
144.65685424949291
 20
121.25
 30
0.0
 40
5.5
 50
255.91516828530601
 51
270.0
  0
ARC
  5
B76
  8
0
 10
144.29181688542869
 20
119.7950952873686
 30
0.0
 40
3.9999999999999889
 50
220.3569588849727
 51
255.91516828530601
  0
LINE
  5
B77
  8
0
 10
128.51685230687471
 20
131.0
 30
0.0
 11
128.51685230687471
 21
106.0
 31
0.0
  0
LINE
  5
B78
  8
0
 10
114.9999999999999
 20
116.5000000000002
 30
0.0
 11
114.9999999999999
 21
107.5
 31
0.0
  0
LINE
  5
B79
  8
0
 10
116.9999999999999
 20
118.5
 30
0.0
 11
114.9999999999999
 21
116.5000000000002
 31
0.0
  0
LINE
  5
B7A
  8
0
 10
114.9999999999999
 20
120.4999999999998
 30
0.0
 11
116.9999999999999
 21
118.5
 31
0.0
  0
LINE
  5
B7B
  8
0
 10
114.9999999999999
 20
129.5
 30
0.0
 11
114.9999999999999
 21
120.4999999999998
 31
0.0
  0
ARC
  5
B7C
  8
0
 10
129.72104680147601
 20
74.0
 30
0.0
 40
2.0
 50
90.0
 51
149.9999999999992
  0
ARC
  5
B7D
  8
5
 10
136.72104680147601
 20
81.0
 30
0.0
 40
2.0
 50
90.0
 51
149.9999999999992
  0
LINE
  5
B7E
  8
5
 10
122.9999999999999
 20
68.5
 30
0.0
 11
131.49999999999989
 21
68.5
 31
0.0
  0
LINE
  5
B7F
  8
5
 10
151.6568542494922
 20
83.0
 30
0.0
 11
136.72104680147601
 21
83.0
 31
0.0
  0
LINE
  5
B80
  8
5
 10
138.99999999999989
 20
76.0
 30
0.0
 11
145.99999999999989
 21
83.0
 31
0.0
  0
LINE
  5
B81
  8
5
 10
144.65685424949251
 20
76.000000000000213
 30
0.0
 11
151.6568542494922
 21
83.0
 31
0.0
  0
LINE
  5
B82
  8
0
 10
83.000000000000014
 20
67.5
 30
0.0
 11
62.000000000000007
 21
67.5
 31
0.0
  0
ARC
  5
B83
  8
0
 10
83.000000000000014
 20
65.5
 30
0.0
 40
2.0
 50
0.0
 51
90.0
  0
ARC
  5
B84
  8
0
 10
62.000000000000007
 20
65.5
 30
0.0
 40
2.0
 50
90.0
 51
180.0
  0
LINE
  5
B85
  8
0
 10
70.500000000000014
 20
61.5
 30
0.0
 11
70.500000000000014
 21
67.5
 31
0.0
  0
LINE
  5
B86
  8
0
 10
74.500000000000014
 20
61.5
 30
0.0
 11
74.500000000000014
 21
67.5
 31
0.0
  0
LINE
  5
BE9
  8
0
 10
138.49999999999989
 20
61.5
 30
0.0
 11
139.99999999999989
 21
60.0
 31
0.0
  0
CIRCLE
  5
BF3
  8
0
 10
159.99999999999989
 20
118.5
 30
0.0
 40
6.5
  0
LINE
  5
BFB
  8
0
 10
184.99999999999989
 20
60.0
 30
0.0
 11
184.5095299461619
 21
60.0
 31
0.0
  0
LINE
  5
BFC
  8
0
 10
183.49047005383781
 20
60.0
 30
0.0
 11
183.78349364905381
 21
60.507531754730508
 31
0.0
  0
LINE
  5
BFD
  8
0
 10
184.5095299461619
 20
60.0
 30
0.0
 11
184.21650635094599
 21
60.507531754730508
 31
0.0
  0
ARC
  5
BFE
  8
0
 10
183.99999999999989
 20
60.382531754730508
 30
0.0
 40
0.25
 50
30.000000000000909
 51
149.9999999999992
  0
LINE
  5
BFF
  8
0
 10
183.49047005383781
 20
60.0
 30
0.0
 11
182.0095299461619
 21
60.0
 31
0.0
  0
LINE
  5
C00
  8
0
 10
180.99047005383781
 20
60.0
 30
0.0
 11
179.5095299461619
 21
60.0
 31
0.0
  0
LINE
  5
C01
  8
0
 10
180.99047005383781
 20
60.0
 30
0.0
 11
181.28349364905381
 21
60.507531754730508
 31
0.0
  0
LINE
  5
C02
  8
0
 10
182.0095299461619
 20
60.0
 30
0.0
 11
181.71650635094599
 21
60.507531754730508
 31
0.0
  0
ARC
  5
C03
  8
0
 10
181.49999999999989
 20
60.382531754730508
 30
0.0
 40
0.25
 50
30.000000000000909
 51
149.9999999999992
  0
LINE
  5
C04
  8
0
 10
178.49047005383781
 20
60.0
 30
0.0
 11
177.0095299461619
 21
60.0
 31
0.0
  0
LINE
  5
C05
  8
0
 10
178.49047005383781
 20
60.0
 30
0.0
 11
178.78349364905381
 21
60.507531754730508
 31
0.0
  0
LINE
  5
C06
  8
0
 10
179.5095299461619
 20
60.0
 30
0.0
 11
179.21650635094599
 21
60.507531754730508
 31
0.0
  0
ARC
  5
C07
  8
0
 10
178.99999999999989
 20
60.382531754730508
 30
0.0
 40
0.25
 50
30.000000000000909
 51
149.9999999999992
  0
LINE
  5
C08
  8
0
 10
175.99047005383781
 20
60.0
 30
0.0
 11
174.5095299461619
 21
60.0
 31
0.0
  0
LINE
  5
C09
  8
0
 10
175.99047005383781
 20
60.0
 30
0.0
 11
176.28349364905381
 21
60.507531754730508
 31
0.0
  0
LINE
  5
C0A
  8
0
 10
177.0095299461619
 20
60.0
 30
0.0
 11
176.71650635094599
 21
60.507531754730508
 31
0.0
  0
ARC
  5
C0B
  8
0
 10
176.4999999999998
 20
60.382531754730508
 30
0.0
 40
0.25
 50
30.000000000000909
 51
149.9999999999992
  0
LINE
  5
C0C
  8
0
 10
173.49047005383781
 20
60.0
 30
0.0
 11
172.0095299461619
 21
60.0
 31
0.0
  0
LINE
  5
C0D
  8
0
 10
173.49047005383781
 20
60.0
 30
0.0
 11
173.78349364905381
 21
60.507531754730508
 31
0.0
  0
LINE
  5
C0E
  8
0
 10
174.5095299461619
 20
60.0
 30
0.0
 11
174.21650635094599
 21
60.507531754730508
 31
0.0
  0
ARC
  5
C0F
  8
0
 10
173.99999999999989
 20
60.382531754730508
 30
0.0
 40
0.25
 50
30.000000000000909
 51
149.9999999999992
  0
LINE
  5
C10
  8
0
 10
170.99047005383781
 20
60.0
 30
0.0
 11
169.5095299461619
 21
60.0
 31
0.0
  0
LINE
  5
C11
  8
0
 10
170.99047005383781
 20
60.0
 30
0.0
 11
171.28349364905381
 21
60.507531754730508
 31
0.0
  0
LINE
  5
C12
  8
0
 10
172.0095299461619
 20
60.0
 30
0.0
 11
171.71650635094599
 21
60.507531754730508
 31
0.0
  0
ARC
  5
C13
  8
0
 10
171.49999999999989
 20
60.382531754730508
 30
0.0
 40
0.25
 50
30.000000000000909
 51
149.9999999999992
  0
LINE
  5
C14
  8
0
 10
168.49047005383781
 20
60.0
 30
0.0
 11
167.0095299461619
 21
60.0
 31
0.0
  0
LINE
  5
C15
  8
0
 10
168.49047005383781
 20
60.0
 30
0.0
 11
168.78349364905381
 21
60.507531754730508
 31
0.0
  0
LINE
  5
C16
  8
0
 10
169.5095299461619
 20
60.0
 30
0.0
 11
169.21650635094599
 21
60.507531754730508
 31
0.0
  0
ARC
  5
C17
  8
0
 10
168.99999999999989
 20
60.382531754730508
 30
0.0
 40
0.25
 50
30.000000000000909
 51
149.9999999999992
  0
LINE
  5
C18
  8
0
 10
165.99047005383781
 20
60.0
 30
0.0
 11
164.5095299461619
 21
60.0
 31
0.0
  0
LINE
  5
C19
  8
0
 10
165.99047005383781
 20
60.0
 30
0.0
 11
166.28349364905381
 21
60.507531754730508
 31
0.0
  0
LINE
  5
C1A
  8
0
 10
167.0095299461619
 20
60.0
 30
0.0
 11
166.71650635094599
 21
60.507531754730508
 31
0.0
  0
ARC
  5
C1B
  8
0
 10
166.49999999999989
 20
60.382531754730508
 30
0.0
 40
0.25
 50
30.000000000000909
 51
149.9999999999992
  0
LINE
  5
C1C
  8
0
 10
163.49047005383781
 20
60.0
 30
0.0
 11
162.0095299461619
 21
60.0
 31
0.0
  0
LINE
  5
C1D
  8
0
 10
163.49047005383781
 20
60.0
 30
0.0
 11
163.78349364905381
 21
60.507531754730508
 31
0.0
  0
LINE
  5
C1E
  8
0
 10
164.5095299461619
 20
60.0
 30
0.0
 11
164.21650635094599
 21
60.507531754730508
 31
0.0
  0
ARC
  5
C1F
  8
0
 10
163.9999999999998
 20
60.382531754730508
 30
0.0
 40
0.25
 50
30.000000000000909
 51
149.9999999999992
  0
LINE
  5
C20
  8
0
 10
160.99047005383781
 20
60.0
 30
0.0
 11
159.5095299461619
 21
60.0
 31
0.0
  0
LINE
  5
C21
  8
0
 10
160.99047005383781
 20
60.0
 30
0.0
 11
161.28349364905381
 21
60.507531754730508
 31
0.0
  0
LINE
  5
C22
  8
0
 10
162.0095299461619
 20
60.0
 30
0.0
 11
161.71650635094599
 21
60.507531754730508
 31
0.0
  0
ARC
  5
C23
  8
0
 10
161.49999999999989
 20
60.382531754730508
 30
0.0
 40
0.25
 50
30.000000000000909
 51
149.9999999999992
  0
LINE
  5
C24
  8
0
 10
158.49047005383781
 20
60.0
 30
0.0
 11
157.0095299461619
 21
60.0
 31
0.0
  0
LINE
  5
C25
  8
0
 10
158.49047005383781
 20
60.0
 30
0.0
 11
158.78349364905381
 21
60.507531754730508
 31
0.0
  0
LINE
  5
C26
  8
0
 10
159.5095299461619
 20
60.0
 30
0.0
 11
159.21650635094599
 21
60.507531754730508
 31
0.0
  0
ARC
  5
C27
  8
0
 10
158.99999999999989
 20
60.382531754730508
 30
0.0
 40
0.25
 50
30.000000000000909
 51
149.9999999999992
  0
LINE
  5
C28
  8
0
 10
155.99047005383781
 20
60.0
 30
0.0
 11
154.5095299461619
 21
60.0
 31
0.0
  0
LINE
  5
C29
  8
0
 10
155.99047005383781
 20
60.0
 30
0.0
 11
156.28349364905381
 21
60.507531754730508
 31
0.0
  0
LINE
  5
C2A
  8
0
 10
157.0095299461619
 20
60.0
 30
0.0
 11
156.71650635094599
 21
60.507531754730508
 31
0.0
  0
ARC
  5
C2B
  8
0
 10
156.49999999999989
 20
60.382531754730508
 30
0.0
 40
0.25
 50
30.000000000000909
 51
149.9999999999992
  0
LINE
  5
C2C
  8
0
 10
153.49047005383781
 20
60.0
 30
0.0
 11
152.0095299461619
 21
60.0
 31
0.0
  0
LINE
  5
C2D
  8
0
 10
153.49047005383781
 20
60.0
 30
0.0
 11
153.78349364905381
 21
60.507531754730508
 31
0.0
  0
LINE
  5
C2E
  8
0
 10
154.5095299461619
 20
60.0
 30
0.0
 11
154.21650635094599
 21
60.507531754730508
 31
0.0
  0
ARC
  5
C2F
  8
0
 10
153.99999999999989
 20
60.382531754730508
 30
0.0
 40
0.25
 50
30.000000000000909
 51
149.9999999999992
  0
LINE
  5
C30
  8
0
 10
150.99047005383781
 20
60.0
 30
0.0
 11
149.5095299461619
 21
60.0
 31
0.0
  0
LINE
  5
C31
  8
0
 10
150.99047005383781
 20
60.0
 30
0.0
 11
151.28349364905381
 21
60.507531754730508
 31
0.0
  0
LINE
  5
C32
  8
0
 10
152.0095299461619
 20
60.0
 30
0.0
 11
151.71650635094599
 21
60.507531754730508
 31
0.0
  0
ARC
  5
C33
  8
0
 10
151.4999999999998
 20
60.382531754730508
 30
0.0
 40
0.25
 50
30.000000000000909
 51
149.9999999999992
  0
LINE
  5
C34
  8
0
 10
148.49047005383781
 20
60.0
 30
0.0
 11
147.0095299461619
 21
60.0
 31
0.0
  0
LINE
  5
C35
  8
0
 10
148.49047005383781
 20
60.0
 30
0.0
 11
148.78349364905381
 21
60.507531754730508
 31
0.0
  0
LINE
  5
C36
  8
0
 10
149.5095299461619
 20
60.0
 30
0.0
 11
149.21650635094599
 21
60.507531754730508
 31
0.0
  0
ARC
  5
C37
  8
0
 10
148.99999999999989
 20
60.382531754730508
 30
0.0
 40
0.25
 50
30.000000000000909
 51
149.9999999999992
  0
LINE
  5
C38
  8
0
 10
145.99047005383781
 20
60.0
 30
0.0
 11
144.5095299461619
 21
60.0
 31
0.0
  0
LINE
  5
C39
  8
0
 10
145.99047005383781
 20
60.0
 30
0.0
 11
146.28349364905381
 21
60.507531754730508
 31
0.0
  0
LINE
  5
C3A
  8
0
 10
147.0095299461619
 20
60.0
 30
0.0
 11
146.71650635094599
 21
60.507531754730508
 31
0.0
  0
ARC
  5
C3B
  8
0
 10
146.49999999999989
 20
60.382531754730508
 30
0.0
 40
0.25
 50
30.000000000000909
 51
149.9999999999992
  0
LINE
  5
C3C
  8
0
 10
143.49047005383781
 20
60.0
 30
0.0
 11
142.0095299461619
 21
60.0
 31
0.0
  0
LINE
  5
C3D
  8
0
 10
143.49047005383781
 20
60.0
 30
0.0
 11
143.78349364905381
 21
60.507531754730508
 31
0.0
  0
LINE
  5
C3E
  8
0
 10
144.5095299461619
 20
60.0
 30
0.0
 11
144.21650635094599
 21
60.507531754730508
 31
0.0
  0
ARC
  5
C3F
  8
0
 10
143.99999999999989
 20
60.382531754730508
 30
0.0
 40
0.25
 50
30.000000000000909
 51
149.9999999999992
  0
LINE
  5
C40
  8
0
 10
140.99047005383781
 20
60.0
 30
0.0
 11
139.99999999999989
 21
60.0
 31
0.0
  0
LINE
  5
C41
  8
0
 10
140.99047005383781
 20
60.0
 30
0.0
 11
141.28349364905381
 21
60.507531754730508
 31
0.0
  0
LINE
  5
C42
  8
0
 10
142.0095299461619
 20
60.0
 30
0.0
 11
141.71650635094599
 21
60.507531754730508
 31
0.0
  0
ARC
  5
C43
  8
0
 10
141.49999999999989
 20
60.382531754730508
 30
0.0
 40
0.25
 50
30.000000000000909
 51
149.9999999999992
  0
LINE
  5
C4C
  8
5
 10
122.9999999999999
 20
68.5
 30
0.0
 11
122.0
 21
68.676326980708495
 31
0.0
  0
LINE
  5
C4D
  8
5
 10
122.0
 20
68.676326980708495
 30
0.0
 11
122.0
 21
69.276326980708504
 31
0.0
  0
LINE
  5
C4E
  8
5
 10
122.0
 20
69.276326980708504
 30
0.0
 11
122.9999999999999
 21
69.976534518918243
 31
0.0
  0
LINE
  5
C4F
  8
5
 10
122.0
 20
70.152861499626624
 30
0.0
 11
122.0
 21
70.752861499626647
 31
0.0
  0
LINE
  5
C50
  8
5
 10
122.0
 20
70.752861499626647
 30
0.0
 11
122.9999999999999
 21
71.453069037836372
 31
0.0
  0
LINE
  5
C51
  8
5
 10
122.9999999999999
 20
69.976534518918243
 30
0.0
 11
122.0
 21
70.152861499626624
 31
0.0
  0
LINE
  5
C52
  8
5
 10
122.0
 20
71.629396018544867
 30
0.0
 11
122.0
 21
72.22939601854489
 31
0.0
  0
LINE
  5
C53
  8
5
 10
122.0
 20
72.22939601854489
 30
0.0
 11
122.9999999999999
 21
72.9296035567545
 31
0.0
  0
LINE
  5
C54
  8
5
 10
122.9999999999999
 20
71.453069037836372
 30
0.0
 11
122.0
 21
71.629396018544867
 31
0.0
  0
LINE
  5
C55
  8
5
 10
122.0
 20
73.105930537462996
 30
0.0
 11
122.0
 21
73.705930537463018
 31
0.0
  0
LINE
  5
C56
  8
5
 10
122.0
 20
73.705930537463018
 30
0.0
 11
123.20324113893111
 21
74.548449053226705
 31
0.0
  0
LINE
  5
C57
  8
5
 10
122.9999999999999
 20
72.9296035567545
 30
0.0
 11
122.0
 21
73.105930537462996
 31
0.0
  0
ARC
  5
C58
  8
5
 10
121.9986149371406
 20
89.500000000000014
 30
0.0
 40
15.0
 50
274.60629356477011
 51
329.99999999999909
  0
LINE
  5
C59
  8
0
 10
115.9999999999999
 20
61.5
 30
0.0
 11
115.0
 21
61.676326980708502
 31
0.0
  0
LINE
  5
C5A
  8
0
 10
115.0
 20
61.676326980708502
 30
0.0
 11
115.0
 21
62.276326980708518
 31
0.0
  0
LINE
  5
C5B
  8
0
 10
115.0
 20
62.276326980708518
 30
0.0
 11
115.9999999999999
 21
62.976534518918243
 31
0.0
  0
LINE
  5
C5C
  8
0
 10
115.0
 20
63.152861499626631
 30
0.0
 11
115.0
 21
63.752861499626647
 31
0.0
  0
LINE
  5
C5D
  8
0
 10
115.0
 20
63.752861499626647
 30
0.0
 11
115.9999999999999
 21
64.453069037836372
 31
0.0
  0
LINE
  5
C5E
  8
0
 10
115.9999999999999
 20
62.976534518918243
 30
0.0
 11
115.0
 21
63.152861499626631
 31
0.0
  0
LINE
  5
C5F
  8
0
 10
115.0
 20
64.629396018544867
 30
0.0
 11
115.0
 21
65.229396018544875
 31
0.0
  0
LINE
  5
C60
  8
0
 10
115.0
 20
65.229396018544875
 30
0.0
 11
115.9999999999999
 21
65.9296035567545
 31
0.0
  0
LINE
  5
C61
  8
0
 10
115.9999999999999
 20
64.453069037836372
 30
0.0
 11
115.0
 21
64.629396018544867
 31
0.0
  0
LINE
  5
C62
  8
0
 10
115.0
 20
66.105930537462996
 30
0.0
 11
115.0
 21
66.705930537463004
 31
0.0
  0
LINE
  5
C63
  8
0
 10
115.0
 20
66.705930537463004
 30
0.0
 11
116.20324113893111
 21
67.548449053226705
 31
0.0
  0
LINE
  5
C64
  8
0
 10
115.9999999999999
 20
65.9296035567545
 30
0.0
 11
115.0
 21
66.105930537462996
 31
0.0
  0
ARC
  5
C65
  8
0
 10
114.9986149371406
 20
82.5
 30
0.0
 40
15.0
 50
274.60629356477011
 51
329.99999999999909
  0
LINE
  5
C66
  8
0
 10
70.499999999999901
 20
66.705930537463004
 30
0.0
 11
61.499999999999901
 21
66.705930537463004
 31
0.0
  0
LINE
  5
C67
  8
0
 10
83.500000000000014
 20
66.105930537462996
 30
0.0
 11
74.499999999999901
 21
66.105930537462996
 31
0.0
  0
LINE
  5
C68
  8
0
 10
70.499999999999901
 20
66.105930537462996
 30
0.0
 11
61.499999999999901
 21
66.105930537462996
 31
0.0
  0
LINE
  5
C69
  8
0
 10
83.500000000000014
 20
66.705930537463004
 30
0.0
 11
74.499999999999901
 21
66.705930537463004
 31
0.0
  0
LINE
  5
C6A
  8
0
 10
83.500000000000014
 20
64.629396018544867
 30
0.0
 11
74.499999999999901
 21
64.629396018544867
 31
0.0
  0
LINE
  5
C6B
  8
0
 10
70.499999999999901
 20
64.629396018544867
 30
0.0
 11
61.499999999999901
 21
64.629396018544867
 31
0.0
  0
LINE
  5
C6C
  8
0
 10
83.500000000000014
 20
65.229396018544875
 30
0.0
 11
74.499999999999901
 21
65.229396018544875
 31
0.0
  0
LINE
  5
C6D
  8
0
 10
70.499999999999901
 20
65.229396018544875
 30
0.0
 11
61.499999999999901
 21
65.229396018544875
 31
0.0
  0
LINE
  5
C6E
  8
0
 10
83.500000000000014
 20
63.152861499626631
 30
0.0
 11
74.499999999999901
 21
63.152861499626631
 31
0.0
  0
LINE
  5
C6F
  8
0
 10
70.499999999999901
 20
63.152861499626631
 30
0.0
 11
61.499999999999901
 21
63.152861499626631
 31
0.0
  0
LINE
  5
C70
  8
0
 10
83.500000000000014
 20
63.752861499626647
 30
0.0
 11
74.499999999999901
 21
63.752861499626647
 31
0.0
  0
LINE
  5
C71
  8
0
 10
70.499999999999901
 20
63.752861499626647
 30
0.0
 11
61.499999999999901
 21
63.752861499626647
 31
0.0
  0
LINE
  5
C72
  8
0
 10
70.499999999999901
 20
62.276326980708518
 30
0.0
 11
61.499999999999901
 21
62.276326980708518
 31
0.0
  0
LINE
  5
C73
  8
0
 10
83.500000000000014
 20
62.276326980708518
 30
0.0
 11
74.499999999999901
 21
62.276326980708518
 31
0.0
  0
LINE
  5
C74
  8
0
 10
70.499999999999901
 20
61.676326980708502
 30
0.0
 11
61.499999999999901
 21
61.676326980708502
 31
0.0
  0
LINE
  5
C75
  8
0
 10
83.500000000000014
 20
61.676326980708502
 30
0.0
 11
74.499999999999901
 21
61.676326980708502
 31
0.0
  0
ARC
  5
C76
  8
0
 10
176.5003639469995
 20
118.4999999999999
 30
0.0
 40
7.0000000094613286
 50
269.99702105328248
 51
90.002978946717533
  0
LINE
  5
C77
  8
0
 10
164.9180788932257
 20
114.25
 30
0.0
 11
176.50000000018889
 21
114.25
 31
0.0
  0
LINE
  5
C78
  8
0
 10
164.9180788932257
 20
122.75
 30
0.0
 11
176.50000000018889
 21
122.75
 31
0.0
  0
ARC
  5
C79
  8
0
 10
176.50000000000179
 20
118.5
 30
0.0
 40
4.25
 50
270.00000000252078
 51
89.999999997479165
  0
CIRCLE
  5
10A7
  8
0
 10
159.99999999999989
 20
118.5
 30
0.0
 40
4.2000000000000002
  0
POLYLINE
  5
127F
  8
3
 66
     1
 10
0.0
 20
0.0
 30
0.0
 70
     1
1001
ACAD
1000
ASC_BOUNDS
1002
{
1070
    19
1005
127E
1002
}
  0
VERTEX
  5
13AE
  8
3
 10
173.75
 20
67.500000000000043
 30
0.0
 42
1.0
  0
VERTEX
  5
13AF
  8
3
 10
175.25
 20
67.500000000000043
 30
0.0
 42
1.0
  0
SEQEND
  5
13B0
  8
3
  0
POLYLINE
  5
1280
  8
3
 66
     1
 10
0.0
 20
0.0
 30
0.0
 70
     1
1001
ACAD
1000
ASC_BOUNDS
1002
{
1070
    19
1005
127E
1002
}
  0
VERTEX
  5
13B1
  8
3
 10
176.4999999999998
 20
67.500000000000043
 30
0.0
 42
1.0
  0
VERTEX
  5
13B2
  8
3
 10
172.5
 20
67.500000000000043
 30
0.0
 42
1.0
  0
SEQEND
  5
13B3
  8
3
  0
POLYLINE
  5
1281
  8
3
 66
     1
 10
0.0
 20
0.0
 30
0.0
 70
     1
1001
ACAD
1000
ASC_BOUNDS
1002
{
1070
    19
1005
127E
1002
}
  0
VERTEX
  5
13B4
  8
3
 10
157.65952380952359
 20
68.844374328721599
 30
0.0
  0
VERTEX
  5
13B5
  8
3
 10
157.65952380952359
 20
69.584197099849334
 30
0.0
 42
0.1238822414942591
  0
VERTEX
  5
13B6
  8
3
 10
156.703726235402
 20
69.214285714285481
 30
0.0
 42
0.1238822414942589
  0
SEQEND
  5
13B7
  8
3
  0
POLYLINE
  5
1282
  8
3
 66
     1
 10
0.0
 20
0.0
 30
0.0
 70
     1
1001
ACAD
1000
ASC_BOUNDS
1002
{
1070
    19
1005
127E
1002
}
  0
VERTEX
  5
13B8
  8
3
 10
159.12960709793151
 20
69.214285714285481
 30
0.0
 42
0.1238822414942568
  0
VERTEX
  5
13B9
  8
3
 10
158.17380952380981
 20
69.584197099849334
 30
0.0
  0
VERTEX
  5
13BA
  8
3
 10
158.17380952380981
 20
68.844374328721642
 30
0.0
 42
0.1238822414942573
  0
SEQEND
  5
13BB
  8
3
  0
POLYLINE
  5
1283
  8
3
 66
     1
 10
0.0
 20
0.0
 30
0.0
 70
     1
1001
ACAD
1000
ASC_BOUNDS
1002
{
1070
    19
1005
127E
1002
}
  0
VERTEX
  5
13BC
  8
3
 10
157.65952380952359
 20
67.032483766511632
 30
0.0
 42
-0.0420571628960909
  0
VERTEX
  5
13BD
  8
3
 10
157.5456361489581
 20
66.615948418647463
 30
0.0
 42
-0.0111573747896638
  0
VERTEX
  5
13BE
  8
3
 10
157.65952380952359
 20
66.629967695417534
 30
0.0
  0
SEQEND
  5
13BF
  8
3
  0
POLYLINE
  5
1284
  8
3
 66
     1
 10
0.0
 20
0.0
 30
0.0
 70
     1
1001
ACAD
1000
ASC_BOUNDS
1002
{
1070
    19
1005
127E
1002
}
  0
VERTEX
  5
13C0
  8
3
 10
158.17380952380981
 20
67.242857142856977
 30
0.0
  0
VERTEX
  5
13C1
  8
3
 10
158.17380952380981
 20
66.629967695417534
 30
0.0
 42
-0.1402251973297237
  0
VERTEX
  5
13C2
  8
3
 10
159.48803636676141
 20
66.106875000000315
 30
0.0
 42
0.1517967807321737
  0
VERTEX
  5
13C3
  8
3
 10
160.00086376651609
 20
67.242857142856977
 30
0.0
  0
SEQEND
  5
13C4
  8
3
  0
POLYLINE
  5
1285
  8
3
 66
     1
 10
0.0
 20
0.0
 30
0.0
 70
     1
1001
ACAD
1000
ASC_BOUNDS
1002
{
1070
    19
1005
127E
1002
}
  0
VERTEX
  5
13C5
  8
3
 10
160.00086376651609
 20
67.757142857143094
 30
0.0
 42
0.1517967807321736
  0
VERTEX
  5
13C6
  8
3
 10
159.48803636676141
 20
68.893124999999756
 30
0.0
 42
-0.1402251973297237
  0
VERTEX
  5
13C7
  8
3
 10
158.17380952380981
 20
68.370032304582494
 30
0.0
  0
VERTEX
  5
13C8
  8
3
 10
158.17380952380981
 20
67.757142857143094
 30
0.0
  0
SEQEND
  5
13C9
  8
3
  0
POLYLINE
  5
1286
  8
3
 66
     1
 10
0.0
 20
0.0
 30
0.0
 70
     1
1001
ACAD
1000
ASC_BOUNDS
1002
{
1070
    19
1005
127E
1002
}
  0
VERTEX
  5
13CA
  8
3
 10
164.25
 20
65.500000000000043
 30
0.0
  0
VERTEX
  5
13CB
  8
3
 10
164.25
 20
67.875000000000043
 30
0.0
 42
-1.0
  0
VERTEX
  5
13CC
  8
3
 10
165.0
 20
67.875000000000043
 30
0.0
  0
VERTEX
  5
13CD
  8
3
 10
165.0
 20
65.500000000000043
 30
0.0
  0
VERTEX
  5
13CE
  8
3
 10
166.25
 20
65.500000000000043
 30
0.0
  0
VERTEX
  5
13CF
  8
3
 10
166.25
 20
67.875000000000043
 30
0.0
 42
-1.0
  0
VERTEX
  5
13D0
  8
3
 10
167.0
 20
67.875000000000043
 30
0.0
  0
VERTEX
  5
13D1
  8
3
 10
167.0
 20
65.500000000000043
 30
0.0
  0
VERTEX
  5
13D2
  8
3
 10
168.25
 20
65.500000000000043
 30
0.0
  0
VERTEX
  5
13D3
  8
3
 10
168.25
 20
67.875000000000043
 30
0.0
 42
0.6247472440541069
  0
VERTEX
  5
13D4
  8
3
 10
165.625
 20
69.155868845744976
 30
0.0
 42
0.6247472440541069
  0
VERTEX
  5
13D5
  8
3
 10
163.0
 20
67.875000000000043
 30
0.0
  0
VERTEX
  5
13D6
  8
3
 10
163.0
 20
65.500000000000043
 30
0.0
  0
SEQEND
  5
13D7
  8
3
  0
POLYLINE
  5
1287
  8
3
 66
     1
 10
0.0
 20
0.0
 30
0.0
 70
     1
1001
ACAD
1000
ASC_BOUNDS
1002
{
1070
    19
1005
127E
1002
}
  0
VERTEX
  5
13D8
  8
3
 10
157.65952380952359
 20
66.155625671278429
 30
0.0
 42
0.0479752760773671
  0
VERTEX
  5
13D9
  8
3
 10
157.26702825445491
 20
66.068418790077914
 30
0.0
 42
-0.0528997705207019
  0
VERTEX
  5
13DA
  8
3
 10
156.91908424908459
 20
65.652074319640818
 30
0.0
 42
0.0933324906988985
  0
VERTEX
  5
13DB
  8
3
 10
157.65952380952359
 20
65.415802900150723
 30
0.0
  0
SEQEND
  5
13DC
  8
3
  0
POLYLINE
  5
1288
  8
3
 66
     1
 10
0.0
 20
0.0
 30
0.0
 70
     1
1001
ACAD
1000
ASC_BOUNDS
1002
{
1070
    19
1005
127E
1002
}
  0
VERTEX
  5
13DD
  8
3
 10
158.17380952380981
 20
66.155625671278429
 30
0.0
  0
VERTEX
  5
13DE
  8
3
 10
158.17380952380981
 20
65.415802900150723
 30
0.0
 42
0.1238822414942567
  0
VERTEX
  5
13DF
  8
3
 10
159.12960709793151
 20
65.785714285714562
 30
0.0
 42
0.1238822414942571
  0
SEQEND
  5
13E0
  8
3
  0
POLYLINE
  5
1289
  8
3
 66
     1
 10
0.0
 20
0.0
 30
0.0
 70
     1
1001
ACAD
1000
ASC_BOUNDS
1002
{
1070
    19
1005
127E
1002
}
  0
VERTEX
  5
13E1
  8
3
 10
162.5
 20
69.500000000000043
 30
0.0
  0
VERTEX
  5
13E2
  8
3
 10
161.25
 20
69.500000000000043
 30
0.0
  0
VERTEX
  5
13E3
  8
3
 10
161.25
 20
65.500000000000043
 30
0.0
  0
VERTEX
  5
13E4
  8
3
 10
162.5
 20
65.500000000000043
 30
0.0
  0
SEQEND
  5
13E5
  8
3
  0
POLYLINE
  5
128A
  8
3
 66
     1
 10
0.0
 20
0.0
 30
0.0
 70
     1
1001
ACAD
1000
ASC_BOUNDS
1002
{
1070
    19
1005
127E
1002
}
  0
VERTEX
  5
13E6
  8
3
 10
170.0
 20
66.375
 30
0.0
  0
VERTEX
  5
13E7
  8
3
 10
170.75
 20
66.375000000000043
 30
0.0
  0
VERTEX
  5
13E8
  8
3
 10
170.75
 20
65.500000000000043
 30
0.0
  0
VERTEX
  5
13E9
  8
3
 10
172.0
 20
65.500000000000043
 30
0.0
  0
VERTEX
  5
13EA
  8
3
 10
172.0
 20
67.875000000000043
 30
0.0
 42
1.000000215936474
  0
VERTEX
  5
13EB
  8
3
 10
168.75
 20
67.875000000000043
 30
0.0
  0
VERTEX
  5
13EC
  8
3
 10
168.75
 20
65.500000000000043
 30
0.0
  0
VERTEX
  5
13ED
  8
3
 10
170.0
 20
65.5
 30
0.0
  0
SEQEND
  5
13EE
  8
3
  0
POLYLINE
  5
128B
  8
3
 66
     1
 10
0.0
 20
0.0
 30
0.0
 70
     1
1001
ACAD
1000
ASC_BOUNDS
1002
{
1070
    19
1005
127E
1002
}
  0
VERTEX
  5
13EF
  8
3
 10
170.75
 20
67.375000000000043
 30
0.0
  0
VERTEX
  5
13F0
  8
3
 10
170.75
 20
67.875000000000043
 30
0.0
 42
1.0000004495664849
  0
VERTEX
  5
13F1
  8
3
 10
170.0
 20
67.875000000000043
 30
0.0
  0
VERTEX
  5
13F2
  8
3
 10
170.0
 20
67.375000000000043
 30
0.0
  0
SEQEND
  5
13F3
  8
3
  0
POLYLINE
  5
128C
  8
3
 66
     1
 10
0.0
 20
0.0
 30
0.0
 70
     1
1001
ACAD
1000
ASC_BOUNDS
1002
{
1070
    19
1005
127E
1002
}
  0
VERTEX
  5
13F4
  8
3
 10
156.34529696657191
 20
68.893124999999714
 30
0.0
 42
0.1402251973297244
  0
VERTEX
  5
13F5
  8
3
 10
157.65952380952359
 20
68.370032304582494
 30
0.0
  0
VERTEX
  5
13F6
  8
3
 10
157.65952380952359
 20
67.757142857143094
 30
0.0
  0
VERTEX
  5
13F7
  8
3
 10
157.23095238095269
 20
67.757142857143094
 30
0.0
  0
VERTEX
  5
13F8
  8
3
 10
157.23095238095269
 20
67.500000000000043
 30
0.0
 42
-0.378699158263169
  0
VERTEX
  5
13F9
  8
3
 10
155.38809523809601
 20
65.415802900150723
 30
0.0
  0
VERTEX
  5
13FA
  8
3
 10
155.38809523809601
 20
64.941460876011575
 30
0.0
 42
0.1186144156091118
  0
VERTEX
  5
13FB
  8
3
 10
156.5238095238098
 20
65.338474178375009
 30
0.0
 42
1.834021909257185
  0
VERTEX
  5
13FC
  8
3
 10
156.5238095238098
 20
69.661525821625062
 30
0.0
 42
1.26915442618927
  0
VERTEX
  5
13FD
  8
3
 10
154.87380952380991
 20
64.941460876011575
 30
0.0
  0
VERTEX
  5
13FE
  8
3
 10
154.87380952380991
 20
65.415802900150723
 30
0.0
 42
-0.3786991582631508
  0
VERTEX
  5
13FF
  8
3
 10
153.03095238095321
 20
67.499999999999886
 30
0.0
  0
VERTEX
  5
1400
  8
3
 10
153.03095238095321
 20
67.757142857143094
 30
0.0
  0
VERTEX
  5
1401
  8
3
 10
153.50238095238149
 20
67.757142857143094
 30
0.0
  0
VERTEX
  5
1402
  8
3
 10
153.50238095238149
 20
67.500000000000156
 30
0.0
 42
0.3684995607863874
  0
VERTEX
  5
1403
  8
3
 10
154.87380952380991
 20
65.891857453774875
 30
0.0
  0
VERTEX
  5
1404
  8
3
 10
154.87380952380991
 20
66.371790293049642
 30
0.0
 42
-0.3500011104183812
  0
VERTEX
  5
1405
  8
3
 10
153.97380952381059
 20
67.500000000000043
 30
0.0
  0
VERTEX
  5
1406
  8
3
 10
153.97380952381059
 20
67.757142857143094
 30
0.0
  0
VERTEX
  5
1407
  8
3
 10
154.44523809523901
 20
67.757142857143094
 30
0.0
  0
VERTEX
  5
1408
  8
3
 10
154.44523809523901
 20
67.5
 30
0.0
 42
0.9999989916437579
  0
VERTEX
  5
1409
  8
3
 10
155.81666666666669
 20
67.49999952288799
 30
0.0
 42
-0.1833501526628178
  0
SEQEND
  5
140A
  8
3
  0
POLYLINE
  5
128D
  8
3
 66
     1
 10
0.0
 20
0.0
 30
0.0
 70
     1
1001
ACAD
1000
ASC_BOUNDS
1002
{
1070
    19
1005
127E
1002
}
  0
VERTEX
  5
140B
  8
3
 10
156.75952380952461
 20
67.500000000000043
 30
0.0
  0
VERTEX
  5
140C
  8
3
 10
156.75952380952461
 20
67.757142857143094
 30
0.0
  0
VERTEX
  5
140D
  8
3
 10
156.2880952380952
 20
67.757142857143094
 30
0.0
  0
VERTEX
  5
140E
  8
3
 10
156.2880952380952
 20
67.500000000000043
 30
0.0
 42
-0.3500011104183828
  0
VERTEX
  5
140F
  8
3
 10
155.38809523809601
 20
66.371790293049642
 30
0.0
  0
VERTEX
  5
1410
  8
3
 10
155.38809523809601
 20
65.891857453774875
 30
0.0
 42
0.3684995607863695
  0
SEQEND
  5
1411
  8
3
  0
LINE
  5
1297
  8
1
 10
176.4999999999998
 20
57.5
 30
0.0
 11
176.4999999999998
 21
78.5
 31
0.0
  0
LINE
  5
1298
  8
1
 10
159.99999999999989
 20
57.5
 30
0.0
 11
159.99999999999989
 21
78.5
 31
0.0
  0
LINE
  5
1300
  8
2
 10
152.99999999999989
 20
67.0
 30
0.0
 11
152.99999999999989
 21
76.0
 31
0.0
  0
LINE
  5
1301
  8
2
 10
183.5003639564608
 20
67.0
 30
0.0
 11
183.5003639564608
 21
76.0
 31
0.0
  0
LINE
  5
1302
  8
2
 10
180.75000000000179
 20
67.0
 30
0.0
 11
180.75000000000179
 21
60.0
 31
0.0
  0
LINE
  5
1303
  8
2
 10
155.7499999999979
 20
67.0
 30
0.0
 11
155.7499999999979
 21
60.0
 31
0.0
  0
LINE
  5
1307
  8
2
 10
183.5003639564608
 20
67.0
 30
0.0
 11
152.99999999999989
 21
67.0
 31
0.0
  0
LINE
  5
131B
  8
2
 10
153.49999999999989
 20
69.700000000000003
 30
0.0
 11
153.4999999999998
 21
67.299999999999997
 31
0.0
  0
LINE
  5
131C
  8
2
 10
166.49999999999989
 20
69.700000000000003
 30
0.0
 11
166.4999999999998
 21
67.300000000000011
 31
0.0
  0
LINE
  5
131D
  8
2
 10
166.1999999999999
 20
70.0
 30
0.0
 11
153.7999999999999
 21
70.0
 31
0.0
  0
LINE
  5
131E
  8
2
 10
153.7999999999999
 20
70.0
 30
0.0
 11
153.49999999999989
 21
69.700000000000003
 31
0.0
  0
LINE
  5
131F
  8
2
 10
166.1999999999999
 20
70.0
 30
0.0
 11
166.49999999999989
 21
69.700000000000003
 31
0.0
  0
LINE
  5
1320
  8
2
 10
153.7999999999999
 20
67.0
 30
0.0
 11
153.49999999999989
 21
67.299999999999997
 31
0.0
  0
LINE
  5
1321
  8
2
 10
166.1999999999999
 20
67.0
 30
0.0
 11
166.49999999999989
 21
67.299999999999997
 31
0.0
  0
ENDSEC
  0
EOF
