  0
SECTION
  2
HEADER
  9
$ACADVER
  1
AC1009
  9
$INSBASE
 10
0.0
 20
0.0
 30
0.0
  9
$EXTMIN
 10
0.0
 20
-2.960436562073669
 30
0.0
  9
$EXTMAX
 10
255.00000000000011
 20
192.0
 30
0.0
  9
$LIMMIN
 10
0.0
 20
0.0
  9
$LIMMAX
 10
375.0
 20
270.0
  9
$ORTHOMODE
 70
     1
  9
$REGENMODE
 70
     1
  9
$FILLMODE
 70
     1
  9
$QTEXTMODE
 70
     0
  9
$MIRRTEXT
 70
     0
  9
$DRAGMODE
 70
     2
  9
$LTSCALE
 40
5.0
  9
$OSMODE
 70
    37
  9
$ATTMODE
 70
     1
  9
$TEXTSIZE
 40
0.2
  9
$TRACEWID
 40
0.05
  9
$TEXTSTYLE
  7
ST
  9
$CLAYER
  8
4
  9
$CELTYPE
  6
BYLAYER
  9
$CECOLOR
 62
   256
  9
$DIMSCALE
 40
1.0
  9
$DIMASZ
 40
3.0
  9
$DIMEXO
 40
2.0
  9
$DIMDLI
 40
0.3799999999999999
  9
$DIMRND
 40
0.0
  9
$DIMDLE
 40
0.0
  9
$DIMEXE
 40
2.0
  9
$DIMTP
 40
0.0
  9
$DIMTM
 40
0.0
  9
$DIMTXT
 40
3.0
  9
$DIMCEN
 40
0.09
  9
$DIMTSZ
 40
0.0
  9
$DIMTOL
 70
     0
  9
$DIMLIM
 70
     0
  9
$DIMTIH
 70
     0
  9
$DIMTOH
 70
     0
  9
$DIMSE1
 70
     0
  9
$DIMSE2
 70
     0
  9
$DIMTAD
 70
     1
  9
$DIMZIN
 70
     8
  9
$DIMBLK
  1

  9
$DIMASO
 70
     0
  9
$DIMSHO
 70
     0
  9
$DIMPOST
  1

  9
$DIMAPOST
  1

  9
$DIMALT
 70
     0
  9
$DIMALTD
 70
     2
  9
$DIMALTF
 40
25.399999999999999
  9
$DIMLFAC
 40
1.0
  9
$DIMTOFL
 70
     1
  9
$DIMTVP
 40
1.6000000000000001
  9
$DIMTIX
 70
     1
  9
$DIMSOXD
 70
     0
  9
$DIMSAH
 70
     0
  9
$DIMBLK1
  1

  9
$DIMBLK2
  1

  9
$DIMSTYLE
  2
STANDARD
  9
$DIMCLRD
 70
     0
  9
$DIMCLRE
 70
     0
  9
$DIMCLRT
 70
     0
  9
$DIMTFAC
 40
1.0
  9
$DIMGAP
 40
1.1999999999999991
  9
$LUNITS
 70
     2
  9
$LUPREC
 70
     1
  9
$SKETCHINC
 40
0.1
  9
$FILLETRAD
 40
1.5
  9
$AUNITS
 70
     0
  9
$AUPREC
 70
     1
  9
$MENU
  1
ACAD
  9
$ELEVATION
 40
0.0
  9
$PELEVATION
 40
0.0
  9
$THICKNESS
 40
0.0
  9
$LIMCHECK
 70
     0
  9
$BLIPMODE
 70
     0
  9
$CHAMFERA
 40
0.0
  9
$CHAMFERB
 40
0.0
  9
$SKPOLY
 70
     0
  9
$TDCREATE
 40
2448586.4078643522
  9
$TDUPDATE
 40
2456969.392605497
  9
$TDINDWG
 40
0.2780840741
  9
$TDUSRTIMER
 40
0.2780840741
  9
$USRTIMER
 70
     1
  9
$ANGBASE
 50
0.0
  9
$ANGDIR
 70
     0
  9
$PDMODE
 70
     0
  9
$PDSIZE
 40
0.0
  9
$PLINEWID
 40
0.0
  9
$COORDS
 70
     1
  9
$SPLFRAME
 70
     0
  9
$SPLINETYPE
 70
     6
  9
$SPLINESEGS
 70
     8
  9
$ATTDIA
 70
     0
  9
$ATTREQ
 70
     1
  9
$HANDLING
 70
     1
  9
$HANDSEED
  5
3426
  9
$SURFTAB1
 70
     6
  9
$SURFTAB2
 70
     6
  9
$SURFTYPE
 70
     6
  9
$SURFU
 70
     6
  9
$SURFV
 70
     6
  9
$UCSNAME
  2

  9
$UCSORG
 10
0.0
 20
0.0
 30
0.0
  9
$UCSXDIR
 10
1.0
 20
0.0
 30
0.0
  9
$UCSYDIR
 10
0.0
 20
1.0
 30
0.0
  9
$PUCSNAME
  2

  9
$PUCSORG
 10
0.0
 20
0.0
 30
0.0
  9
$PUCSXDIR
 10
1.0
 20
0.0
 30
0.0
  9
$PUCSYDIR
 10
0.0
 20
1.0
 30
0.0
  9
$USERI1
 70
     0
  9
$USERI2
 70
     1
  9
$USERI3
 70
     1
  9
$USERI4
 70
     0
  9
$USERI5
 70
     0
  9
$USERR1
 40
0.0
  9
$USERR2
 40
0.0
  9
$USERR3
 40
0.0
  9
$USERR4
 40
0.0
  9
$USERR5
 40
0.0
  9
$WORLDVIEW
 70
     1
  9
$SHADEDGE
 70
     3
  9
$SHADEDIF
 70
    70
  9
$TILEMODE
 70
     1
  9
$MAXACTVP
 70
    16
  9
$PLIMCHECK
 70
     0
  9
$PEXTMIN
 10
1.0000000000000000E+020
 20
1.0000000000000000E+020
 30
1.0000000000000000E+020
  9
$PEXTMAX
 10
-1.0000000000000000E+020
 20
-1.0000000000000000E+020
 30
-1.0000000000000000E+020
  9
$PLIMMIN
 10
0.0
 20
0.0
  9
$PLIMMAX
 10
12.0
 20
9.0
  9
$UNITMODE
 70
     0
  9
$VISRETAIN
 70
     0
  9
$PLINEGEN
 70
     1
  9
$PSLTSCALE
 70
     0
  0
ENDSEC
  0
SECTION
  2
TABLES
  0
TABLE
  2
VPORT
 70
     1
  0
VPORT
  2
*ACTIVE
 70
     0
 10
0.0
 20
0.0
 11
1.0
 21
1.0
 12
235.63977746870651
 22
135.0
 13
0.0
 23
0.0
 14
5.0
 24
5.0
 15
10.0
 25
10.0
 16
0.0
 26
0.0
 36
1.0
 17
0.0
 27
0.0
 37
0.0
 40
270.0
 41
1.7454798331015291
 42
50.0
 43
0.0
 44
0.0
 50
0.0
 51
0.0
 71
     0
 72
   500
 73
     1
 74
     0
 75
     0
 76
     0
 77
     0
 78
     2
  0
ENDTAB
  0
TABLE
  2
LTYPE
 70
     5
  0
LTYPE
  2
CONTINUOUS
 70
     0
  3
実線
 72
    65
 73
     0
 40
0.0
  0
LTYPE
  2
CENTER
 70
     0
  3
____ _ ____ _ ____ _ ____ _ ____ _ ____ _ ____
 72
    65
 73
     4
 40
2.0
 49
1.25
 49
-0.25
 49
0.25
 49
-0.25
  0
LTYPE
  2
PHANTOM
 70
     0
  3
_____ _ _ _____ _ _ _____ _ _ _____ _ _ ____
 72
    65
 73
     6
 40
2.5
 49
1.25
 49
-0.25
 49
0.25
 49
-0.25
 49
0.25
 49
-0.25
  0
LTYPE
  2
PHANTOM2
 70
     0
  3
___ _ _ ___ _ _ ___ _ _ ___ _ _
 72
    65
 73
     6
 40
1.25
 49
0.625
 49
-0.125
 49
0.125
 49
-0.125
 49
0.125
 49
-0.125
  0
LTYPE
  2
HIDDEN
 70
     0
  3
_ _ _ _ _ _ _ _ _ _ _ _ _ _ _ _ _ _ _ _ _ _ _
 72
    65
 73
     2
 40
0.375
 49
0.25
 49
-0.125
  0
ENDTAB
  0
TABLE
  2
LAYER
 70
     7
  0
LAYER
  2
0
 70
     0
 62
     7
  6
CONTINUOUS
  0
LAYER
  2
1
 70
     0
 62
     1
  6
CENTER
  0
LAYER
  2
3
 70
     0
 62
     3
  6
CONTINUOUS
  0
LAYER
  2
4
 70
     0
 62
     4
  6
CONTINUOUS
  0
LAYER
  2
DEFPOINTS
 70
     0
 62
     7
  6
CONTINUOUS
  0
LAYER
  2
5
 70
     0
 62
     3
  6
PHANTOM
  0
LAYER
  2
2
 70
     0
 62
     2
  6
HIDDEN
  0
ENDTAB
  0
TABLE
  2
STYLE
 70
     4
  0
STYLE
  2
STANDARD
 70
     0
 40
0.0
 41
1.0
 50
0.0
 71
     0
 42
5.0
  3
simplex.shx
  4
BIGFONT.shx
  0
STYLE
  2
07500
 70
     0
 40
0.0
 41
0.75
 50
0.0
 71
     0
 42
0.2
  3
simplex.shx
  4
BIGFONT.shx
  0
STYLE
  2
ST
 70
     0
 40
0.0
 41
1.0
 50
0.0
 71
     0
 42
0.2
  3
simplex.shx
  4
BIGFONT.shx
  0
STYLE
  2
STANDARD1
 70
     0
 40
0.0
 41
1.0
 50
0.0
 71
     0
 42
3.0
  3
txt
  4

  0
ENDTAB
  0
TABLE
  2
VIEW
 70
     2
  0
VIEW
  2
ALL
 70
     0
 40
270.0
 10
220.99159663865549
 20
135.0
 41
0.0
 11
0.0
 21
0.0
 31
1.0
 12
0.0
 22
0.0
 32
0.0
 42
0.0
 43
0.0
 44
0.0
 50
0.0
 71
     0
  0
VIEW
  2
OLE1
 70
     0
 40
141.8109196345699
 10
647.42398977825678
 20
173.39147246147519
 41
233.72540458290231
 11
0.0
 21
0.0
 31
1.0
 12
0.0
 22
0.0
 32
0.0
 42
50.0
 43
0.0
 44
0.0
 50
0.0
 71
     0
  0
ENDTAB
  0
TABLE
  2
UCS
 70
     0
  0
ENDTAB
  0
TABLE
  2
APPID
 70
    42
  0
APPID
  2
ACAD
 70
     0
  0
APPID
  2
DCO15
 70
     0
  0
APPID
  2
GENIUS_GENOREF_13
 70
     0
  0
APPID
  2
GENIUS_GENOENT_13
 70
     0
  0
APPID
  2
GENIUS_GENBH_13
 70
     0
  0
APPID
  2
GENIUS_GENOBJ_13
 70
     0
  0
APPID
  2
GENIUS_GENODEF_13
 70
     0
  0
APPID
  2
GENIUS_GENOLIS_13
 70
     0
  0
APPID
  2
GENIUS_GENOBJ-NBEHI-BHF_13
 70
     0
  0
APPID
  2
GENIUS_GENOBJ-NBEHI-BHB_13
 70
     0
  0
APPID
  2
GENIUS_GENOBJ-F-PART_13
 70
     0
  0
APPID
  2
GENIUS_GEFSTDP_13
 70
     0
  0
APPID
  2
GENIUS_GENOBJ-N-RSSYM_13
 70
     0
  0
APPID
  2
GENIUS_GENSYMENT_13
 70
     0
  0
APPID
  2
GENIUS_GENOBJ-N-TIT_13
 70
     0
  0
APPID
  2
GENIUS_GENTITLE_13
 70
     0
  0
APPID
  2
GENIUS_GENZVEED_13
 70
     0
  0
APPID
  2
GENIUS_GENOBJ-N-LEADER_13
 70
     0
  0
APPID
  2
GENIUS_GENOBJ-N-FIL_13
 70
     0
  0
APPID
  2
GENIUS_GENOBJ-N-SEC_13
 70
     0
  0
APPID
  2
GENIUS_GENOBJ-N-CRS_13
 70
     0
  0
APPID
  2
GENIUS_GENOBJ-N-ZOO_13
 70
     0
  0
APPID
  2
GENIUS_GENZOO_13
 70
     0
  0
APPID
  2
GENIUS_GENOBJ-F-TOL_13
 70
     0
  0
APPID
  2
GENIUS_GENFIL_13
 70
     0
  0
APPID
  2
GENIUS_GENOBJ-N-CHA_13
 70
     0
  0
APPID
  2
ASM_BASE
 70
     0
  0
APPID
  2
ASM_EXPLO_VER_2_00
 70
     0
  0
APPID
  2
ASM_CADM_VER_12_00
 70
     0
  0
APPID
  2
ASM_BASEFORO
 70
     0
  0
APPID
  2
ASM_BASETRAVI
 70
     0
  0
APPID
  2
ASM_BASETRAVI1
 70
     0
  0
APPID
  2
ASM_GRUPPI
 70
     0
  0
APPID
  2
ASM_CADM_ALBERO
 70
     0
  0
APPID
  2
ASM_GOLE
 70
     0
  0
APPID
  2
_CALL_MAC$
 70
     0
  0
APPID
  2
CONTENTBLOCKICON
 70
     0
  0
APPID
  2
ACAD_MLEADERVER
 70
     0
  0
APPID
  2
ACAD_EXEMPT_FROM_CAD_STANDARDS
 70
     0
  0
APPID
  2
ACAD_NAV_VCDISPLAY
 70
     0
  0
APPID
  2
ACAD_DSTYLE_DIMJAG
 70
     0
  0
APPID
  2
ACAD_DSTYLE_DIMTALN
 70
     0
  0
ENDTAB
  0
TABLE
  2
DIMSTYLE
 70
     1
  0
DIMSTYLE
  2
STANDARD
 70
     0
  3

  4

  5

  6

  7

 40
1.0
 41
0.18
 42
0.0625
 43
0.38
 44
0.18
 45
0.0
 46
0.0
 47
0.0
 48
0.0
140
0.18
141
0.09
142
0.0
143
25.399999999999999
144
1.0
145
0.0
146
1.0
147
0.09
 71
     0
 72
     0
 73
     1
 74
     1
 75
     0
 76
     0
 77
     0
 78
     0
170
     0
171
     2
172
     0
173
     0
174
     0
175
     0
176
     0
177
     0
178
     0
  0
ENDTAB
  0
ENDSEC
  0
SECTION
  2
BLOCKS
  0
BLOCK
  8
0
  2
$MODEL_SPACE
 70
     0
 10
0.0
 20
0.0
 30
0.0
  3
$MODEL_SPACE
  1

  0
ENDBLK
  5
3C
  8
0
  0
BLOCK
 67
     1
  8
0
  2
$PAPER_SPACE
 70
     0
 10
0.0
 20
0.0
 30
0.0
  3
$PAPER_SPACE
  1

  0
ENDBLK
  5
3A
 67
     1
  8
0
  0
ENDSEC
  0
SECTION
  2
ENTITIES
  0
LINE
  5
1D76
  8
1
 10
140.00000000000011
 20
174.5
 30
0.0
 11
255.00000000000011
 21
174.5
 31
0.0
  0
LINE
  5
1D77
  8
0
 10
147.00000000000011
 20
192.0
 30
0.0
 11
244.00000000000011
 21
192.0
 31
0.0
  0
LINE
  5
1D78
  8
0
 10
250.00000000000011
 20
186.0
 30
0.0
 11
250.00000000000011
 21
163.0
 31
0.0
  0
LINE
  5
1D79
  8
0
 10
244.00000000000011
 20
157.0
 30
0.0
 11
147.00000000000011
 21
157.0
 31
0.0
  0
LINE
  5
1D7A
  8
0
 10
180.00000000000011
 20
157.0
 30
0.0
 11
180.00000000000011
 21
165.46499999999969
 31
0.0
  0
LINE
  5
1D7B
  8
1
 10
236.50000000000011
 20
187.0
 30
0.0
 11
236.50000000000011
 21
162.0
 31
0.0
  0
ARC
  5
1D7C
  8
0
 10
236.50000000000011
 20
174.5
 30
0.0
 40
10.0
 50
270.0
 51
90.0
  0
ARC
  5
1D7D
  8
0
 10
210.00000000000011
 20
174.5
 30
0.0
 40
10.0
 50
90.0
 51
270.0
  0
LINE
  5
1D7E
  8
1
 10
210.00000000000011
 20
187.0
 30
0.0
 11
210.00000000000011
 21
162.0
 31
0.0
  0
LINE
  5
1D7F
  8
0
 10
210.00000000000011
 20
184.5
 30
0.0
 11
236.50000000000011
 21
184.5
 31
0.0
  0
LINE
  5
1D80
  8
0
 10
236.50000000000011
 20
164.5
 30
0.0
 11
210.00000000000011
 21
164.5
 31
0.0
  0
ARC
  5
1D81
  8
0
 10
244.00000000000011
 20
186.0
 30
0.0
 40
6.0
 50
0.0
 51
90.0
  0
ARC
  5
1D82
  8
0
 10
244.00000000000011
 20
163.0
 30
0.0
 40
6.0
 50
270.0
 51
0.0
  0
LINE
  5
1D83
  8
0
 10
160.00000000000011
 20
157.0
 30
0.0
 11
160.00000000000011
 21
157.0
 31
0.0
  0
LINE
  5
1D84
  8
0
 10
250.00000000000011
 20
85.000000000000014
 30
0.0
 11
250.00000000000011
 21
102.0
 31
0.0
  0
LINE
  5
1D85
  8
0
 10
247.00000000000011
 20
105.0
 30
0.0
 11
166.90890230020659
 21
105.0
 31
0.0
  0
LINE
  5
1D86
  8
0
 10
240.0
 20
91.500000000000014
 30
0.0
 11
240.00000000000011
 21
96.500000000000014
 31
0.0
  0
LINE
  5
1D87
  8
0
 10
146.5
 20
85.000000000000014
 30
0.0
 11
250.00000000000011
 21
85.000000000000014
 31
0.0
  0
LINE
  5
1D88
  8
0
 10
160.00000000000011
 20
85.000000000000014
 30
0.0
 11
180.00000000000011
 21
105.0
 31
0.0
  0
LINE
  5
1D8A
  8
0
 10
187.50000000000421
 20
89.000000000000014
 30
0.0
 11
237.5
 21
89.000000000000014
 31
0.0
  0
LINE
  5
1D8B
  8
0
 10
192.50000000000369
 20
98.999999999999545
 30
0.0
 11
237.50000000000011
 21
99.000000000000014
 31
0.0
  0
ARC
  5
1D8C
  8
0
 10
237.5
 20
91.500000000000014
 30
0.0
 40
2.5
 50
270.0
 51
0.0
  0
ARC
  5
1D8D
  8
0
 10
237.50000000000011
 20
96.500000000000014
 30
0.0
 40
2.5
 50
0.0
 51
90.0
  0
ARC
  5
1D8E
  8
0
 10
192.50000000000369
 20
96.499999999999545
 30
0.0
 40
2.5
 50
90.000000000000554
 51
134.99999999999969
  0
LINE
  5
1D8F
  8
0
 10
185.73223304703779
 20
93.267766952966454
 30
0.0
 11
190.7322330470374
 21
98.267766952966014
 31
0.0
  0
ARC
  5
1D90
  8
0
 10
187.50000000000421
 20
91.500000000000014
 30
0.0
 40
2.5
 50
134.9999999999998
 51
269.99999999999989
  0
LINE
  5
1D91
  8
0
 10
242.00000000000011
 20
91.500000000000014
 30
0.0
 11
242.00000000000011
 21
96.500000000000014
 31
0.0
  0
LINE
  5
1D92
  8
0
 10
192.50000000000369
 20
100.9999999999995
 30
0.0
 11
237.50000000000011
 21
101.0
 31
0.0
  0
LINE
  5
1D93
  8
0
 10
184.31801948466469
 20
94.681980515339561
 30
0.0
 11
189.31801948466429
 21
99.681980515339106
 31
0.0
  0
LINE
  5
1D94
  8
0
 10
187.50000000000421
 20
87.000000000000014
 30
0.0
 11
237.50000000000011
 21
87.000000000000014
 31
0.0
  0
ARC
  5
1D95
  8
0
 10
237.50000000000011
 20
91.500000000000014
 30
0.0
 40
4.5
 50
269.99999999999989
 51
0.0
  0
ARC
  5
1D96
  8
0
 10
237.50000000000011
 20
96.500000000000014
 30
0.0
 40
4.5
 50
0.0
 51
90.000000000000455
  0
ARC
  5
1D97
  8
0
 10
192.50000000000369
 20
96.499999999999545
 30
0.0
 40
4.5
 50
90.000000000000483
 51
134.99999999999969
  0
ARC
  5
1D98
  8
0
 10
187.50000000000421
 20
91.500000000000014
 30
0.0
 40
4.5
 50
134.9999999999996
 51
269.99999999999989
  0
ARC
  5
1D99
  8
0
 10
247.00000000000011
 20
102.0
 30
0.0
 40
3.0
 50
0.0
 51
90.0
  0
LINE
  5
1D9A
  8
0
 10
180.00000000000011
 20
183.53500000000031
 30
0.0
 11
188.48528137423861
 21
186.9991016151381
 31
0.0
  0
LINE
  5
1D9B
  8
0
 10
188.48528137423861
 20
186.9991016151381
 30
0.0
 11
188.48528137423861
 21
180.41750000100029
 31
0.0
  0
LINE
  5
1D9C
  8
0
 10
188.48528137423861
 20
162.0008983848619
 30
0.0
 11
180.00000000000011
 21
165.46499999999969
 31
0.0
  0
LINE
  5
1D9D
  8
0
 10
180.00000000000011
 20
183.53500000000031
 30
0.0
 11
180.00000000000011
 21
192.0
 31
0.0
  0
ARC
  5
1D9E
  8
3
 10
189.77678724290681
 20
177.1893149472744
 30
0.0
 40
9.5000000000011848
 50
286.67854921345969
 51
323.29997163973439
  0
ARC
  5
1D9F
  8
3
 10
188.4852786768403
 20
181.5000000000004
 30
0.0
 40
14.000000000001281
 50
270.0
 51
286.67854921345958
  0
ARC
  5
1DA0
  8
3
 10
188.4852786768403
 20
167.49999999999949
 30
0.0
 40
14.000000000001281
 50
73.321450786540339
 51
90.0
  0
ARC
  5
1DA1
  8
3
 10
189.77678724290681
 20
171.8106850527256
 30
0.0
 40
9.5000000000011848
 50
36.700028360265563
 51
73.321450786540254
  0
ARC
  5
1DA2
  8
3
 10
193.38477631084939
 20
174.5
 30
0.0
 40
4.999999999998181
 50
323.29997163973439
 51
36.700028360265563
  0
ARC
  5
1DA3
  8
0
 10
189.57706508554369
 20
176.77343160045501
 30
0.0
 40
8.0308928585010015
 50
286.67854921345969
 51
323.29997163973439
  0
ARC
  5
1DA4
  8
0
 10
188.4852790939737
 20
180.41750000100049
 30
0.0
 40
11.835000002001079
 50
270.0
 51
286.67854921345958
  0
ARC
  5
1DA5
  8
0
 10
188.4852790939737
 20
168.58249999899951
 30
0.0
 40
11.835000002001079
 50
73.321450786540339
 51
90.0
  0
ARC
  5
1DA6
  8
0
 10
189.57706508554369
 20
172.2265683995449
 30
0.0
 40
8.0308928585010015
 50
36.700028360265563
 51
73.321450786540254
  0
ARC
  5
1DA7
  8
0
 10
192.62710441599501
 20
174.5
 30
0.0
 40
4.2267857149984609
 50
323.29997163973439
 51
36.700028360265563
  0
LINE
  5
1DA8
  8
0
 10
188.48528137423861
 20
168.58249999899959
 30
0.0
 11
188.48528137423861
 21
162.0008983848619
 31
0.0
  0
LINE
  5
1DA9
  8
0
 10
94.0
 20
85.000000000000014
 30
0.0
 11
61.0
 21
85.000000000000014
 31
0.0
  0
LINE
  5
1DAA
  8
0
 10
61.154700538379188
 20
83.000000000000014
 30
0.0
 11
93.845299461620698
 21
83.000000000000014
 31
0.0
  0
LINE
  5
1DAB
  8
0
 10
95.0
 20
85.000000000000014
 30
0.0
 11
93.845299461620698
 21
83.000000000000014
 31
0.0
  0
LINE
  5
1DAC
  8
0
 10
92.0
 20
105.0
 30
0.0
 11
63.0
 21
105.0
 31
0.0
  0
LINE
  5
1DAD
  8
0
 10
95.0
 20
102.0
 30
0.0
 11
95.0
 21
85.000000000000014
 31
0.0
  0
LINE
  5
1DAE
  8
0
 10
60.0
 20
102.0
 30
0.0
 11
60.0
 21
85.000000000000014
 31
0.0
  0
LINE
  5
1DAF
  8
0
 10
60.0
 20
85.000000000000014
 30
0.0
 11
61.154700538379188
 21
83.000000000000014
 31
0.0
  0
LINE
  5
1DB0
  8
1
 10
77.5
 20
112.0
 30
0.0
 11
77.500000000000057
 21
55.0
 31
0.0
  0
ARC
  5
1DB1
  8
0
 10
92.0
 20
102.0
 30
0.0
 40
3.0
 50
0.0
 51
90.0
  0
ARC
  5
1DB2
  8
0
 10
63.0
 20
102.0
 30
0.0
 40
3.0
 50
89.999999999999943
 51
180.0
  0
LINE
  5
1DB3
  8
0
 10
95.0
 20
86.000000000000014
 30
0.0
 11
94.0
 21
85.000000000000014
 31
0.0
  0
LINE
  5
1DB4
  8
0
 10
61.0
 20
85.000000000000014
 30
0.0
 11
60.0
 21
86.000000000000014
 31
0.0
  0
ARC
  5
1DB5
  8
0
 10
166.90890230020659
 20
102.0
 30
0.0
 40
3.0
 50
89.999999999999943
 51
147.42102960719549
  0
LINE
  5
1DB6
  8
0
 10
145.00000000000011
 20
190.0
 30
0.0
 11
145.00000000000011
 21
177.5
 31
0.0
  0
LINE
  5
1DB7
  8
0
 10
188.48528137423861
 20
162.0
 30
0.0
 11
188.48528137423861
 21
170.7499999999994
 31
0.0
  0
ARC
  5
1DB8
  8
0
 10
147.00000000000011
 20
190.0
 30
0.0
 40
2.0
 50
90.0
 51
180.0
  0
ARC
  5
1DB9
  8
0
 10
147.00000000000011
 20
159.0
 30
0.0
 40
2.0
 50
180.0
 51
269.99999999999989
  0
LINE
  5
1DBA
  8
0
 10
92.0
 20
93.000000000000014
 30
0.0
 11
63.0
 21
93.000000000000014
 31
0.0
  0
ARC
  5
1DBB
  8
0
 10
92.0
 20
90.000000000000014
 30
0.0
 40
3.0
 50
0.0
 51
89.999999999999943
  0
ARC
  5
1DBC
  8
0
 10
63.0
 20
90.000000000000014
 30
0.0
 40
3.0
 50
89.999999999999943
 51
180.0
  0
ARC
  5
1DBD
  8
0
 10
187.59744423437459
 20
175.91296229960221
 30
0.0
 40
4.999999999999984
 50
224.94932844700671
 51
249.19829038603879
  0
ARC
  5
1DBE
  8
0
 10
188.48528137423861
 20
178.25
 30
0.0
 40
7.5
 50
249.19829038603879
 51
270.0
  0
ARC
  5
1DBF
  8
0
 10
188.48528137423861
 20
170.75
 30
0.0
 40
7.5
 50
90.0
 51
110.80170961396109
  0
ARC
  5
1DC0
  8
0
 10
187.59744423437459
 20
173.0870377003977
 30
0.0
 40
4.999999999999984
 50
110.80170961396119
 51
135.05067155299301
  0
ARC
  5
1DC1
  8
0
 10
186.18198051534009
 20
174.5
 30
0.0
 40
3.0
 50
135.05067155299301
 51
224.94932844700691
  0
LINE
  5
1DC2
  8
0
 10
188.48528137423861
 20
178.2500000000004
 30
0.0
 11
188.48528137423861
 21
187.0
 31
0.0
  0
LINE
  5
1DC3
  8
0
 10
164.38095203479821
 20
190.0
 30
0.0
 11
164.38095203479821
 21
159.0
 31
0.0
  0
LINE
  5
1DC4
  8
0
 10
166.90890230020671
 20
190.0
 30
0.0
 11
166.90890230020671
 21
159.0
 31
0.0
  0
LINE
  5
1DC5
  8
0
 10
145.00000000000011
 20
171.5
 30
0.0
 11
145.00000000000011
 21
159.0
 31
0.0
  0
LINE
  5
1DC6
  8
0
 10
145.00000000000011
 20
177.5
 30
0.0
 11
148.00000000000011
 21
174.5
 31
0.0
  0
LINE
  5
1DC7
  8
0
 10
148.00000000000011
 20
174.5
 30
0.0
 11
145.00000000000011
 21
171.5000000000002
 31
0.0
  0
LINE
  5
1DC8
  8
0
 10
80.5
 20
85.000000000000014
 30
0.0
 11
80.5
 21
93.000000000000014
 31
0.0
  0
LINE
  5
1DC9
  8
0
 10
74.5
 20
85.000000000000014
 30
0.0
 11
74.5
 21
93.000000000000014
 31
0.0
  0
LINE
  5
1DCA
  8
0
 10
146.5
 20
85.000000000000014
 30
0.0
 11
145.0
 21
85.2644904710627
 31
0.0
  0
LINE
  5
1DCB
  8
0
 10
145.0
 20
92.008895806199135
 30
0.0
 11
146.4838761209748
 21
93.047917051875075
 31
0.0
  0
ARC
  5
1DCC
  8
0
 10
145.0
 20
116.0
 30
0.0
 40
23.000000000000039
 50
273.69908392729121
 51
327.42102960719541
  0
LINE
  5
1DE8
  8
5
 10
157.0
 20
104.00889580619911
 30
0.0
 11
158.4838761209748
 21
105.0479170518751
 31
0.0
  0
LINE
  5
1DE9
  8
5
 10
158.5
 20
97.000000000000014
 30
0.0
 11
157.0
 21
97.264490471062715
 31
0.0
  0
LINE
  5
1DEA
  8
5
 10
158.5
 20
97.000000000000014
 30
0.0
 11
172.1166726188959
 21
97.000000000000014
 31
0.0
  0
ARC
  5
1DEB
  8
5
 10
157.0
 20
128.0
 30
0.0
 40
23.000000000000039
 50
273.69908392729121
 51
327.42102960719541
  0
ARC
  5
1DEC
  8
5
 10
178.90890230020659
 20
114.0
 30
0.0
 40
3.0
 50
89.999999999999943
 51
147.42102960719549
  0
LINE
  5
1DED
  8
5
 10
188.48528137423861
 20
105.0
 30
0.0
 11
200.48528137423861
 21
117.0
 31
0.0
  0
LINE
  5
1DEE
  8
5
 10
180.00000000000011
 20
105.0
 30
0.0
 11
192.00000000000011
 21
117.0
 31
0.0
  0
LINE
  5
1DEF
  8
5
 10
178.90890230020659
 20
117.0
 30
0.0
 11
200.48528137423861
 21
117.0
 31
0.0
  0
LINE
  5
1E29
  8
0
 10
145.0
 20
85.2644904710627
 30
0.0
 11
145.0
 21
85.964490471062746
 31
0.0
  0
LINE
  5
1E2A
  8
0
 10
145.0
 20
85.964490471062746
 30
0.0
 11
146.5
 21
87.014801778377205
 31
0.0
  0
LINE
  5
1E2B
  8
0
 10
146.5
 20
87.014801778377205
 30
0.0
 11
145.0
 21
87.279292249440019
 31
0.0
  0
LINE
  5
1E2C
  8
0
 10
145.0
 20
87.979292249439951
 30
0.0
 11
146.50000000000011
 21
89.029603556754523
 31
0.0
  0
LINE
  5
1E2D
  8
0
 10
145.0
 20
87.279292249440019
 30
0.0
 11
145.0
 21
87.979292249439951
 31
0.0
  0
LINE
  5
1E2E
  8
0
 10
145.0
 20
89.294094027817223
 30
0.0
 11
145.0
 21
89.994094027817269
 31
0.0
  0
LINE
  5
1E2F
  8
0
 10
145.0
 20
89.994094027817269
 30
0.0
 11
146.50000000000011
 21
91.044405335131856
 31
0.0
  0
LINE
  5
1E30
  8
0
 10
146.5
 20
89.029603556754523
 30
0.0
 11
145.0
 21
89.294094027817223
 31
0.0
  0
LINE
  5
1E31
  8
0
 10
146.5
 20
91.044405335131856
 30
0.0
 11
145.0
 21
91.308895806194428
 31
0.0
  0
LINE
  5
1E32
  8
0
 10
145.0
 20
91.308895806194428
 30
0.0
 11
145.0
 21
92.008895806194474
 31
0.0
  0
LINE
  5
1E33
  8
5
 10
157.0
 20
103.3088958061944
 30
0.0
 11
157.0
 21
104.0088958061945
 31
0.0
  0
LINE
  5
1E34
  8
5
 10
158.5
 20
103.0444053351318
 30
0.0
 11
157.0
 21
103.3088958061944
 31
0.0
  0
LINE
  5
1E35
  8
5
 10
158.5
 20
101.02960355675449
 30
0.0
 11
157.0
 21
101.2940940278172
 31
0.0
  0
LINE
  5
1E36
  8
5
 10
157.0
 20
101.9940940278172
 30
0.0
 11
158.50000000000011
 21
103.0444053351318
 31
0.0
  0
LINE
  5
1E37
  8
5
 10
157.0
 20
101.2940940278172
 30
0.0
 11
157.0
 21
101.9940940278172
 31
0.0
  0
LINE
  5
1E38
  8
5
 10
157.0
 20
99.279292249440005
 30
0.0
 11
157.0
 21
99.979292249439951
 31
0.0
  0
LINE
  5
1E39
  8
5
 10
157.0
 20
99.979292249439951
 30
0.0
 11
158.50000000000011
 21
101.02960355675449
 31
0.0
  0
LINE
  5
1E3A
  8
5
 10
158.5
 20
99.014801778377219
 30
0.0
 11
157.0
 21
99.279292249440005
 31
0.0
  0
LINE
  5
1E3B
  8
5
 10
157.0
 20
97.964490471062746
 30
0.0
 11
158.5
 21
99.014801778377219
 31
0.0
  0
LINE
  5
1E3C
  8
5
 10
157.0
 20
97.264490471062715
 30
0.0
 11
157.0
 21
97.964490471062746
 31
0.0
  0
LINE
  5
1E3D
  8
0
 10
93.0
 20
85.964490471062632
 30
0.0
 11
80.5
 21
85.964490471062632
 31
0.0
  0
LINE
  5
1E3E
  8
0
 10
93.0
 20
87.279292249440019
 30
0.0
 11
80.5
 21
87.279292249440019
 31
0.0
  0
LINE
  5
1E3F
  8
0
 10
93.0
 20
87.979292249439951
 30
0.0
 11
80.5
 21
87.979292249439951
 31
0.0
  0
LINE
  5
1E40
  8
0
 10
93.0
 20
89.994094027817269
 30
0.0
 11
80.5
 21
89.994094027817269
 31
0.0
  0
LINE
  5
1E41
  8
0
 10
93.0
 20
89.294094027817223
 30
0.0
 11
80.5
 21
89.294094027817223
 31
0.0
  0
LINE
  5
1E42
  8
0
 10
93.0
 20
92.008895806194474
 30
0.0
 11
80.5
 21
92.008895806194474
 31
0.0
  0
LINE
  5
1E43
  8
0
 10
93.0
 20
91.308895806194428
 30
0.0
 11
80.5
 21
91.308895806194428
 31
0.0
  0
LINE
  5
1E44
  8
0
 10
62.0
 20
91.308895806194428
 30
0.0
 11
74.499999999999943
 21
91.308895806194428
 31
0.0
  0
LINE
  5
1E45
  8
0
 10
62.0
 20
92.008895806194474
 30
0.0
 11
74.499999999999943
 21
92.008895806194474
 31
0.0
  0
LINE
  5
1E46
  8
0
 10
62.0
 20
89.294094027817223
 30
0.0
 11
74.499999999999943
 21
89.294094027817223
 31
0.0
  0
LINE
  5
1E47
  8
0
 10
62.0
 20
89.994094027817269
 30
0.0
 11
74.499999999999943
 21
89.994094027817269
 31
0.0
  0
LINE
  5
1E48
  8
0
 10
62.0
 20
87.979292249439951
 30
0.0
 11
74.499999999999943
 21
87.979292249439951
 31
0.0
  0
LINE
  5
1E49
  8
0
 10
62.0
 20
87.279292249440019
 30
0.0
 11
74.499999999999943
 21
87.279292249440019
 31
0.0
  0
LINE
  5
1E4A
  8
0
 10
62.0
 20
85.964490471062632
 30
0.0
 11
74.5
 21
85.964490471062632
 31
0.0
  0
LINE
  5
1E4B
  8
0
 10
248.00000000000011
 20
83.000000000000014
 30
0.0
 11
250.00000000000011
 21
85.000000000000014
 31
0.0
  0
LINE
  5
1E4C
  8
0
 10
180.00000000000011
 20
85.000000000000014
 30
0.0
 11
182.0000000000002
 21
83.000000000000014
 31
0.0
  0
LINE
  5
1E4D
  8
0
 10
248.00000000000011
 20
83.000000000000014
 30
0.0
 11
246.07679491924321
 21
83.000000000000014
 31
0.0
  0
LINE
  5
1E4E
  8
0
 10
246.07679491924321
 20
83.000000000000014
 30
0.0
 11
245.346410161514
 21
84.265063509461143
 31
0.0
  0
LINE
  5
1E4F
  8
0
 10
243.9232050807571
 20
83.000000000000014
 30
0.0
 11
244.6535898384864
 21
84.265063509461143
 31
0.0
  0
LINE
  5
1E50
  8
0
 10
243.9232050807571
 20
83.000000000000014
 30
0.0
 11
241.07679491924321
 21
83.000000000000014
 31
0.0
  0
ARC
  5
1E51
  8
0
 10
245.0000000000002
 20
84.065063509461083
 30
0.0
 40
0.4
 50
29.999999999999751
 51
150.0
  0
LINE
  5
1E52
  8
0
 10
238.92320508075699
 20
83.000000000000014
 30
0.0
 11
236.07679491924321
 21
83.000000000000014
 31
0.0
  0
ARC
  5
1E53
  8
0
 10
240.0000000000002
 20
84.065063509461083
 30
0.0
 40
0.4
 50
29.999999999999751
 51
150.0
  0
LINE
  5
1E54
  8
0
 10
241.07679491924321
 20
83.000000000000014
 30
0.0
 11
240.346410161514
 21
84.265063509461143
 31
0.0
  0
LINE
  5
1E55
  8
0
 10
238.92320508075699
 20
83.000000000000014
 30
0.0
 11
239.6535898384864
 21
84.265063509461143
 31
0.0
  0
LINE
  5
1E56
  8
0
 10
233.9232050807571
 20
83.000000000000014
 30
0.0
 11
231.07679491924321
 21
83.000000000000014
 31
0.0
  0
ARC
  5
1E57
  8
0
 10
235.0000000000002
 20
84.065063509461083
 30
0.0
 40
0.4
 50
29.999999999999751
 51
150.0
  0
LINE
  5
1E58
  8
0
 10
236.07679491924321
 20
83.000000000000014
 30
0.0
 11
235.346410161514
 21
84.265063509461143
 31
0.0
  0
LINE
  5
1E59
  8
0
 10
233.9232050807571
 20
83.000000000000014
 30
0.0
 11
234.6535898384864
 21
84.265063509461143
 31
0.0
  0
LINE
  5
1E5A
  8
0
 10
228.92320508075699
 20
83.000000000000014
 30
0.0
 11
226.07679491924321
 21
83.000000000000014
 31
0.0
  0
ARC
  5
1E5B
  8
0
 10
230.0000000000002
 20
84.065063509461083
 30
0.0
 40
0.4
 50
29.999999999999751
 51
150.0
  0
LINE
  5
1E5C
  8
0
 10
231.07679491924321
 20
83.000000000000014
 30
0.0
 11
230.346410161514
 21
84.265063509461143
 31
0.0
  0
LINE
  5
1E5D
  8
0
 10
228.92320508075699
 20
83.000000000000014
 30
0.0
 11
229.6535898384864
 21
84.265063509461143
 31
0.0
  0
LINE
  5
1E5E
  8
0
 10
223.92320508075699
 20
83.000000000000014
 30
0.0
 11
221.07679491924321
 21
83.000000000000014
 31
0.0
  0
ARC
  5
1E5F
  8
0
 10
225.0000000000002
 20
84.065063509461083
 30
0.0
 40
0.4
 50
29.999999999999751
 51
150.0
  0
LINE
  5
1E60
  8
0
 10
226.07679491924321
 20
83.000000000000014
 30
0.0
 11
225.346410161514
 21
84.265063509461143
 31
0.0
  0
LINE
  5
1E61
  8
0
 10
223.92320508075699
 20
83.000000000000014
 30
0.0
 11
224.6535898384864
 21
84.265063509461143
 31
0.0
  0
LINE
  5
1E62
  8
0
 10
218.9232050807571
 20
83.000000000000014
 30
0.0
 11
216.07679491924321
 21
83.000000000000014
 31
0.0
  0
ARC
  5
1E63
  8
0
 10
220.0000000000002
 20
84.065063509461083
 30
0.0
 40
0.4
 50
29.999999999999751
 51
150.0
  0
LINE
  5
1E64
  8
0
 10
221.07679491924321
 20
83.000000000000014
 30
0.0
 11
220.346410161514
 21
84.265063509461143
 31
0.0
  0
LINE
  5
1E65
  8
0
 10
218.9232050807571
 20
83.000000000000014
 30
0.0
 11
219.6535898384864
 21
84.265063509461143
 31
0.0
  0
LINE
  5
1E66
  8
0
 10
213.92320508075699
 20
83.000000000000014
 30
0.0
 11
211.07679491924321
 21
83.000000000000014
 31
0.0
  0
ARC
  5
1E67
  8
0
 10
215.0000000000002
 20
84.065063509461083
 30
0.0
 40
0.4
 50
29.999999999999751
 51
150.0
  0
LINE
  5
1E68
  8
0
 10
216.07679491924321
 20
83.000000000000014
 30
0.0
 11
215.346410161514
 21
84.265063509461143
 31
0.0
  0
LINE
  5
1E69
  8
0
 10
213.92320508075699
 20
83.000000000000014
 30
0.0
 11
214.6535898384864
 21
84.265063509461143
 31
0.0
  0
LINE
  5
1E6A
  8
0
 10
208.9232050807571
 20
83.000000000000014
 30
0.0
 11
206.07679491924321
 21
83.000000000000014
 31
0.0
  0
ARC
  5
1E6B
  8
0
 10
210.0000000000002
 20
84.065063509461083
 30
0.0
 40
0.4
 50
29.999999999999751
 51
150.0
  0
LINE
  5
1E6C
  8
0
 10
211.07679491924321
 20
83.000000000000014
 30
0.0
 11
210.346410161514
 21
84.265063509461143
 31
0.0
  0
LINE
  5
1E6D
  8
0
 10
208.9232050807571
 20
83.000000000000014
 30
0.0
 11
209.6535898384864
 21
84.265063509461143
 31
0.0
  0
LINE
  5
1E6E
  8
0
 10
203.92320508075699
 20
83.000000000000014
 30
0.0
 11
201.07679491924321
 21
83.000000000000014
 31
0.0
  0
ARC
  5
1E6F
  8
0
 10
205.0000000000002
 20
84.065063509461083
 30
0.0
 40
0.4
 50
29.999999999999751
 51
150.0
  0
LINE
  5
1E70
  8
0
 10
206.07679491924321
 20
83.000000000000014
 30
0.0
 11
205.346410161514
 21
84.265063509461143
 31
0.0
  0
LINE
  5
1E71
  8
0
 10
203.92320508075699
 20
83.000000000000014
 30
0.0
 11
204.6535898384864
 21
84.265063509461143
 31
0.0
  0
LINE
  5
1E72
  8
0
 10
198.92320508075699
 20
83.000000000000014
 30
0.0
 11
196.07679491924321
 21
83.000000000000014
 31
0.0
  0
ARC
  5
1E73
  8
0
 10
200.0000000000002
 20
84.065063509461083
 30
0.0
 40
0.4
 50
29.999999999999751
 51
150.0
  0
LINE
  5
1E74
  8
0
 10
201.07679491924321
 20
83.000000000000014
 30
0.0
 11
200.34641016151389
 21
84.265063509461143
 31
0.0
  0
LINE
  5
1E75
  8
0
 10
198.92320508075699
 20
83.000000000000014
 30
0.0
 11
199.6535898384864
 21
84.265063509461143
 31
0.0
  0
LINE
  5
1E76
  8
0
 10
193.92320508075699
 20
83.000000000000014
 30
0.0
 11
191.07679491924321
 21
83.000000000000014
 31
0.0
  0
ARC
  5
1E77
  8
0
 10
195.0000000000002
 20
84.065063509461083
 30
0.0
 40
0.4
 50
29.999999999999751
 51
150.0
  0
LINE
  5
1E78
  8
0
 10
196.07679491924321
 20
83.000000000000014
 30
0.0
 11
195.34641016151389
 21
84.265063509461143
 31
0.0
  0
LINE
  5
1E79
  8
0
 10
193.92320508075699
 20
83.000000000000014
 30
0.0
 11
194.6535898384864
 21
84.265063509461143
 31
0.0
  0
LINE
  5
1E7A
  8
0
 10
188.92320508075699
 20
83.000000000000014
 30
0.0
 11
186.07679491924321
 21
83.000000000000014
 31
0.0
  0
ARC
  5
1E7B
  8
0
 10
190.0000000000002
 20
84.065063509461083
 30
0.0
 40
0.4
 50
29.999999999999751
 51
150.0
  0
LINE
  5
1E7C
  8
0
 10
191.07679491924321
 20
83.000000000000014
 30
0.0
 11
190.34641016151389
 21
84.265063509461143
 31
0.0
  0
LINE
  5
1E7D
  8
0
 10
188.92320508075699
 20
83.000000000000014
 30
0.0
 11
189.65358983848631
 21
84.265063509461143
 31
0.0
  0
LINE
  5
1E7E
  8
0
 10
183.92320508075699
 20
83.000000000000014
 30
0.0
 11
182.0000000000002
 21
83.000000000000014
 31
0.0
  0
ARC
  5
1E7F
  8
0
 10
185.0000000000002
 20
84.065063509461083
 30
0.0
 40
0.4
 50
29.999999999999751
 51
150.0
  0
LINE
  5
1E80
  8
0
 10
186.07679491924321
 20
83.000000000000014
 30
0.0
 11
185.346410161514
 21
84.265063509461143
 31
0.0
  0
LINE
  5
1E81
  8
0
 10
183.92320508075699
 20
83.000000000000014
 30
0.0
 11
184.65358983848631
 21
84.265063509461143
 31
0.0
  0
LINE
  5
1EA8
  8
0
 10
229.5717967697247
 20
181.0
 30
0.0
 11
216.92820323027561
 21
181.0
 31
0.0
  0
LINE
  5
1EA9
  8
0
 10
216.92820323027561
 20
168.0
 30
0.0
 11
229.5717967697247
 21
168.0
 31
0.0
  0
CIRCLE
  5
24B5
  8
0
 10
210.00000000000011
 20
174.5
 30
0.0
 40
9.5
  0
LINE
  5
2BA0
  8
0
 10
83.499999999999943
 20
83.000000000000014
 30
0.0
 11
83.499999999999986
 21
76.0
 31
0.0
  0
LINE
  5
2BA1
  8
3
 10
82.55299999999994
 20
83.0
 30
0.0
 11
82.552999999999997
 21
76.0
 31
0.0
  0
LINE
  5
2BA2
  8
3
 10
72.446999999999832
 20
83.0
 30
0.0
 11
72.446999999999889
 21
76.000000000000014
 31
0.0
  0
LINE
  5
2BA3
  8
0
 10
71.5
 20
83.000000000000014
 30
0.0
 11
71.5
 21
76.000000000000014
 31
0.0
  0
LINE
  5
2BA4
  8
0
 10
68.5
 20
106.3
 30
0.0
 11
69.712435565298165
 21
107.0
 31
0.0
  0
LINE
  5
2BA5
  8
0
 10
86.5
 20
106.3
 30
0.0
 11
85.287564434701835
 21
107.0
 31
0.0
  0
LINE
  5
2BA6
  8
0
 10
68.5
 20
106.3
 30
0.0
 11
86.5
 21
106.3
 31
0.0
  0
LINE
  5
2BA7
  8
0
 10
69.712435565298165
 20
107.0
 30
0.0
 11
85.287564434701835
 21
107.0
 31
0.0
  0
LINE
  5
2BA8
  8
0
 10
68.5
 20
105.0
 30
0.0
 11
68.5
 21
106.3
 31
0.0
  0
LINE
  5
2BAA
  8
0
 10
86.5
 20
106.3
 30
0.0
 11
86.5
 21
105.0
 31
0.0
  0
LINE
  5
2BAE
  8
0
 10
216.0
 20
83.133012701892113
 30
0.0
 11
216.00000000000011
 21
76.0
 31
0.0
  0
LINE
  5
2BAF
  8
3
 10
215.05300000000011
 20
84.461536711582013
 30
0.0
 11
215.05300000000011
 21
76.0
 31
0.0
  0
LINE
  5
2BB0
  8
3
 10
204.947
 20
84.461536711581957
 30
0.0
 11
204.947
 21
76.000000000000014
 31
0.0
  0
LINE
  5
2BB1
  8
0
 10
204.0
 20
83.133012701891985
 30
0.0
 11
204.00000000000011
 21
76.000000000000014
 31
0.0
  0
LINE
  5
2BB2
  8
0
 10
201.00000000000011
 20
106.3
 30
0.0
 11
202.21243556529831
 21
107.0
 31
0.0
  0
LINE
  5
2BB3
  8
0
 10
219.00000000000011
 20
106.3
 30
0.0
 11
217.78756443470189
 21
107.0
 31
0.0
  0
LINE
  5
2BB4
  8
0
 10
201.00000000000011
 20
106.3
 30
0.0
 11
219.00000000000011
 21
106.3
 31
0.0
  0
LINE
  5
2BB5
  8
0
 10
202.21243556529831
 20
107.0
 30
0.0
 11
217.78756443470189
 21
107.0
 31
0.0
  0
LINE
  5
2BB6
  8
0
 10
201.0
 20
105.0
 30
0.0
 11
201.00000000000011
 21
106.3
 31
0.0
  0
LINE
  5
2BB8
  8
0
 10
219.00000000000011
 20
106.3
 30
0.0
 11
219.00000000000011
 21
105.0
 31
0.0
  0
LINE
  5
2BB9
  8
0
 10
245.50000000000011
 20
106.3
 30
0.0
 11
245.5
 21
105.0
 31
0.0
  0
LINE
  5
2BBB
  8
0
 10
227.5
 20
105.0
 30
0.0
 11
227.50000000000011
 21
106.3
 31
0.0
  0
LINE
  5
2BBC
  8
0
 10
228.71243556529831
 20
107.0
 30
0.0
 11
244.28756443470201
 21
107.0
 31
0.0
  0
LINE
  5
2BBD
  8
0
 10
227.50000000000011
 20
106.3
 30
0.0
 11
245.50000000000011
 21
106.3
 31
0.0
  0
LINE
  5
2BBE
  8
0
 10
245.50000000000011
 20
106.3
 30
0.0
 11
244.28756443470201
 21
107.0
 31
0.0
  0
LINE
  5
2BBF
  8
0
 10
227.50000000000011
 20
106.3
 30
0.0
 11
228.71243556529831
 21
107.0
 31
0.0
  0
LINE
  5
2BC0
  8
0
 10
230.5
 20
83.999038105676775
 30
0.0
 11
230.50000000000011
 21
76.000000000000014
 31
0.0
  0
LINE
  5
2BC1
  8
3
 10
231.447
 20
83.000000000000014
 30
0.0
 11
231.447
 21
76.000000000000014
 31
0.0
  0
LINE
  5
2BC2
  8
3
 10
241.55300000000011
 20
83.000000000000014
 30
0.0
 11
241.55300000000011
 21
76.0
 31
0.0
  0
LINE
  5
2BC3
  8
0
 10
242.50000000000011
 20
83.0
 30
0.0
 11
242.50000000000011
 21
76.0
 31
0.0
  0
POLYLINE
  5
2BC8
  8
0
 66
     1
 10
0.0
 20
0.0
 30
0.0
 70
     2
  0
VERTEX
  5
2BC9
  8
0
 10
208.3147700453649
 20
76.0
 30
0.0
 42
0.0297417231844653
  0
VERTEX
  5
2BCA
  8
0
 10
209.15126204723401
 20
75.849137407341189
 30
0.0
 42
0.029741723184464
 70
     1
  0
VERTEX
  5
2BCB
  8
0
 10
209.9997451172645
 20
75.798591676300745
 30
0.0
 42
0.029750641734054
  0
VERTEX
  5
2BCC
  8
0
 10
210.8484848710761
 20
75.849107160572814
 30
0.0
 42
0.0297506417340422
 70
     1
  0
VERTEX
  5
2BCD
  8
0
 10
211.68522995463539
 20
76.0
 30
0.0
  0
SEQEND
  5
2BCE
  8
0
  0
LINE
  5
2BCF
  8
0
 10
66.5
 20
62.499999999999993
 30
0.0
 11
66.5
 21
67.999999999999986
 31
0.0
  0
LINE
  5
2BD0
  8
0
 10
66.5
 20
62.499999999999993
 30
0.0
 11
69.0
 21
60.0
 31
0.0
  0
LINE
  5
2BD1
  8
0
 10
66.5
 20
67.999999999999986
 30
0.0
 11
70.5
 21
67.999999999999986
 31
0.0
  0
LINE
  5
2BD2
  8
0
 10
86.0
 20
60.0
 30
0.0
 11
69.0
 21
60.0
 31
0.0
  0
LINE
  5
2BD3
  8
0
 10
86.0
 20
60.0
 30
0.0
 11
88.499999999999986
 21
62.5
 31
0.0
  0
LINE
  5
2BD4
  8
0
 10
88.499999999999986
 20
67.999999999999986
 30
0.0
 11
88.499999999999986
 21
62.5
 31
0.0
  0
LINE
  5
2BD5
  8
0
 10
84.500000000000014
 20
67.999999999999986
 30
0.0
 11
88.499999999999986
 21
67.999999999999986
 31
0.0
  0
LINE
  5
2BD6
  8
0
 10
84.500000000000014
 20
76.0
 30
0.0
 11
84.500000000000014
 21
67.999999999999986
 31
0.0
  0
LINE
  5
2BD7
  8
0
 10
70.5
 20
76.0
 30
0.0
 11
84.500000000000014
 21
76.0
 31
0.0
  0
LINE
  5
2BD8
  8
0
 10
70.5
 20
67.999999999999986
 30
0.0
 11
70.5
 21
76.0
 31
0.0
  0
LINE
  5
2BD9
  8
0
 10
247.25000000000011
 20
76.0
 30
0.0
 11
247.25000000000011
 21
60.0
 31
0.0
  0
LINE
  5
2BDA
  8
0
 10
199.25000000000011
 20
76.0
 30
0.0
 11
199.25000000000011
 21
60.0
 31
0.0
  0
LINE
  5
2BDB
  8
0
 10
247.25000000000011
 20
76.0
 30
0.0
 11
211.68522995463539
 21
76.0
 31
0.0
  0
LINE
  5
2BDC
  8
0
 10
208.3147700453647
 20
76.0
 30
0.0
 11
199.25000000000011
 21
76.0
 31
0.0
  0
LINE
  5
2BDF
  8
0
 10
247.25000000000011
 20
60.0
 30
0.0
 11
199.25000000000011
 21
60.0
 31
0.0
  0
LINE
  5
2BE0
  8
0
 10
247.25000000000011
 20
67.999999999999986
 30
0.0
 11
199.25000000000011
 21
67.999999999999986
 31
0.0
  0
LINE
  5
2BE3
  8
0
 10
199.25000000000011
 20
62.5
 30
0.0
 11
247.25000000000011
 21
62.5
 31
0.0
  0
CIRCLE
  5
2BE6
  8
0
 10
236.50000000000011
 20
174.5
 30
0.0
 40
9.5
  0
LINE
  5
2BF8
  8
0
 10
212.8867513459478
 20
169.50000000000051
 30
0.0
 11
215.77350269189611
 21
174.50000000000051
 31
0.0
  0
LINE
  5
2BF9
  8
0
 10
215.77350269189611
 20
174.50000000000051
 30
0.0
 11
212.8867513459478
 21
179.5
 31
0.0
  0
LINE
  5
2BFA
  8
0
 10
212.8867513459478
 20
179.5
 30
0.0
 11
207.11324865405069
 21
179.5
 31
0.0
  0
LINE
  5
2BFB
  8
0
 10
207.11324865405069
 20
179.5
 30
0.0
 11
204.2264973081036
 21
174.5
 31
0.0
  0
LINE
  5
2BFC
  8
0
 10
204.2264973081036
 20
174.5
 30
0.0
 11
207.1132486540524
 21
169.4999999999994
 31
0.0
  0
LINE
  5
2BFD
  8
0
 10
207.1132486540524
 20
169.4999999999994
 30
0.0
 11
212.8867513459478
 21
169.50000000000051
 31
0.0
  0
CIRCLE
  5
2BFE
  8
0
 10
210.00000000000011
 20
174.5
 30
0.0
 40
9.0
  0
LINE
  5
2C00
  8
0
 10
239.3867513459478
 20
169.50000000000051
 30
0.0
 11
242.27350269189611
 21
174.50000000000051
 31
0.0
  0
LINE
  5
2C01
  8
0
 10
242.27350269189611
 20
174.50000000000051
 30
0.0
 11
239.3867513459478
 21
179.5
 31
0.0
  0
LINE
  5
2C02
  8
0
 10
239.3867513459478
 20
179.5
 30
0.0
 11
233.61324865405069
 21
179.5
 31
0.0
  0
LINE
  5
2C03
  8
0
 10
233.61324865405069
 20
179.5
 30
0.0
 11
230.7264973081036
 21
174.5
 31
0.0
  0
LINE
  5
2C04
  8
0
 10
230.7264973081036
 20
174.5
 30
0.0
 11
233.6132486540524
 21
169.4999999999994
 31
0.0
  0
LINE
  5
2C05
  8
0
 10
233.6132486540524
 20
169.4999999999994
 30
0.0
 11
239.3867513459478
 21
169.50000000000051
 31
0.0
  0
CIRCLE
  5
2C06
  8
0
 10
236.50000000000011
 20
174.5
 30
0.0
 40
9.0
  0
LINE
  5
2CA6
  8
1
 10
210.0
 20
112.0
 30
0.0
 11
210.00000000000011
 21
55.0
 31
0.0
  0
LINE
  5
2CA7
  8
1
 10
236.5
 20
112.0
 30
0.0
 11
236.50000000000011
 21
55.0
 31
0.0
  0
POLYLINE
  5
310A
  8
3
 66
     1
 10
0.0
 20
0.0
 30
0.0
 70
     1
1001
ACAD
1000
ASC_BOUNDS
1002
{
1070
    19
1005
3109
1002
}
  0
VERTEX
  5
3389
  8
3
 10
228.57576511546989
 20
94.000000000000014
 30
0.0
 42
1.0
  0
VERTEX
  5
338A
  8
3
 10
230.82576511546989
 20
94.000000000000014
 30
0.0
 42
1.0
  0
SEQEND
  5
338B
  8
3
  0
POLYLINE
  5
310B
  8
3
 66
     1
 10
0.0
 20
0.0
 30
0.0
 70
     1
1001
ACAD
1000
ASC_BOUNDS
1002
{
1070
    19
1005
3109
1002
}
  0
VERTEX
  5
338C
  8
3
 10
232.70076511546981
 20
94.000000000000014
 30
0.0
 42
1.0
  0
VERTEX
  5
338D
  8
3
 10
226.70076511546989
 20
94.000000000000014
 30
0.0
 42
1.0
  0
SEQEND
  5
338E
  8
3
  0
POLYLINE
  5
310C
  8
3
 66
     1
 10
0.0
 20
0.0
 30
0.0
 70
     1
1001
ACAD
1000
ASC_BOUNDS
1002
{
1070
    19
1005
3109
1002
}
  0
VERTEX
  5
338F
  8
3
 10
204.44005082975539
 20
96.016561493082364
 30
0.0
  0
VERTEX
  5
3390
  8
3
 10
204.44005082975539
 20
97.126295649773965
 30
0.0
 42
0.1238822414942591
  0
VERTEX
  5
3391
  8
3
 10
203.00635446857291
 20
96.571428571428171
 30
0.0
 42
0.1238822414942589
  0
SEQEND
  5
3392
  8
3
  0
POLYLINE
  5
310D
  8
3
 66
     1
 10
0.0
 20
0.0
 30
0.0
 70
     1
1001
ACAD
1000
ASC_BOUNDS
1002
{
1070
    19
1005
3109
1002
}
  0
VERTEX
  5
3393
  8
3
 10
206.64517576236719
 20
96.571428571428171
 30
0.0
 42
0.1238822414942568
  0
VERTEX
  5
3394
  8
3
 10
205.21147940118459
 20
97.126295649773965
 30
0.0
  0
VERTEX
  5
3395
  8
3
 10
205.21147940118459
 20
96.01656149308242
 30
0.0
 42
0.1238822414942573
  0
SEQEND
  5
3396
  8
3
  0
POLYLINE
  5
310E
  8
3
 66
     1
 10
0.0
 20
0.0
 30
0.0
 70
     1
1001
ACAD
1000
ASC_BOUNDS
1002
{
1070
    19
1005
3109
1002
}
  0
VERTEX
  5
3397
  8
3
 10
204.44005082975539
 20
93.298725649767405
 30
0.0
 42
-0.0420571628960909
  0
VERTEX
  5
3398
  8
3
 10
204.26921933890699
 20
92.673922627971137
 30
0.0
 42
-0.0111573747896638
  0
VERTEX
  5
3399
  8
3
 10
204.44005082975539
 20
92.694951543126265
 30
0.0
  0
SEQEND
  5
339A
  8
3
  0
POLYLINE
  5
310F
  8
3
 66
     1
 10
0.0
 20
0.0
 30
0.0
 70
     1
1001
ACAD
1000
ASC_BOUNDS
1002
{
1070
    19
1005
3109
1002
}
  0
VERTEX
  5
339B
  8
3
 10
205.21147940118459
 20
93.61428571428543
 30
0.0
  0
VERTEX
  5
339C
  8
3
 10
205.21147940118459
 20
92.694951543126265
 30
0.0
 42
-0.1402251973297237
  0
VERTEX
  5
339D
  8
3
 10
207.18281966561199
 20
91.910312500000444
 30
0.0
 42
0.1517967807321737
  0
VERTEX
  5
339E
  8
3
 10
207.952060765244
 20
93.61428571428543
 30
0.0
  0
SEQEND
  5
339F
  8
3
  0
POLYLINE
  5
3110
  8
3
 66
     1
 10
0.0
 20
0.0
 30
0.0
 70
     1
1001
ACAD
1000
ASC_BOUNDS
1002
{
1070
    19
1005
3109
1002
}
  0
VERTEX
  5
33A0
  8
3
 10
207.952060765244
 20
94.385714285714599
 30
0.0
 42
0.1517967807321736
  0
VERTEX
  5
33A1
  8
3
 10
207.18281966561199
 20
96.089687499999584
 30
0.0
 42
-0.1402251973297237
  0
VERTEX
  5
33A2
  8
3
 10
205.21147940118459
 20
95.305048456873706
 30
0.0
  0
VERTEX
  5
33A3
  8
3
 10
205.21147940118459
 20
94.385714285714599
 30
0.0
  0
SEQEND
  5
33A4
  8
3
  0
POLYLINE
  5
3111
  8
3
 66
     1
 10
0.0
 20
0.0
 30
0.0
 70
     1
1001
ACAD
1000
ASC_BOUNDS
1002
{
1070
    19
1005
3109
1002
}
  0
VERTEX
  5
33A5
  8
3
 10
214.32576511546989
 20
91.000000000000014
 30
0.0
  0
VERTEX
  5
33A6
  8
3
 10
214.32576511546989
 20
94.562500000000014
 30
0.0
 42
-1.0
  0
VERTEX
  5
33A7
  8
3
 10
215.45076511546989
 20
94.562500000000014
 30
0.0
  0
VERTEX
  5
33A8
  8
3
 10
215.45076511546989
 20
91.000000000000014
 30
0.0
  0
VERTEX
  5
33A9
  8
3
 10
217.32576511546989
 20
91.000000000000014
 30
0.0
  0
VERTEX
  5
33AA
  8
3
 10
217.32576511546989
 20
94.562500000000014
 30
0.0
 42
-1.0
  0
VERTEX
  5
33AB
  8
3
 10
218.45076511546989
 20
94.562500000000014
 30
0.0
  0
VERTEX
  5
33AC
  8
3
 10
218.45076511546989
 20
91.000000000000014
 30
0.0
  0
VERTEX
  5
33AD
  8
3
 10
220.32576511546989
 20
91.000000000000014
 30
0.0
  0
VERTEX
  5
33AE
  8
3
 10
220.32576511546989
 20
94.562500000000014
 30
0.0
 42
0.6247472440541069
  0
VERTEX
  5
33AF
  8
3
 10
216.38826511546989
 20
96.483803268617422
 30
0.0
 42
0.6247472440541069
  0
VERTEX
  5
33B0
  8
3
 10
212.45076511546989
 20
94.562500000000014
 30
0.0
  0
VERTEX
  5
33B1
  8
3
 10
212.45076511546989
 20
91.000000000000014
 30
0.0
  0
SEQEND
  5
33B2
  8
3
  0
POLYLINE
  5
3112
  8
3
 66
     1
 10
0.0
 20
0.0
 30
0.0
 70
     1
1001
ACAD
1000
ASC_BOUNDS
1002
{
1070
    19
1005
3109
1002
}
  0
VERTEX
  5
33B3
  8
3
 10
204.44005082975539
 20
91.983438506917608
 30
0.0
 42
0.0479752760773671
  0
VERTEX
  5
33B4
  8
3
 10
203.85130749715231
 20
91.852628185116842
 30
0.0
 42
-0.0528997705207019
  0
VERTEX
  5
33B5
  8
3
 10
203.32939148909679
 20
91.228111479461191
 30
0.0
 42
0.0933324906988985
  0
VERTEX
  5
33B6
  8
3
 10
204.44005082975539
 20
90.873704350226035
 30
0.0
  0
SEQEND
  5
33B7
  8
3
  0
POLYLINE
  5
3113
  8
3
 66
     1
 10
0.0
 20
0.0
 30
0.0
 70
     1
1001
ACAD
1000
ASC_BOUNDS
1002
{
1070
    19
1005
3109
1002
}
  0
VERTEX
  5
33B8
  8
3
 10
205.21147940118459
 20
91.983438506917608
 30
0.0
  0
VERTEX
  5
33B9
  8
3
 10
205.21147940118459
 20
90.873704350226035
 30
0.0
 42
0.1238822414942567
  0
VERTEX
  5
33BA
  8
3
 10
206.64517576236719
 20
91.428571428571786
 30
0.0
 42
0.1238822414942571
  0
SEQEND
  5
33BB
  8
3
  0
POLYLINE
  5
3114
  8
3
 66
     1
 10
0.0
 20
0.0
 30
0.0
 70
     1
1001
ACAD
1000
ASC_BOUNDS
1002
{
1070
    19
1005
3109
1002
}
  0
VERTEX
  5
33BC
  8
3
 10
211.70076511546989
 20
97.000000000000014
 30
0.0
  0
VERTEX
  5
33BD
  8
3
 10
209.82576511546989
 20
97.000000000000014
 30
0.0
  0
VERTEX
  5
33BE
  8
3
 10
209.82576511546989
 20
91.000000000000014
 30
0.0
  0
VERTEX
  5
33BF
  8
3
 10
211.70076511546989
 20
91.000000000000014
 30
0.0
  0
SEQEND
  5
33C0
  8
3
  0
POLYLINE
  5
3115
  8
3
 66
     1
 10
0.0
 20
0.0
 30
0.0
 70
     1
1001
ACAD
1000
ASC_BOUNDS
1002
{
1070
    19
1005
3109
1002
}
  0
VERTEX
  5
33C1
  8
3
 10
222.95076511546989
 20
92.312499999999943
 30
0.0
  0
VERTEX
  5
33C2
  8
3
 10
224.07576511546989
 20
92.312500000000014
 30
0.0
  0
VERTEX
  5
33C3
  8
3
 10
224.07576511546989
 20
91.000000000000014
 30
0.0
  0
VERTEX
  5
33C4
  8
3
 10
225.95076511546989
 20
91.000000000000014
 30
0.0
  0
VERTEX
  5
33C5
  8
3
 10
225.95076511546989
 20
94.562500000000014
 30
0.0
 42
1.000000215936474
  0
VERTEX
  5
33C6
  8
3
 10
221.07576511546989
 20
94.562500000000014
 30
0.0
  0
VERTEX
  5
33C7
  8
3
 10
221.07576511546989
 20
91.000000000000014
 30
0.0
  0
VERTEX
  5
33C8
  8
3
 10
222.95076511546989
 20
90.999999999999957
 30
0.0
  0
SEQEND
  5
33C9
  8
3
  0
POLYLINE
  5
3116
  8
3
 66
     1
 10
0.0
 20
0.0
 30
0.0
 70
     1
1001
ACAD
1000
ASC_BOUNDS
1002
{
1070
    19
1005
3109
1002
}
  0
VERTEX
  5
33CA
  8
3
 10
224.07576511546989
 20
93.812500000000014
 30
0.0
  0
VERTEX
  5
33CB
  8
3
 10
224.07576511546989
 20
94.562500000000014
 30
0.0
 42
1.0000004495664849
  0
VERTEX
  5
33CC
  8
3
 10
222.95076511546989
 20
94.562500000000014
 30
0.0
  0
VERTEX
  5
33CD
  8
3
 10
222.95076511546989
 20
93.812500000000014
 30
0.0
  0
SEQEND
  5
33CE
  8
3
  0
POLYLINE
  5
3117
  8
3
 66
     1
 10
0.0
 20
0.0
 30
0.0
 70
     1
1001
ACAD
1000
ASC_BOUNDS
1002
{
1070
    19
1005
3109
1002
}
  0
VERTEX
  5
33CF
  8
3
 10
202.46871056532791
 20
96.089687499999513
 30
0.0
 42
0.1402251973297244
  0
VERTEX
  5
33D0
  8
3
 10
204.44005082975539
 20
95.305048456873706
 30
0.0
  0
VERTEX
  5
33D1
  8
3
 10
204.44005082975539
 20
94.385714285714599
 30
0.0
  0
VERTEX
  5
33D2
  8
3
 10
203.79719368689899
 20
94.385714285714599
 30
0.0
  0
VERTEX
  5
33D3
  8
3
 10
203.79719368689899
 20
94.000000000000014
 30
0.0
 42
-0.378699158263169
  0
VERTEX
  5
33D4
  8
3
 10
201.03290797261391
 20
90.873704350226035
 30
0.0
  0
VERTEX
  5
33D5
  8
3
 10
201.03290797261391
 20
90.162191314017335
 30
0.0
 42
0.1186144156091118
  0
VERTEX
  5
33D6
  8
3
 10
202.73647940118471
 20
90.75771126756247
 30
0.0
 42
1.834021909257185
  0
VERTEX
  5
33D7
  8
3
 10
202.73647940118471
 20
97.242288732437558
 30
0.0
 42
1.26915442618927
  0
VERTEX
  5
33D8
  8
3
 10
200.2614794011848
 20
90.162191314017335
 30
0.0
  0
VERTEX
  5
33D9
  8
3
 10
200.2614794011848
 20
90.873704350226035
 30
0.0
 42
-0.3786991582631508
  0
VERTEX
  5
33DA
  8
3
 10
197.49719368689969
 20
93.999999999999787
 30
0.0
  0
VERTEX
  5
33DB
  8
3
 10
197.49719368689969
 20
94.385714285714599
 30
0.0
  0
VERTEX
  5
33DC
  8
3
 10
198.20433654404201
 20
94.385714285714599
 30
0.0
  0
VERTEX
  5
33DD
  8
3
 10
198.20433654404201
 20
94.000000000000185
 30
0.0
 42
0.3684995607863874
  0
VERTEX
  5
33DE
  8
3
 10
200.2614794011848
 20
91.587786180662263
 30
0.0
  0
VERTEX
  5
33DF
  8
3
 10
200.2614794011848
 20
92.307685439574428
 30
0.0
 42
-0.3500011104183812
  0
VERTEX
  5
33E0
  8
3
 10
198.9114794011858
 20
94.000000000000014
 30
0.0
  0
VERTEX
  5
33E1
  8
3
 10
198.9114794011858
 20
94.385714285714599
 30
0.0
  0
VERTEX
  5
33E2
  8
3
 10
199.61862225832829
 20
94.385714285714599
 30
0.0
  0
VERTEX
  5
33E3
  8
3
 10
199.61862225832829
 20
93.999999999999957
 30
0.0
 42
0.9999989916437579
  0
VERTEX
  5
33E4
  8
3
 10
201.67576511547
 20
93.999999284331935
 30
0.0
 42
-0.1833501526628178
  0
SEQEND
  5
33E5
  8
3
  0
POLYLINE
  5
3118
  8
3
 66
     1
 10
0.0
 20
0.0
 30
0.0
 70
     1
1001
ACAD
1000
ASC_BOUNDS
1002
{
1070
    19
1005
3109
1002
}
  0
VERTEX
  5
33E6
  8
3
 10
203.09005082975671
 20
94.000000000000014
 30
0.0
  0
VERTEX
  5
33E7
  8
3
 10
203.09005082975671
 20
94.385714285714599
 30
0.0
  0
VERTEX
  5
33E8
  8
3
 10
202.3829079726128
 20
94.385714285714599
 30
0.0
  0
VERTEX
  5
33E9
  8
3
 10
202.3829079726128
 20
94.000000000000014
 30
0.0
 42
-0.3500011104183828
  0
VERTEX
  5
33EA
  8
3
 10
201.03290797261391
 20
92.307685439574428
 30
0.0
  0
VERTEX
  5
33EB
  8
3
 10
201.03290797261391
 20
91.587786180662263
 30
0.0
 42
0.3684995607863695
  0
SEQEND
  5
33EC
  8
3
  0
TEXT
  5
31FF
  8
0
 62
     3
 10
0.0
 20
0.0
 30
0.0
 40
10.0
  1
BJ101-12022T
  7
STANDARD1
  0
LINE
  5
32CF
  8
2
 10
246.50000000000011
 20
92.0
 30
0.0
 11
246.50000000000011
 21
105.0
 31
0.0
  0
LINE
  5
32D0
  8
2
 10
243.00000000000011
 20
92.0
 30
0.0
 11
243.00000000000011
 21
83.000000000000014
 31
0.0
  0
LINE
  5
32D1
  8
2
 10
200.00000000000011
 20
92.0
 30
0.0
 11
200.00000000000011
 21
105.0
 31
0.0
  0
LINE
  5
32D2
  8
2
 10
203.50000000000011
 20
92.0
 30
0.0
 11
203.50000000000011
 21
83.000000000000014
 31
0.0
  0
LINE
  5
32D3
  8
2
 10
246.50000000000011
 20
92.0
 30
0.0
 11
200.00000000000011
 21
92.0
 31
0.0
  0
LINE
  5
32D4
  8
2
 10
219.2000000000001
 20
95.0
 30
0.0
 11
200.8000000000001
 21
95.0
 31
0.0
  0
LINE
  5
32D5
  8
2
 10
200.50000000000011
 20
94.700000000000017
 30
0.0
 11
200.8000000000001
 21
95.0
 31
0.0
  0
LINE
  5
32D6
  8
2
 10
200.50000000000011
 20
94.700000000000017
 30
0.0
 11
200.50000000000011
 21
92.300000000000026
 31
0.0
  0
LINE
  5
32D7
  8
2
 10
219.50000000000011
 20
94.700000000000017
 30
0.0
 11
219.50000000000011
 21
92.300000000000026
 31
0.0
  0
LINE
  5
32D8
  8
2
 10
219.2000000000001
 20
95.0
 30
0.0
 11
219.50000000000011
 21
94.700000000000017
 31
0.0
  0
LINE
  5
32D9
  8
2
 10
200.50000000000011
 20
92.300000000000026
 30
0.0
 11
200.8000000000001
 21
92.0
 31
0.0
  0
LINE
  5
32DA
  8
2
 10
219.2000000000001
 20
92.0
 30
0.0
 11
219.50000000000011
 21
92.300000000000026
 31
0.0
  0
LINE
  5
32E2
  8
2
 10
219.00000000000011
 20
105.0
 30
0.0
 11
219.00000000000011
 21
95.0
 31
0.0
  0
LINE
  5
32E3
  8
2
 10
201.00000000000011
 20
105.0
 30
0.0
 11
201.00000000000011
 21
95.0
 31
0.0
  0
LINE
  5
32E4
  8
2
 10
204.0
 20
83.133012701892071
 30
0.0
 11
204.0
 21
92.0
 31
0.0
  0
LINE
  5
32E5
  8
2
 10
204.947
 20
84.461536711581985
 30
0.0
 11
204.947
 21
92.0
 31
0.0
  0
LINE
  5
32E6
  8
2
 10
215.05300000000011
 20
84.461536711582013
 30
0.0
 11
215.05300000000011
 21
92.0
 31
0.0
  0
LINE
  5
32E7
  8
2
 10
216.0
 20
83.133012701892326
 30
0.0
 11
216.0
 21
92.0
 31
0.0
  0
LINE
  5
32E9
  8
2
 10
204.00000000000011
 20
62.000000000000078
 30
0.0
 11
204.00000000000011
 21
76.0
 31
0.0
  0
LINE
  5
32EA
  8
2
 10
204.94700000000009
 20
61.053000000000061
 30
0.0
 11
204.94700000000009
 21
76.0
 31
0.0
  0
LINE
  5
32EB
  8
2
 10
215.0530000000002
 20
61.053000000000019
 30
0.0
 11
215.0530000000002
 21
76.0
 31
0.0
  0
LINE
  5
32EC
  8
2
 10
216.00000000000011
 20
61.999999999999979
 30
0.0
 11
216.00000000000011
 21
76.0
 31
0.0
  0
LINE
  5
3306
  8
2
 10
216.00000000000011
 20
61.999999999999979
 30
0.0
 11
204.00000000000011
 21
62.000000000000078
 31
0.0
  0
LINE
  5
3307
  8
2
 10
206.00000000000011
 20
60.00000000000005
 30
0.0
 11
204.00000000000011
 21
62.000000000000078
 31
0.0
  0
LINE
  5
3308
  8
2
 10
214.00000000000011
 20
59.99999999999995
 30
0.0
 11
216.00000000000011
 21
61.999999999999929
 31
0.0
  0
LINE
  5
330D
  8
2
 10
214.00000000000011
 20
59.99999999999995
 30
0.0
 11
206.00000000000011
 21
60.00000000000005
 31
0.0
  0
LINE
  5
3315
  8
2
 10
230.50000000000011
 20
62.000000000000078
 30
0.0
 11
230.50000000000011
 21
76.0
 31
0.0
  0
LINE
  5
3316
  8
2
 10
231.44700000000009
 20
61.053000000000061
 30
0.0
 11
231.44700000000009
 21
76.0
 31
0.0
  0
LINE
  5
3317
  8
2
 10
241.5530000000002
 20
61.053000000000019
 30
0.0
 11
241.5530000000002
 21
76.0
 31
0.0
  0
LINE
  5
3318
  8
2
 10
242.50000000000011
 20
61.999999999999979
 30
0.0
 11
242.50000000000011
 21
76.0
 31
0.0
  0
LINE
  5
3319
  8
2
 10
242.50000000000011
 20
61.999999999999979
 30
0.0
 11
230.50000000000011
 21
62.000000000000078
 31
0.0
  0
LINE
  5
331A
  8
2
 10
232.50000000000011
 20
60.00000000000005
 30
0.0
 11
230.50000000000011
 21
62.000000000000078
 31
0.0
  0
LINE
  5
331B
  8
2
 10
240.50000000000011
 20
59.99999999999995
 30
0.0
 11
242.50000000000011
 21
61.999999999999929
 31
0.0
  0
LINE
  5
331C
  8
2
 10
240.50000000000011
 20
59.99999999999995
 30
0.0
 11
232.50000000000011
 21
60.00000000000005
 31
0.0
  0
LINE
  5
331D
  8
2
 10
245.7000000000001
 20
95.0
 30
0.0
 11
227.3000000000001
 21
95.0
 31
0.0
  0
LINE
  5
331E
  8
2
 10
227.00000000000011
 20
94.700000000000017
 30
0.0
 11
227.3000000000001
 21
95.0
 31
0.0
  0
LINE
  5
331F
  8
2
 10
227.00000000000011
 20
94.700000000000017
 30
0.0
 11
227.00000000000011
 21
92.300000000000026
 31
0.0
  0
LINE
  5
3320
  8
2
 10
246.00000000000011
 20
94.700000000000017
 30
0.0
 11
246.00000000000011
 21
92.300000000000026
 31
0.0
  0
LINE
  5
3321
  8
2
 10
245.7000000000001
 20
95.0
 30
0.0
 11
246.00000000000011
 21
94.700000000000017
 31
0.0
  0
LINE
  5
3322
  8
2
 10
227.00000000000011
 20
92.300000000000026
 30
0.0
 11
227.3000000000001
 21
92.0
 31
0.0
  0
LINE
  5
3323
  8
2
 10
245.7000000000001
 20
92.0
 30
0.0
 11
246.00000000000011
 21
92.300000000000026
 31
0.0
  0
LINE
  5
3324
  8
2
 10
245.50000000000011
 20
105.0
 30
0.0
 11
245.50000000000011
 21
95.0
 31
0.0
  0
LINE
  5
3325
  8
2
 10
227.50000000000011
 20
105.0
 30
0.0
 11
227.50000000000011
 21
95.0
 31
0.0
  0
LINE
  5
3326
  8
2
 10
230.50000000000011
 20
83.999038105676846
 30
0.0
 11
230.50000000000011
 21
92.0
 31
0.0
  0
LINE
  5
3327
  8
2
 10
231.447
 20
83.000000000000014
 30
0.0
 11
231.447
 21
92.0
 31
0.0
  0
LINE
  5
3328
  8
2
 10
241.55300000000011
 20
83.000000000000014
 30
0.0
 11
241.55300000000011
 21
92.0
 31
0.0
  0
LINE
  5
3329
  8
2
 10
242.5
 20
83.000000000000014
 30
0.0
 11
242.5
 21
92.0
 31
0.0
  0
ENDSEC
  0
EOF
