  0
SECTION
  2
HEADER
  9
$ACADVER
  1
AC1009
  9
$INSBASE
 10
0.0
 20
0.0
 30
0.0
  9
$EXTMIN
 10
0.0
 20
-2.960436562073669
 30
0.0
  9
$EXTMAX
 10
377.00000000000023
 20
180.0
 30
0.0
  9
$LIMMIN
 10
0.0
 20
0.0
  9
$LIMMAX
 10
375.0
 20
270.0
  9
$ORTHOMODE
 70
     1
  9
$REGENMODE
 70
     1
  9
$FILLMODE
 70
     1
  9
$QTEXTMODE
 70
     0
  9
$MIRRTEXT
 70
     0
  9
$DRAGMODE
 70
     2
  9
$LTSCALE
 40
5.0
  9
$OSMODE
 70
    37
  9
$ATTMODE
 70
     1
  9
$TEXTSIZE
 40
4.000000000000048
  9
$TRACEWID
 40
0.05
  9
$TEXTSTYLE
  7
STANDARD
  9
$CLAYER
  8
4
  9
$CELTYPE
  6
BYLAYER
  9
$CECOLOR
 62
   256
  9
$DIMSCALE
 40
1.0
  9
$DIMASZ
 40
3.0
  9
$DIMEXO
 40
2.0
  9
$DIMDLI
 40
0.38
  9
$DIMRND
 40
0.0
  9
$DIMDLE
 40
0.0
  9
$DIMEXE
 40
2.0
  9
$DIMTP
 40
0.0
  9
$DIMTM
 40
0.0
  9
$DIMTXT
 40
3.2000000000000002
  9
$DIMCEN
 40
0.0
  9
$DIMTSZ
 40
0.0
  9
$DIMTOL
 70
     0
  9
$DIMLIM
 70
     0
  9
$DIMTIH
 70
     0
  9
$DIMTOH
 70
     0
  9
$DIMSE1
 70
     0
  9
$DIMSE2
 70
     0
  9
$DIMTAD
 70
     1
  9
$DIMZIN
 70
     0
  9
$DIMBLK
  1

  9
$DIMASO
 70
     0
  9
$DIMSHO
 70
     0
  9
$DIMPOST
  1

  9
$DIMAPOST
  1

  9
$DIMALT
 70
     0
  9
$DIMALTD
 70
     2
  9
$DIMALTF
 40
25.399999999999999
  9
$DIMLFAC
 40
1.0
  9
$DIMTOFL
 70
     0
  9
$DIMTVP
 40
1.6000000000000001
  9
$DIMTIX
 70
     1
  9
$DIMSOXD
 70
     0
  9
$DIMSAH
 70
     0
  9
$DIMBLK1
  1

  9
$DIMBLK2
  1

  9
$DIMSTYLE
  2
STANDARD
  9
$DIMCLRD
 70
     4
  9
$DIMCLRE
 70
     4
  9
$DIMCLRT
 70
     4
  9
$DIMTFAC
 40
1.0
  9
$DIMGAP
 40
0.09
  9
$LUNITS
 70
     2
  9
$LUPREC
 70
     1
  9
$SKETCHINC
 40
0.1
  9
$FILLETRAD
 40
0.0
  9
$AUNITS
 70
     0
  9
$AUPREC
 70
     0
  9
$MENU
  1
E:\r13\win\SUPPORT\ACAD
  9
$ELEVATION
 40
0.0
  9
$PELEVATION
 40
0.0
  9
$THICKNESS
 40
0.0
  9
$LIMCHECK
 70
     0
  9
$BLIPMODE
 70
     0
  9
$CHAMFERA
 40
0.5
  9
$CHAMFERB
 40
0.5
  9
$SKPOLY
 70
     0
  9
$TDCREATE
 40
2450136.583599769
  9
$TDUPDATE
 40
2456969.3925893749
  9
$TDINDWG
 40
0.0182572338
  9
$TDUSRTIMER
 40
0.0182572338
  9
$USRTIMER
 70
     1
  9
$ANGBASE
 50
0.0
  9
$ANGDIR
 70
     0
  9
$PDMODE
 70
     0
  9
$PDSIZE
 40
0.0
  9
$PLINEWID
 40
0.0
  9
$COORDS
 70
     1
  9
$SPLFRAME
 70
     0
  9
$SPLINETYPE
 70
     6
  9
$SPLINESEGS
 70
     8
  9
$ATTDIA
 70
     0
  9
$ATTREQ
 70
     1
  9
$HANDLING
 70
     1
  9
$HANDSEED
  5
C7E
  9
$SURFTAB1
 70
     6
  9
$SURFTAB2
 70
     6
  9
$SURFTYPE
 70
     6
  9
$SURFU
 70
     6
  9
$SURFV
 70
     6
  9
$UCSNAME
  2

  9
$UCSORG
 10
0.0
 20
0.0
 30
0.0
  9
$UCSXDIR
 10
1.0
 20
0.0
 30
0.0
  9
$UCSYDIR
 10
0.0
 20
1.0
 30
0.0
  9
$PUCSNAME
  2

  9
$PUCSORG
 10
0.0
 20
0.0
 30
0.0
  9
$PUCSXDIR
 10
1.0
 20
0.0
 30
0.0
  9
$PUCSYDIR
 10
0.0
 20
1.0
 30
0.0
  9
$USERI1
 70
     0
  9
$USERI2
 70
     1
  9
$USERI3
 70
     0
  9
$USERI4
 70
     0
  9
$USERI5
 70
     0
  9
$USERR1
 40
0.0
  9
$USERR2
 40
0.0
  9
$USERR3
 40
0.0
  9
$USERR4
 40
0.0
  9
$USERR5
 40
0.0
  9
$WORLDVIEW
 70
     1
  9
$SHADEDGE
 70
     3
  9
$SHADEDIF
 70
    70
  9
$TILEMODE
 70
     1
  9
$MAXACTVP
 70
    16
  9
$PLIMCHECK
 70
     0
  9
$PEXTMIN
 10
1.0000000000000000E+020
 20
1.0000000000000000E+020
 30
1.0000000000000000E+020
  9
$PEXTMAX
 10
-1.0000000000000000E+020
 20
-1.0000000000000000E+020
 30
-1.0000000000000000E+020
  9
$PLIMMIN
 10
0.0
 20
0.0
  9
$PLIMMAX
 10
12.0
 20
9.0
  9
$UNITMODE
 70
     0
  9
$VISRETAIN
 70
     0
  9
$PLINEGEN
 70
     0
  9
$PSLTSCALE
 70
     0
  0
ENDSEC
  0
SECTION
  2
TABLES
  0
TABLE
  2
VPORT
 70
     1
  0
VPORT
  2
*ACTIVE
 70
     0
 10
0.0
 20
0.0
 11
1.0
 21
1.0
 12
235.63977746870651
 22
135.0
 13
0.0
 23
0.0
 14
10.0
 24
10.0
 15
10.0
 25
10.0
 16
0.0
 26
0.0
 36
1.0
 17
0.0
 27
0.0
 37
0.0
 40
270.0
 41
1.7454798331015291
 42
50.0
 43
0.0
 44
0.0
 50
0.0
 51
0.0
 71
     0
 72
   500
 73
     1
 74
     0
 75
     0
 76
     0
 77
     0
 78
     2
  0
ENDTAB
  0
TABLE
  2
LTYPE
 70
     5
  0
LTYPE
  2
CONTINUOUS
 70
     0
  3
Solid Line
 72
    65
 73
     0
 40
0.0
  0
LTYPE
  2
CENTER
 70
     0
  3
____ _ ____ _ ____ _ ____ _ ____ _ ____ _ ____
 72
    65
 73
     4
 40
2.0
 49
1.25
 49
-0.25
 49
0.25
 49
-0.25
  0
LTYPE
  2
PHANTOM2
 70
     0
  3
___ _ _ ___ _ _ ___ _ _ ___ _ _
 72
    65
 73
     6
 40
1.25
 49
0.625
 49
-0.125
 49
0.125
 49
-0.125
 49
0.125
 49
-0.125
  0
LTYPE
  2
PHANTOM
 70
     0
  3
_____ _ _ _____ _ _ _____ _ _ _____ _ _ ____
 72
    65
 73
     6
 40
2.5
 49
1.25
 49
-0.25
 49
0.25
 49
-0.25
 49
0.25
 49
-0.25
  0
LTYPE
  2
HIDDEN
 70
     0
  3
_ _ _ _ _ _ _ _ _ _ _ _ _ _ _ _ _ _ _ _ _ _ _
 72
    65
 73
     2
 40
0.375
 49
0.25
 49
-0.125
  0
ENDTAB
  0
TABLE
  2
LAYER
 70
     7
  0
LAYER
  2
0
 70
     0
 62
     7
  6
CONTINUOUS
  0
LAYER
  2
1
 70
     0
 62
     1
  6
CENTER
  0
LAYER
  2
4
 70
     0
 62
     4
  6
CONTINUOUS
  0
LAYER
  2
3
 70
     0
 62
     3
  6
CONTINUOUS
  0
LAYER
  2
DEFPOINTS
 70
     0
 62
     7
  6
CONTINUOUS
  0
LAYER
  2
5
 70
     0
 62
     3
  6
PHANTOM
  0
LAYER
  2
2
 70
     0
 62
     2
  6
HIDDEN
  0
ENDTAB
  0
TABLE
  2
STYLE
 70
     2
  0
STYLE
  2
STANDARD
 70
     0
 40
0.0
 41
1.0
 50
0.0
 71
     0
 42
4.000000000000048
  3
SIMPLEX
  4
BIGFONT
  0
STYLE
  2
STANDARD1
 70
     0
 40
0.0
 41
1.0
 50
0.0
 71
     0
 42
3.0
  3
txt
  4

  0
ENDTAB
  0
TABLE
  2
VIEW
 70
     1
  0
VIEW
  2
ALL
 70
     0
 40
270.33333333333331
 10
220.8717648550103
 20
134.83333333333329
 41
441.74352971002048
 11
0.0
 21
0.0
 31
1.0
 12
0.0
 22
0.0
 32
0.0
 42
50.0
 43
0.0
 44
0.0
 50
0.0
 71
     0
  0
ENDTAB
  0
TABLE
  2
UCS
 70
     0
  0
ENDTAB
  0
TABLE
  2
APPID
 70
    40
  0
APPID
  2
ACAD
 70
     0
  0
APPID
  2
ACAD_MLEADERVER
 70
     0
  0
APPID
  2
DCO15
 70
     0
  0
APPID
  2
GENIUS_GENOREF_13
 70
     0
  0
APPID
  2
GENIUS_GENOENT_13
 70
     0
  0
APPID
  2
GENIUS_GENBH_13
 70
     0
  0
APPID
  2
GENIUS_GENOBJ_13
 70
     0
  0
APPID
  2
GENIUS_GENODEF_13
 70
     0
  0
APPID
  2
GENIUS_GENOLIS_13
 70
     0
  0
APPID
  2
GENIUS_GENOBJ-NBEHI-BHF_13
 70
     0
  0
APPID
  2
GENIUS_GENOBJ-NBEHI-BHB_13
 70
     0
  0
APPID
  2
GENIUS_GENOBJ-F-PART_13
 70
     0
  0
APPID
  2
GENIUS_GEFSTDP_13
 70
     0
  0
APPID
  2
GENIUS_GENOBJ-N-RSSYM_13
 70
     0
  0
APPID
  2
GENIUS_GENSYMENT_13
 70
     0
  0
APPID
  2
GENIUS_GENOBJ-N-TIT_13
 70
     0
  0
APPID
  2
GENIUS_GENTITLE_13
 70
     0
  0
APPID
  2
GENIUS_GENZVEED_13
 70
     0
  0
APPID
  2
GENIUS_GENOBJ-N-LEADER_13
 70
     0
  0
APPID
  2
GENIUS_GENOBJ-N-FIL_13
 70
     0
  0
APPID
  2
GENIUS_GENOBJ-N-SEC_13
 70
     0
  0
APPID
  2
GENIUS_GENOBJ-N-CRS_13
 70
     0
  0
APPID
  2
GENIUS_GENOBJ-N-ZOO_13
 70
     0
  0
APPID
  2
GENIUS_GENZOO_13
 70
     0
  0
APPID
  2
GENIUS_GENOBJ-F-TOL_13
 70
     0
  0
APPID
  2
GENIUS_GENFIL_13
 70
     0
  0
APPID
  2
GENIUS_GENOBJ-N-CHA_13
 70
     0
  0
APPID
  2
ASM_BASE
 70
     0
  0
APPID
  2
ASM_EXPLO_VER_2_00
 70
     0
  0
APPID
  2
ASM_CADM_VER_12_00
 70
     0
  0
APPID
  2
ASM_BASEFORO
 70
     0
  0
APPID
  2
ASM_BASETRAVI
 70
     0
  0
APPID
  2
ASM_BASETRAVI1
 70
     0
  0
APPID
  2
ASM_GRUPPI
 70
     0
  0
APPID
  2
ASM_CADM_ALBERO
 70
     0
  0
APPID
  2
ASM_GOLE
 70
     0
  0
APPID
  2
_CALL_MAC$
 70
     0
  0
APPID
  2
CONTENTBLOCKICON
 70
     0
  0
APPID
  2
ACAD_NAV_VCDISPLAY
 70
     0
  0
APPID
  2
ACAD_EXEMPT_FROM_CAD_STANDARDS
 70
     0
  0
ENDTAB
  0
TABLE
  2
DIMSTYLE
 70
     1
  0
DIMSTYLE
  2
STANDARD
 70
     0
  3

  4

  5

  6

  7

 40
1.0
 41
0.18
 42
0.0625
 43
0.38
 44
0.18
 45
0.0
 46
0.0
 47
0.0
 48
0.0
140
0.18
141
0.09
142
0.0
143
25.399999999999999
144
1.0
145
0.0
146
1.0
147
0.09
 71
     0
 72
     0
 73
     1
 74
     1
 75
     0
 76
     0
 77
     0
 78
     0
170
     0
171
     2
172
     0
173
     0
174
     0
175
     0
176
     0
177
     0
178
     0
  0
ENDTAB
  0
ENDSEC
  0
SECTION
  2
BLOCKS
  0
BLOCK
  8
0
  2
$MODEL_SPACE
 70
     0
 10
0.0
 20
0.0
 30
0.0
  3
$MODEL_SPACE
  1

  0
ENDBLK
  5
1B3
  8
0
  0
BLOCK
 67
     1
  8
0
  2
$PAPER_SPACE
 70
     0
 10
0.0
 20
0.0
 30
0.0
  3
$PAPER_SPACE
  1

  0
ENDBLK
  5
1B1
 67
     1
  8
0
  0
ENDSEC
  0
SECTION
  2
ENTITIES
  0
ARC
  5
F6
  8
0
 10
341.00000000000023
 20
86.0
 30
0.0
 40
4.0
 50
90.0
 51
180.0
  0
LINE
  5
F7
  8
0
 10
337.00000000000023
 20
62.000000000000007
 30
0.0
 11
338.15470100000027
 21
60.0
 31
0.0
  0
LINE
  5
F8
  8
0
 10
337.00000000000023
 20
62.000000000000007
 30
0.0
 11
337.00000000000023
 21
86.0
 31
0.0
  0
LINE
  5
F9
  8
0
 10
377.00000000000023
 20
62.000000000000007
 30
0.0
 11
375.84529900000018
 21
60.0
 31
0.0
  0
LINE
  5
FA
  8
0
 10
337.00000000000023
 20
62.000000000000007
 30
0.0
 11
377.00000000000023
 21
62.000000000000007
 31
0.0
  0
ARC
  5
FB
  8
0
 10
373.00000000000023
 20
86.0
 30
0.0
 40
4.0
 50
0.0
 51
90.0
  0
LINE
  5
FC
  8
0
 10
373.00000000000023
 20
90.0
 30
0.0
 11
341.00000000000023
 21
90.0
 31
0.0
  0
LINE
  5
FD
  8
0
 10
377.00000000000023
 20
62.000000000000007
 30
0.0
 11
377.00000000000023
 21
86.0
 31
0.0
  0
LINE
  5
FE
  8
0
 10
338.15470100000027
 20
60.0
 30
0.0
 11
375.84529900000018
 21
60.0
 31
0.0
  0
LINE
  5
FF
  8
1
 10
357.00000000000023
 20
55.0
 30
0.0
 11
357.00000000000023
 21
95.0
 31
0.0
  0
TEXT
  5
268
  8
0
 62
     3
 10
0.0
 20
0.0
 30
0.0
 40
10.0
  1
BJ101-16030
  7
STANDARD1
  0
LINE
  5
71C
  8
0
 10
196.0000000000002
 20
63.0
 30
0.0
 11
199.00000000000031
 21
60.0
 31
0.0
  0
ARC
  5
71D
  8
0
 10
202.0000000000004
 20
61.065063509461197
 30
0.0
 40
0.4
 50
30.00000000000087
 51
149.99999999999909
  0
LINE
  5
71E
  8
0
 10
203.07679491924341
 20
60.0
 30
0.0
 11
202.34641016151409
 21
61.26506350946125
 31
0.0
  0
LINE
  5
71F
  8
0
 10
200.9232050807571
 20
60.0
 30
0.0
 11
201.65358983848651
 21
61.26506350946125
 31
0.0
  0
LINE
  5
720
  8
0
 10
200.9232050807571
 20
60.0
 30
0.0
 11
199.00000000000031
 21
60.0
 31
0.0
  0
ARC
  5
721
  8
0
 10
207.00000000000031
 20
61.065063509461197
 30
0.0
 40
0.4
 50
30.00000000000087
 51
149.99999999999909
  0
LINE
  5
722
  8
0
 10
208.07679491924341
 20
60.0
 30
0.0
 11
207.34641016151409
 21
61.26506350946125
 31
0.0
  0
LINE
  5
723
  8
0
 10
205.92320508075721
 20
60.0
 30
0.0
 11
206.65358983848651
 21
61.26506350946125
 31
0.0
  0
LINE
  5
724
  8
0
 10
205.92320508075721
 20
60.0
 30
0.0
 11
203.07679491924341
 21
60.0
 31
0.0
  0
ARC
  5
725
  8
0
 10
212.0000000000004
 20
61.065063509461197
 30
0.0
 40
0.4
 50
30.00000000000087
 51
149.99999999999909
  0
LINE
  5
726
  8
0
 10
213.07679491924341
 20
60.0
 30
0.0
 11
212.34641016151409
 21
61.26506350946125
 31
0.0
  0
LINE
  5
727
  8
0
 10
210.9232050807571
 20
60.0
 30
0.0
 11
211.65358983848651
 21
61.26506350946125
 31
0.0
  0
LINE
  5
728
  8
0
 10
210.9232050807571
 20
60.0
 30
0.0
 11
208.07679491924341
 21
60.0
 31
0.0
  0
ARC
  5
729
  8
0
 10
217.00000000000031
 20
61.065063509461197
 30
0.0
 40
0.4
 50
30.00000000000087
 51
149.99999999999909
  0
LINE
  5
72A
  8
0
 10
218.07679491924341
 20
60.0
 30
0.0
 11
217.34641016151409
 21
61.26506350946125
 31
0.0
  0
LINE
  5
72B
  8
0
 10
215.92320508075721
 20
60.0
 30
0.0
 11
216.65358983848651
 21
61.26506350946125
 31
0.0
  0
LINE
  5
72C
  8
0
 10
215.92320508075721
 20
60.0
 30
0.0
 11
213.07679491924341
 21
60.0
 31
0.0
  0
ARC
  5
72D
  8
0
 10
222.00000000000031
 20
61.065063509461197
 30
0.0
 40
0.4
 50
30.00000000000087
 51
149.99999999999909
  0
LINE
  5
72E
  8
0
 10
223.07679491924341
 20
60.0
 30
0.0
 11
222.34641016151409
 21
61.26506350946125
 31
0.0
  0
LINE
  5
72F
  8
0
 10
220.92320508075721
 20
60.0
 30
0.0
 11
221.65358983848651
 21
61.26506350946125
 31
0.0
  0
LINE
  5
730
  8
0
 10
220.92320508075721
 20
60.0
 30
0.0
 11
218.07679491924341
 21
60.0
 31
0.0
  0
ARC
  5
731
  8
0
 10
227.0000000000004
 20
61.065063509461197
 30
0.0
 40
0.4
 50
30.00000000000087
 51
149.99999999999909
  0
LINE
  5
732
  8
0
 10
228.07679491924341
 20
60.0
 30
0.0
 11
227.34641016151409
 21
61.26506350946125
 31
0.0
  0
LINE
  5
733
  8
0
 10
225.92320508075721
 20
60.0
 30
0.0
 11
226.65358983848651
 21
61.26506350946125
 31
0.0
  0
LINE
  5
734
  8
0
 10
225.92320508075721
 20
60.0
 30
0.0
 11
223.07679491924341
 21
60.0
 31
0.0
  0
ARC
  5
735
  8
0
 10
232.00000000000031
 20
61.065063509461197
 30
0.0
 40
0.4
 50
30.00000000000087
 51
149.99999999999909
  0
LINE
  5
736
  8
0
 10
233.07679491924341
 20
60.0
 30
0.0
 11
232.34641016151409
 21
61.26506350946125
 31
0.0
  0
LINE
  5
737
  8
0
 10
230.92320508075721
 20
60.0
 30
0.0
 11
231.65358983848651
 21
61.26506350946125
 31
0.0
  0
LINE
  5
738
  8
0
 10
230.92320508075721
 20
60.0
 30
0.0
 11
228.07679491924341
 21
60.0
 31
0.0
  0
ARC
  5
739
  8
0
 10
237.0000000000004
 20
61.065063509461197
 30
0.0
 40
0.4
 50
30.00000000000087
 51
149.99999999999909
  0
LINE
  5
73A
  8
0
 10
238.07679491924341
 20
60.0
 30
0.0
 11
237.34641016151409
 21
61.26506350946125
 31
0.0
  0
LINE
  5
73B
  8
0
 10
235.9232050807571
 20
60.0
 30
0.0
 11
236.65358983848651
 21
61.26506350946125
 31
0.0
  0
LINE
  5
73C
  8
0
 10
235.9232050807571
 20
60.0
 30
0.0
 11
233.07679491924341
 21
60.0
 31
0.0
  0
ARC
  5
73D
  8
0
 10
242.00000000000031
 20
61.065063509461197
 30
0.0
 40
0.4
 50
30.00000000000087
 51
149.99999999999909
  0
LINE
  5
73E
  8
0
 10
243.07679491924341
 20
60.0
 30
0.0
 11
242.34641016151409
 21
61.26506350946125
 31
0.0
  0
LINE
  5
73F
  8
0
 10
240.92320508075721
 20
60.0
 30
0.0
 11
241.65358983848651
 21
61.26506350946125
 31
0.0
  0
LINE
  5
740
  8
0
 10
240.92320508075721
 20
60.0
 30
0.0
 11
238.07679491924341
 21
60.0
 31
0.0
  0
ARC
  5
741
  8
0
 10
247.00000000000031
 20
61.065063509461197
 30
0.0
 40
0.4
 50
30.00000000000087
 51
149.99999999999909
  0
LINE
  5
742
  8
0
 10
248.07679491924341
 20
60.0
 30
0.0
 11
247.34641016151409
 21
61.26506350946125
 31
0.0
  0
LINE
  5
743
  8
0
 10
245.92320508075721
 20
60.0
 30
0.0
 11
246.65358983848651
 21
61.26506350946125
 31
0.0
  0
LINE
  5
744
  8
0
 10
245.92320508075721
 20
60.0
 30
0.0
 11
243.07679491924341
 21
60.0
 31
0.0
  0
ARC
  5
745
  8
0
 10
252.0000000000004
 20
61.065063509461197
 30
0.0
 40
0.4
 50
30.00000000000087
 51
149.99999999999909
  0
LINE
  5
746
  8
0
 10
253.07679491924341
 20
60.0
 30
0.0
 11
252.34641016151409
 21
61.26506350946125
 31
0.0
  0
LINE
  5
747
  8
0
 10
250.92320508075721
 20
60.0
 30
0.0
 11
251.65358983848651
 21
61.26506350946125
 31
0.0
  0
LINE
  5
748
  8
0
 10
250.92320508075721
 20
60.0
 30
0.0
 11
248.07679491924341
 21
60.0
 31
0.0
  0
ARC
  5
749
  8
0
 10
257.00000000000028
 20
61.065063509461197
 30
0.0
 40
0.4
 50
30.00000000000087
 51
149.99999999999909
  0
LINE
  5
74A
  8
0
 10
258.07679491924341
 20
60.0
 30
0.0
 11
257.34641016151409
 21
61.26506350946125
 31
0.0
  0
LINE
  5
74B
  8
0
 10
255.92320508075721
 20
60.0
 30
0.0
 11
256.65358983848648
 21
61.26506350946125
 31
0.0
  0
LINE
  5
74C
  8
0
 10
255.92320508075721
 20
60.0
 30
0.0
 11
253.07679491924341
 21
60.0
 31
0.0
  0
ARC
  5
74D
  8
0
 10
262.0000000000004
 20
61.065063509461197
 30
0.0
 40
0.4
 50
30.00000000000087
 51
149.99999999999909
  0
LINE
  5
74E
  8
0
 10
263.07679491924341
 20
60.0
 30
0.0
 11
262.34641016151409
 21
61.26506350946125
 31
0.0
  0
LINE
  5
74F
  8
0
 10
260.9232050807571
 20
60.0
 30
0.0
 11
261.65358983848648
 21
61.26506350946125
 31
0.0
  0
LINE
  5
750
  8
0
 10
260.9232050807571
 20
60.0
 30
0.0
 11
258.07679491924341
 21
60.0
 31
0.0
  0
ARC
  5
751
  8
0
 10
267.00000000000028
 20
61.065063509461197
 30
0.0
 40
0.4
 50
30.00000000000087
 51
149.99999999999909
  0
LINE
  5
752
  8
0
 10
268.07679491924341
 20
60.0
 30
0.0
 11
267.34641016151409
 21
61.26506350946125
 31
0.0
  0
LINE
  5
753
  8
0
 10
265.92320508075721
 20
60.0
 30
0.0
 11
266.65358983848648
 21
61.26506350946125
 31
0.0
  0
LINE
  5
754
  8
0
 10
265.92320508075721
 20
60.0
 30
0.0
 11
263.07679491924341
 21
60.0
 31
0.0
  0
ARC
  5
755
  8
0
 10
272.00000000000028
 20
61.065063509461197
 30
0.0
 40
0.4
 50
30.00000000000087
 51
149.99999999999909
  0
LINE
  5
756
  8
0
 10
273.07679491924341
 20
60.0
 30
0.0
 11
272.34641016151409
 21
61.26506350946125
 31
0.0
  0
LINE
  5
757
  8
0
 10
270.92320508075721
 20
60.0
 30
0.0
 11
271.65358983848648
 21
61.26506350946125
 31
0.0
  0
LINE
  5
758
  8
0
 10
270.92320508075721
 20
60.0
 30
0.0
 11
268.07679491924341
 21
60.0
 31
0.0
  0
ARC
  5
759
  8
0
 10
277.0000000000004
 20
61.065063509461197
 30
0.0
 40
0.4
 50
30.00000000000087
 51
149.99999999999909
  0
LINE
  5
75A
  8
0
 10
278.07679491924341
 20
60.0
 30
0.0
 11
277.34641016151409
 21
61.26506350946125
 31
0.0
  0
LINE
  5
75B
  8
0
 10
275.92320508075721
 20
60.0
 30
0.0
 11
276.65358983848648
 21
61.26506350946125
 31
0.0
  0
LINE
  5
75C
  8
0
 10
275.92320508075721
 20
60.0
 30
0.0
 11
273.07679491924341
 21
60.0
 31
0.0
  0
ARC
  5
75D
  8
0
 10
282.00000000000028
 20
61.065063509461197
 30
0.0
 40
0.4
 50
30.00000000000087
 51
149.99999999999909
  0
LINE
  5
75E
  8
0
 10
280.92320508075721
 20
60.0
 30
0.0
 11
278.07679491924341
 21
60.0
 31
0.0
  0
LINE
  5
75F
  8
0
 10
280.92320508075721
 20
60.0
 30
0.0
 11
281.65358983848648
 21
61.26506350946125
 31
0.0
  0
LINE
  5
760
  8
0
 10
283.07679491924341
 20
60.0
 30
0.0
 11
282.34641016151409
 21
61.26506350946125
 31
0.0
  0
LINE
  5
761
  8
0
 10
285.00000000000023
 20
60.0
 30
0.0
 11
283.07679491924341
 21
60.0
 31
0.0
  0
LINE
  5
762
  8
0
 10
287.00000000000023
 20
62.000000000000007
 30
0.0
 11
285.00000000000023
 21
60.0
 31
0.0
  0
LINE
  5
7CA
  8
5
 10
225.31370849898491
 20
104.0
 30
0.0
 11
192.84441020371199
 21
104.0
 31
0.0
  0
LINE
  5
7CB
  8
5
 10
200.0000000000002
 20
90.0
 30
0.0
 11
214.0000000000002
 21
104.0
 31
0.0
  0
LINE
  5
7CC
  8
5
 10
211.31370849898499
 20
90.0
 30
0.0
 11
225.31370849898491
 21
104.0
 31
0.0
  0
ARC
  5
7CD
  8
5
 10
192.84441020371199
 20
100.0
 30
0.0
 40
4.0
 50
90.0
 51
148.0342812492033
  0
ARC
  5
7CE
  8
5
 10
164.00000000000011
 20
118.0
 30
0.0
 40
30.0
 50
274.1026691858716
 51
328.03428124920327
  0
LINE
  5
7CF
  8
5
 10
164.00000000000011
 20
76.0
 30
0.0
 11
186.0000000000002
 21
76.0
 31
0.0
  0
LINE
  5
7D0
  8
5
 10
164.00000000000011
 20
76.0
 30
0.0
 11
164.00000000000011
 21
77.0
 31
0.0
  0
LINE
  5
7D1
  8
5
 10
164.00000000000011
 20
77.0
 30
0.0
 11
166.50000000000011
 21
78.750518845524184
 31
0.0
  0
LINE
  5
7D2
  8
5
 10
164.00000000000011
 20
80.191336297295365
 30
0.0
 11
166.50000000000011
 21
81.941855142819577
 31
0.0
  0
LINE
  5
7D3
  8
5
 10
166.50000000000011
 20
78.750518845524184
 30
0.0
 11
164.00000000000011
 21
79.191336297295379
 31
0.0
  0
LINE
  5
7D4
  8
5
 10
166.50000000000011
 20
81.941855142819577
 30
0.0
 11
164.00000000000011
 21
82.382672594590758
 31
0.0
  0
LINE
  5
7D5
  8
5
 10
164.00000000000011
 20
83.382672594590758
 30
0.0
 11
166.50000000000011
 21
85.13319144011507
 31
0.0
  0
LINE
  5
7D6
  8
5
 10
166.50000000000011
 20
85.13319144011507
 30
0.0
 11
164.00000000000011
 21
85.574008891886123
 31
0.0
  0
LINE
  5
7D7
  8
5
 10
164.00000000000011
 20
79.191336297295379
 30
0.0
 11
164.00000000000011
 21
80.191336297295365
 31
0.0
  0
LINE
  5
7D8
  8
5
 10
164.00000000000011
 20
82.382672594590758
 30
0.0
 11
164.00000000000011
 21
83.382672594590758
 31
0.0
  0
LINE
  5
7D9
  8
5
 10
164.00000000000011
 20
85.574008891886123
 30
0.0
 11
164.00000000000011
 21
86.574008891886123
 31
0.0
  0
LINE
  5
7DA
  8
5
 10
164.00000000000011
 20
86.574008891886123
 30
0.0
 11
166.1463173333901
 21
88.076876468116097
 31
0.0
  0
ARC
  5
7DB
  8
0
 10
64.0
 20
70.0
 30
0.0
 40
4.0
 50
90.0
 51
180.0
  0
ARC
  5
7DC
  8
0
 10
96.0
 20
70.0
 30
0.0
 40
4.0
 50
0.0
 51
90.0
  0
LINE
  5
7DD
  8
0
 10
76.0
 20
62.000000000000007
 30
0.0
 11
76.0
 21
74.0
 31
0.0
  0
LINE
  5
7DE
  8
0
 10
62.0
 20
72.574008891886123
 30
0.0
 11
76.0
 21
72.574008891886123
 31
0.0
  0
LINE
  5
7DF
  8
0
 10
62.0
 20
71.574008891886137
 30
0.0
 11
76.0
 21
71.574008891886137
 31
0.0
  0
LINE
  5
7E0
  8
0
 10
62.0
 20
69.382672594590758
 30
0.0
 11
76.0
 21
69.382672594590758
 31
0.0
  0
LINE
  5
7E1
  8
0
 10
62.0
 20
68.382672594590758
 30
0.0
 11
76.0
 21
68.382672594590758
 31
0.0
  0
LINE
  5
7E2
  8
0
 10
62.0
 20
66.191336297295379
 30
0.0
 11
76.0
 21
66.191336297295379
 31
0.0
  0
LINE
  5
7E3
  8
0
 10
62.0
 20
65.191336297295365
 30
0.0
 11
76.0
 21
65.191336297295365
 31
0.0
  0
LINE
  5
7E4
  8
0
 10
62.0
 20
63.0
 30
0.0
 11
76.0
 21
63.0
 31
0.0
  0
LINE
  5
7E5
  8
0
 10
98.0
 20
63.0
 30
0.0
 11
84.0
 21
63.0
 31
0.0
  0
LINE
  5
7E6
  8
0
 10
98.0
 20
65.191336297295365
 30
0.0
 11
84.0
 21
65.191336297295365
 31
0.0
  0
LINE
  5
7E7
  8
0
 10
98.0
 20
66.191336297295379
 30
0.0
 11
84.0
 21
66.191336297295379
 31
0.0
  0
LINE
  5
7E8
  8
0
 10
98.0
 20
68.382672594590758
 30
0.0
 11
84.0
 21
68.382672594590758
 31
0.0
  0
LINE
  5
7E9
  8
0
 10
98.0
 20
69.382672594590758
 30
0.0
 11
84.0
 21
69.382672594590758
 31
0.0
  0
LINE
  5
7EA
  8
0
 10
98.0
 20
71.574008891886137
 30
0.0
 11
84.0
 21
71.574008891886137
 31
0.0
  0
LINE
  5
7EB
  8
0
 10
98.0
 20
72.574008891886123
 30
0.0
 11
84.0
 21
72.574008891886123
 31
0.0
  0
LINE
  5
7EC
  8
0
 10
84.0
 20
62.000000000000007
 30
0.0
 11
84.0
 21
74.0
 31
0.0
  0
LINE
  5
7ED
  8
0
 10
96.0
 20
74.0
 30
0.0
 11
64.0
 21
74.0
 31
0.0
  0
ARC
  5
7EE
  8
0
 10
207.99264068711801
 20
160.0
 30
0.0
 40
3.749999999999488
 50
139.12003060327999
 51
220.8799693967199
  0
ARC
  5
7EF
  8
0
 10
210.44990822824721
 20
157.8729512860952
 30
0.0
 40
7.000000000001247
 50
106.7342734834637
 51
139.1200306032801
  0
ARC
  5
7F0
  8
0
 10
211.31370849898479
 20
154.99999999999949
 30
0.0
 40
10.000000000000719
 50
90.0
 51
106.7342734834637
  0
ARC
  5
7F1
  8
0
 10
211.31370849898479
 20
165.0000000000002
 30
0.0
 40
10.000000000000719
 50
253.2657265165362
 51
270.0
  0
ARC
  5
7F2
  8
0
 10
210.44990822824721
 20
162.12704871390471
 30
0.0
 40
7.000000000001247
 50
220.8799693967199
 51
253.2657265165362
  0
LINE
  5
7F3
  8
0
 10
178.84441038918339
 20
142.0
 30
0.0
 11
178.84441038918339
 21
178.0
 31
0.0
  0
LINE
  5
7F4
  8
0
 10
175.45095017974589
 20
142.0
 30
0.0
 11
175.45095017974589
 21
178.0
 31
0.0
  0
LINE
  5
7F5
  8
0
 10
150.00000000000011
 20
164.0
 30
0.0
 11
150.00000000000011
 21
178.0
 31
0.0
  0
LINE
  5
7F6
  8
0
 10
154.0
 20
160.0
 30
0.0
 11
150.00000000000011
 21
156.0
 31
0.0
  0
LINE
  5
7F7
  8
0
 10
150.00000000000011
 20
164.0
 30
0.0
 11
154.0
 21
160.0
 31
0.0
  0
ARC
  5
7F8
  8
0
 10
152.00000000000011
 20
142.0
 30
0.0
 40
2.0
 50
180.0
 51
270.0
  0
ARC
  5
7F9
  8
0
 10
152.00000000000011
 20
178.0
 30
0.0
 40
2.0
 50
90.0
 51
180.0
  0
LINE
  5
7FA
  8
0
 10
150.00000000000011
 20
142.0
 30
0.0
 11
150.00000000000011
 21
156.0
 31
0.0
  0
ARC
  5
7FB
  8
0
 10
150.00000000000011
 20
104.0
 30
0.0
 40
30.0
 50
274.1026691858716
 51
328.03428124920327
  0
LINE
  5
7FC
  8
0
 10
150.00000000000011
 20
72.574008891886123
 30
0.0
 11
152.1463173333901
 21
74.076876468116083
 31
0.0
  0
LINE
  5
7FD
  8
0
 10
150.00000000000011
 20
71.574008891886137
 30
0.0
 11
150.00000000000011
 21
72.574008891886123
 31
0.0
  0
LINE
  5
7FE
  8
0
 10
150.00000000000011
 20
68.382672594590758
 30
0.0
 11
150.00000000000011
 21
69.382672594590758
 31
0.0
  0
LINE
  5
7FF
  8
0
 10
150.00000000000011
 20
65.191336297295365
 30
0.0
 11
150.00000000000011
 21
66.191336297295379
 31
0.0
  0
LINE
  5
800
  8
0
 10
152.50000000000011
 20
71.13319144011507
 30
0.0
 11
150.00000000000011
 21
71.574008891886137
 31
0.0
  0
LINE
  5
801
  8
0
 10
150.00000000000011
 20
69.382672594590758
 30
0.0
 11
152.50000000000011
 21
71.13319144011507
 31
0.0
  0
LINE
  5
802
  8
0
 10
152.50000000000011
 20
67.941855142819577
 30
0.0
 11
150.00000000000011
 21
68.382672594590758
 31
0.0
  0
LINE
  5
803
  8
0
 10
152.50000000000011
 20
64.750518845524198
 30
0.0
 11
150.00000000000011
 21
65.191336297295365
 31
0.0
  0
LINE
  5
804
  8
0
 10
150.00000000000011
 20
66.191336297295379
 30
0.0
 11
152.50000000000011
 21
67.941855142819577
 31
0.0
  0
LINE
  5
805
  8
0
 10
150.00000000000011
 20
63.0
 30
0.0
 11
152.50000000000011
 21
64.750518845524198
 31
0.0
  0
ARC
  5
806
  8
0
 10
178.84441020371199
 20
86.0
 30
0.0
 40
4.0
 50
90.0
 51
148.0342812492033
  0
LINE
  5
807
  8
0
 10
150.00000000000011
 20
62.000000000000007
 30
0.0
 11
150.00000000000011
 21
63.0
 31
0.0
  0
LINE
  5
808
  8
1
 10
239.5000000000002
 20
92.5
 30
0.0
 11
239.5000000000002
 21
57.5
 31
0.0
  0
LINE
  5
809
  8
1
 10
269.50000000000023
 20
92.5
 30
0.0
 11
269.50000000000023
 21
57.5
 31
0.0
  0
ARC
  5
80A
  8
0
 10
207.0000000000002
 20
70.0
 30
0.0
 40
5.0
 50
135.00000000000031
 51
270.0
  0
ARC
  5
80B
  8
0
 10
215.0000000000002
 20
78.0
 30
0.0
 40
5.0
 50
90.0
 51
135.00000000000031
  0
ARC
  5
80C
  8
0
 10
271.50000000000023
 20
78.0
 30
0.0
 40
5.0
 50
0.0
 51
90.0
  0
ARC
  5
80D
  8
0
 10
271.50000000000023
 20
70.0
 30
0.0
 40
5.0
 50
270.0
 51
0.0
  0
LINE
  5
80E
  8
0
 10
203.4644660940676
 20
73.535533905932766
 30
0.0
 11
211.46446609406749
 21
81.535533905932766
 31
0.0
  0
LINE
  5
80F
  8
0
 10
207.0000000000002
 20
65.0
 30
0.0
 11
271.50000000000023
 21
65.0
 31
0.0
  0
LINE
  5
810
  8
0
 10
215.0000000000002
 20
83.0
 30
0.0
 11
271.50000000000023
 21
83.0
 31
0.0
  0
LINE
  5
811
  8
0
 10
276.50000000000023
 20
70.0
 30
0.0
 11
276.50000000000023
 21
78.0
 31
0.0
  0
ARC
  5
812
  8
0
 10
215.0000000000002
 20
78.0
 30
0.0
 40
3.0
 50
90.0
 51
135.00000000000031
  0
ARC
  5
813
  8
0
 10
207.0000000000002
 20
70.0
 30
0.0
 40
3.0
 50
135.00000000000031
 51
270.0
  0
LINE
  5
814
  8
0
 10
204.8786796564406
 20
72.12132034355966
 30
0.0
 11
212.8786796564406
 21
80.12132034355966
 31
0.0
  0
ARC
  5
815
  8
0
 10
271.50000000000023
 20
78.0
 30
0.0
 40
3.0
 50
0.0
 51
90.0
  0
LINE
  5
816
  8
0
 10
215.0000000000002
 20
81.0
 30
0.0
 11
271.50000000000023
 21
81.0
 31
0.0
  0
ARC
  5
817
  8
0
 10
271.50000000000023
 20
70.0
 30
0.0
 40
3.0
 50
270.0
 51
0.0
  0
LINE
  5
818
  8
0
 10
274.50000000000023
 20
70.0
 30
0.0
 11
274.50000000000023
 21
78.0
 31
0.0
  0
LINE
  5
819
  8
0
 10
207.0000000000002
 20
67.0
 30
0.0
 11
271.50000000000023
 21
67.0
 31
0.0
  0
LINE
  5
81A
  8
0
 10
196.0000000000002
 20
63.0
 30
0.0
 11
173.0000000000002
 21
63.0
 31
0.0
  0
ARC
  5
81B
  8
0
 10
279.00000000000023
 20
148.0
 30
0.0
 40
8.0
 50
270.0
 51
0.0
  0
ARC
  5
81C
  8
0
 10
279.00000000000023
 20
172.0
 30
0.0
 40
8.0
 50
0.0
 51
90.0
  0
LINE
  5
81D
  8
0
 10
269.50000000000023
 20
147.0
 30
0.0
 11
239.5000000000002
 21
147.0
 31
0.0
  0
LINE
  5
81E
  8
0
 10
248.6651513899119
 20
151.5
 30
0.0
 11
269.50000000000023
 21
151.5
 31
0.0
  0
LINE
  5
81F
  8
0
 10
269.50000000000023
 20
168.5
 30
0.0
 11
248.6651513899119
 21
168.5
 31
0.0
  0
LINE
  5
820
  8
0
 10
239.5000000000002
 20
173.0
 30
0.0
 11
269.50000000000023
 21
173.0
 31
0.0
  0
ARC
  5
821
  8
0
 10
239.5000000000002
 20
160.0
 30
0.0
 40
13.0
 50
90.0
 51
270.0
  0
LINE
  5
822
  8
1
 10
239.5000000000004
 20
175.5
 30
0.0
 11
239.5000000000002
 21
144.5
 31
0.0
  0
ARC
  5
823
  8
0
 10
269.50000000000023
 20
160.0
 30
0.0
 40
8.5
 50
270.0
 51
90.0
  0
ARC
  5
824
  8
0
 10
269.50000000000023
 20
160.0
 30
0.0
 40
13.0
 50
270.0
 51
90.0
  0
LINE
  5
825
  8
1
 10
269.50000000000028
 20
175.5
 30
0.0
 11
269.50000000000023
 21
144.5
 31
0.0
  0
LINE
  5
826
  8
0
 10
211.31370849898499
 20
154.99999999999949
 30
0.0
 11
211.31370849898499
 21
144.99884757729339
 31
0.0
  0
ARC
  5
827
  8
0
 10
216.18053294569441
 20
160.0
 30
0.0
 40
5.9476666690003137
 50
317.9586686270186
 51
42.041331372981453
  0
ARC
  5
828
  8
0
 10
213.0254574591921
 20
157.15503342730659
 30
0.0
 40
10.19600000400003
 50
42.041331372981453
 51
70.380728855672089
  0
ARC
  5
829
  8
0
 10
211.3137101195955
 20
152.3529999970001
 30
0.0
 40
15.29400000599985
 50
70.380728855672089
 51
90.000012142557793
  0
ARC
  5
82A
  8
0
 10
211.3137101195955
 20
167.64700000299979
 30
0.0
 40
15.29400000599985
 50
269.99998785744219
 51
289.61927114432791
  0
ARC
  5
82B
  8
0
 10
213.0254574591921
 20
162.84496657269321
 30
0.0
 40
10.19600000400003
 50
289.61927114432791
 51
317.95866862701848
  0
ARC
  5
82C
  8
3
 10
217.0416305603425
 20
160.0
 30
0.0
 40
7.0000000000003686
 50
317.9586686270186
 51
42.041331372981453
  0
ARC
  5
82D
  8
3
 10
213.3283208483796
 20
156.65166743243159
 30
0.0
 40
12.00000000000003
 50
42.041331372981453
 51
70.380728855672089
  0
ARC
  5
82E
  8
3
 10
211.3137104063336
 20
151.0000000000002
 30
0.0
 40
17.999999999999829
 50
70.380728855672089
 51
90.000012142557793
  0
ARC
  5
82F
  8
3
 10
211.3137104063336
 20
168.99999999999969
 30
0.0
 40
17.999999999999829
 50
269.99998785744219
 51
289.61927114432791
  0
ARC
  5
830
  8
3
 10
213.3283208483796
 20
163.34833256756829
 30
0.0
 40
12.00000000000003
 50
289.61927114432791
 51
317.95866862701848
  0
LINE
  5
831
  8
0
 10
200.0000000000002
 20
170.3823502691896
 30
0.0
 11
200.0000000000002
 21
180.0
 31
0.0
  0
LINE
  5
832
  8
0
 10
211.31370849898499
 20
144.99884757729339
 30
0.0
 11
200.0000000000002
 21
149.61764973081051
 31
0.0
  0
LINE
  5
833
  8
0
 10
211.31370849898499
 20
175.00115242270661
 30
0.0
 11
211.31370849898499
 21
165.00000000000031
 31
0.0
  0
LINE
  5
834
  8
0
 10
200.0000000000002
 20
170.3823502691896
 30
0.0
 11
211.31370849898499
 21
175.00115242270661
 31
0.0
  0
LINE
  5
836
  8
0
 10
172.0000000000002
 20
62.000000000000007
 30
0.0
 11
200.0000000000002
 21
90.0
 31
0.0
  0
LINE
  5
837
  8
0
 10
150.00000000000011
 20
62.000000000000007
 30
0.0
 11
287.00000000000023
 21
62.000000000000007
 31
0.0
  0
ARC
  5
838
  8
0
 10
283.00000000000023
 20
86.0
 30
0.0
 40
4.0
 50
0.0
 51
90.0
  0
ARC
  5
839
  8
0
 10
64.0
 20
86.0
 30
0.0
 40
4.0
 50
90.0
 51
180.0
  0
LINE
  5
83A
  8
0
 10
60.0
 20
62.000000000000007
 30
0.0
 11
61.154700538379188
 21
60.0
 31
0.0
  0
LINE
  5
83B
  8
0
 10
60.0
 20
62.000000000000007
 30
0.0
 11
60.0
 21
86.0
 31
0.0
  0
LINE
  5
83C
  8
0
 10
61.0
 20
62.000000000000007
 30
0.0
 11
60.0
 21
63.0
 31
0.0
  0
LINE
  5
83D
  8
0
 10
99.0
 20
62.000000000000007
 30
0.0
 11
100.0
 21
63.0
 31
0.0
  0
LINE
  5
83E
  8
0
 10
100.0
 20
62.000000000000007
 30
0.0
 11
98.845299461620698
 21
60.0
 31
0.0
  0
LINE
  5
83F
  8
0
 10
61.0
 20
62.000000000000007
 30
0.0
 11
99.0
 21
62.000000000000007
 31
0.0
  0
ARC
  5
840
  8
0
 10
96.0
 20
86.0
 30
0.0
 40
4.0
 50
0.0
 51
90.0
  0
LINE
  5
841
  8
0
 10
283.00000000000023
 20
90.0
 30
0.0
 11
178.84441020371199
 21
90.0
 31
0.0
  0
LINE
  5
842
  8
0
 10
287.00000000000023
 20
62.000000000000007
 30
0.0
 11
287.00000000000023
 21
86.0
 31
0.0
  0
LINE
  5
843
  8
0
 10
200.0000000000002
 20
140.0
 30
0.0
 11
200.0000000000002
 21
149.61764973081051
 31
0.0
  0
LINE
  5
844
  8
0
 10
279.00000000000023
 20
140.0
 30
0.0
 11
152.00000000000011
 21
140.0
 31
0.0
  0
LINE
  5
845
  8
0
 10
287.00000000000023
 20
172.0
 30
0.0
 11
287.00000000000023
 21
148.0
 31
0.0
  0
LINE
  5
846
  8
0
 10
152.00000000000011
 20
180.0
 30
0.0
 11
279.00000000000023
 21
180.0
 31
0.0
  0
LINE
  5
847
  8
1
 10
145.00000000000011
 20
160.0
 30
0.0
 11
292.00000000000023
 21
160.0
 31
0.0
  0
LINE
  5
848
  8
0
 10
96.0
 20
90.0
 30
0.0
 11
64.0
 21
90.0
 31
0.0
  0
LINE
  5
849
  8
0
 10
100.0
 20
62.000000000000007
 30
0.0
 11
100.0
 21
86.0
 31
0.0
  0
LINE
  5
84A
  8
0
 10
61.154700538379188
 20
60.0
 30
0.0
 11
98.845299461620698
 21
60.0
 31
0.0
  0
LINE
  5
84B
  8
1
 10
80.0
 20
55.0
 30
0.0
 11
80.0
 21
95.0
 31
0.0
  0
CIRCLE
  5
84C
  8
0
 10
239.5000000000002
 20
160.0
 30
0.0
 40
8.5
  0
CIRCLE
  5
863
  8
0
 10
239.5000000000002
 20
160.0
 30
0.0
 40
12.5
  0
POLYLINE
  5
A3B
  8
3
 66
     1
 10
0.0
 20
0.0
 30
0.0
 70
     1
1001
ACAD
1000
ASC_BOUNDS
1002
{
1070
    19
1005
A3A
1002
}
  0
VERTEX
  5
C1A
  8
3
 10
261.15196609406757
 20
74.0
 30
0.0
 42
1.0
  0
VERTEX
  5
C1B
  8
3
 10
263.77696609406757
 20
74.0
 30
0.0
 42
1.0
  0
SEQEND
  5
C1C
  8
3
  0
POLYLINE
  5
A3C
  8
3
 66
     1
 10
0.0
 20
0.0
 30
0.0
 70
     1
1001
ACAD
1000
ASC_BOUNDS
1002
{
1070
    19
1005
A3A
1002
}
  0
VERTEX
  5
C1D
  8
3
 10
265.96446609406752
 20
74.0
 30
0.0
 42
1.0
  0
VERTEX
  5
C1E
  8
3
 10
258.96446609406757
 20
74.0
 30
0.0
 42
1.0
  0
SEQEND
  5
C1F
  8
3
  0
POLYLINE
  5
A3D
  8
3
 66
     1
 10
0.0
 20
0.0
 30
0.0
 70
     1
1001
ACAD
1000
ASC_BOUNDS
1002
{
1070
    19
1005
A3A
1002
}
  0
VERTEX
  5
C20
  8
3
 10
232.99363276073399
 20
76.352655075262732
 30
0.0
  0
VERTEX
  5
C21
  8
3
 10
232.99363276073399
 20
77.647344924736274
 30
0.0
 42
0.1238822414942591
  0
VERTEX
  5
C22
  8
3
 10
231.320987006021
 20
76.999999999999517
 30
0.0
 42
0.1238822414942589
  0
SEQEND
  5
C23
  8
3
  0
POLYLINE
  5
A3E
  8
3
 66
     1
 10
0.0
 20
0.0
 30
0.0
 70
     1
1001
ACAD
1000
ASC_BOUNDS
1002
{
1070
    19
1005
A3A
1002
}
  0
VERTEX
  5
C24
  8
3
 10
235.56627851544769
 20
76.999999999999517
 30
0.0
 42
0.1238822414942568
  0
VERTEX
  5
C25
  8
3
 10
233.8936327607347
 20
77.647344924736274
 30
0.0
  0
VERTEX
  5
C26
  8
3
 10
233.8936327607347
 20
76.352655075262788
 30
0.0
 42
0.1238822414942573
  0
SEQEND
  5
C27
  8
3
  0
POLYLINE
  5
A3F
  8
3
 66
     1
 10
0.0
 20
0.0
 30
0.0
 70
     1
1001
ACAD
1000
ASC_BOUNDS
1002
{
1070
    19
1005
A3A
1002
}
  0
VERTEX
  5
C28
  8
3
 10
232.99363276073399
 20
73.181846591395271
 30
0.0
 42
-0.0420571628960909
  0
VERTEX
  5
C29
  8
3
 10
232.79432935474429
 20
72.452909732632975
 30
0.0
 42
-0.0111573747896638
  0
VERTEX
  5
C2A
  8
3
 10
232.99363276073399
 20
72.477443466980617
 30
0.0
  0
SEQEND
  5
C2B
  8
3
  0
POLYLINE
  5
A40
  8
3
 66
     1
 10
0.0
 20
0.0
 30
0.0
 70
     1
1001
ACAD
1000
ASC_BOUNDS
1002
{
1070
    19
1005
A3A
1002
}
  0
VERTEX
  5
C2C
  8
3
 10
233.8936327607347
 20
73.549999999999642
 30
0.0
  0
VERTEX
  5
C2D
  8
3
 10
233.8936327607347
 20
72.477443466980617
 30
0.0
 42
-0.1402251973297237
  0
VERTEX
  5
C2E
  8
3
 10
236.19352973590011
 20
71.562031250000501
 30
0.0
 42
0.1517967807321737
  0
VERTEX
  5
C2F
  8
3
 10
237.09097768547059
 20
73.549999999999642
 30
0.0
  0
SEQEND
  5
C30
  8
3
  0
POLYLINE
  5
A41
  8
3
 66
     1
 10
0.0
 20
0.0
 30
0.0
 70
     1
1001
ACAD
1000
ASC_BOUNDS
1002
{
1070
    19
1005
A3A
1002
}
  0
VERTEX
  5
C31
  8
3
 10
237.09097768547059
 20
74.45000000000033
 30
0.0
 42
0.1517967807321736
  0
VERTEX
  5
C32
  8
3
 10
236.19352973590011
 20
76.437968749999484
 30
0.0
 42
-0.1402251973297237
  0
VERTEX
  5
C33
  8
3
 10
233.8936327607347
 20
75.522556533019298
 30
0.0
  0
VERTEX
  5
C34
  8
3
 10
233.8936327607347
 20
74.45000000000033
 30
0.0
  0
SEQEND
  5
C35
  8
3
  0
POLYLINE
  5
A42
  8
3
 66
     1
 10
0.0
 20
0.0
 30
0.0
 70
     1
1001
ACAD
1000
ASC_BOUNDS
1002
{
1070
    19
1005
A3A
1002
}
  0
VERTEX
  5
C36
  8
3
 10
244.5269660940676
 20
70.5
 30
0.0
  0
VERTEX
  5
C37
  8
3
 10
244.5269660940676
 20
74.65625
 30
0.0
 42
-1.0
  0
VERTEX
  5
C38
  8
3
 10
245.8394660940676
 20
74.65625
 30
0.0
  0
VERTEX
  5
C39
  8
3
 10
245.8394660940676
 20
70.5
 30
0.0
  0
VERTEX
  5
C3A
  8
3
 10
248.0269660940676
 20
70.5
 30
0.0
  0
VERTEX
  5
C3B
  8
3
 10
248.0269660940676
 20
74.65625
 30
0.0
 42
-1.0
  0
VERTEX
  5
C3C
  8
3
 10
249.3394660940676
 20
74.65625
 30
0.0
  0
VERTEX
  5
C3D
  8
3
 10
249.3394660940676
 20
70.5
 30
0.0
  0
VERTEX
  5
C3E
  8
3
 10
251.5269660940676
 20
70.5
 30
0.0
  0
VERTEX
  5
C3F
  8
3
 10
251.5269660940676
 20
74.65625
 30
0.0
 42
0.6247472440541069
  0
VERTEX
  5
C40
  8
3
 10
246.9332160940676
 20
76.897770480053623
 30
0.0
 42
0.6247472440541069
  0
VERTEX
  5
C41
  8
3
 10
242.3394660940676
 20
74.65625
 30
0.0
  0
VERTEX
  5
C42
  8
3
 10
242.3394660940676
 20
70.5
 30
0.0
  0
SEQEND
  5
C43
  8
3
  0
POLYLINE
  5
A43
  8
3
 66
     1
 10
0.0
 20
0.0
 30
0.0
 70
     1
1001
ACAD
1000
ASC_BOUNDS
1002
{
1070
    19
1005
A3A
1002
}
  0
VERTEX
  5
C44
  8
3
 10
232.99363276073399
 20
71.647344924737183
 30
0.0
 42
0.0479752760773671
  0
VERTEX
  5
C45
  8
3
 10
232.30676553936371
 20
71.494732882636299
 30
0.0
 42
-0.0528997705207019
  0
VERTEX
  5
C46
  8
3
 10
231.6978635299657
 20
70.766130059371363
 30
0.0
 42
0.0933324906988985
  0
VERTEX
  5
C47
  8
3
 10
232.99363276073399
 20
70.352655075263698
 30
0.0
  0
SEQEND
  5
C48
  8
3
  0
POLYLINE
  5
A44
  8
3
 66
     1
 10
0.0
 20
0.0
 30
0.0
 70
     1
1001
ACAD
1000
ASC_BOUNDS
1002
{
1070
    19
1005
A3A
1002
}
  0
VERTEX
  5
C49
  8
3
 10
233.8936327607347
 20
71.647344924737183
 30
0.0
  0
VERTEX
  5
C4A
  8
3
 10
233.8936327607347
 20
70.352655075263698
 30
0.0
 42
0.1238822414942567
  0
VERTEX
  5
C4B
  8
3
 10
235.56627851544769
 20
71.000000000000398
 30
0.0
 42
0.1238822414942571
  0
SEQEND
  5
C4C
  8
3
  0
POLYLINE
  5
A45
  8
3
 66
     1
 10
0.0
 20
0.0
 30
0.0
 70
     1
1001
ACAD
1000
ASC_BOUNDS
1002
{
1070
    19
1005
A3A
1002
}
  0
VERTEX
  5
C4D
  8
3
 10
241.4644660940676
 20
77.5
 30
0.0
  0
VERTEX
  5
C4E
  8
3
 10
239.2769660940676
 20
77.5
 30
0.0
  0
VERTEX
  5
C4F
  8
3
 10
239.2769660940676
 20
70.5
 30
0.0
  0
VERTEX
  5
C50
  8
3
 10
241.4644660940676
 20
70.5
 30
0.0
  0
SEQEND
  5
C51
  8
3
  0
POLYLINE
  5
A46
  8
3
 66
     1
 10
0.0
 20
0.0
 30
0.0
 70
     1
1001
ACAD
1000
ASC_BOUNDS
1002
{
1070
    19
1005
A3A
1002
}
  0
VERTEX
  5
C52
  8
3
 10
254.5894660940676
 20
72.031249999999915
 30
0.0
  0
VERTEX
  5
C53
  8
3
 10
255.9019660940676
 20
72.03125
 30
0.0
  0
VERTEX
  5
C54
  8
3
 10
255.9019660940676
 20
70.5
 30
0.0
  0
VERTEX
  5
C55
  8
3
 10
258.08946609406757
 20
70.5
 30
0.0
  0
VERTEX
  5
C56
  8
3
 10
258.08946609406757
 20
74.65625
 30
0.0
 42
1.000000215936474
  0
VERTEX
  5
C57
  8
3
 10
252.4019660940676
 20
74.65625
 30
0.0
  0
VERTEX
  5
C58
  8
3
 10
252.4019660940676
 20
70.5
 30
0.0
  0
VERTEX
  5
C59
  8
3
 10
254.5894660940676
 20
70.499999999999915
 30
0.0
  0
SEQEND
  5
C5A
  8
3
  0
POLYLINE
  5
A47
  8
3
 66
     1
 10
0.0
 20
0.0
 30
0.0
 70
     1
1001
ACAD
1000
ASC_BOUNDS
1002
{
1070
    19
1005
A3A
1002
}
  0
VERTEX
  5
C5B
  8
3
 10
255.9019660940676
 20
73.78125
 30
0.0
  0
VERTEX
  5
C5C
  8
3
 10
255.9019660940676
 20
74.65625
 30
0.0
 42
1.0000004495664849
  0
VERTEX
  5
C5D
  8
3
 10
254.5894660940676
 20
74.65625
 30
0.0
  0
VERTEX
  5
C5E
  8
3
 10
254.5894660940676
 20
73.78125
 30
0.0
  0
SEQEND
  5
C5F
  8
3
  0
POLYLINE
  5
A48
  8
3
 66
     1
 10
0.0
 20
0.0
 30
0.0
 70
     1
1001
ACAD
1000
ASC_BOUNDS
1002
{
1070
    19
1005
A3A
1002
}
  0
VERTEX
  5
C60
  8
3
 10
230.69373578556861
 20
76.437968749999413
 30
0.0
 42
0.1402251973297244
  0
VERTEX
  5
C61
  8
3
 10
232.99363276073399
 20
75.522556533019298
 30
0.0
  0
VERTEX
  5
C62
  8
3
 10
232.99363276073399
 20
74.45000000000033
 30
0.0
  0
VERTEX
  5
C63
  8
3
 10
232.24363276073481
 20
74.45000000000033
 30
0.0
  0
VERTEX
  5
C64
  8
3
 10
232.24363276073481
 20
74.0
 30
0.0
 42
-0.378699158263169
  0
VERTEX
  5
C65
  8
3
 10
229.01863276073561
 20
70.352655075263698
 30
0.0
  0
VERTEX
  5
C66
  8
3
 10
229.01863276073561
 20
69.522556533020207
 30
0.0
 42
0.1186144156091118
  0
VERTEX
  5
C67
  8
3
 10
231.00613276073491
 20
70.21732981215618
 30
0.0
 42
1.834021909257185
  0
VERTEX
  5
C68
  8
3
 10
231.00613276073491
 20
77.782670187843792
 30
0.0
 42
1.26915442618927
  0
VERTEX
  5
C69
  8
3
 10
228.11863276073501
 20
69.522556533020207
 30
0.0
  0
VERTEX
  5
C6A
  8
3
 10
228.11863276073501
 20
70.352655075263698
 30
0.0
 42
-0.3786991582631508
  0
VERTEX
  5
C6B
  8
3
 10
224.8936327607357
 20
73.999999999999716
 30
0.0
  0
VERTEX
  5
C6C
  8
3
 10
224.8936327607357
 20
74.45000000000033
 30
0.0
  0
VERTEX
  5
C6D
  8
3
 10
225.71863276073509
 20
74.45000000000033
 30
0.0
  0
VERTEX
  5
C6E
  8
3
 10
225.71863276073509
 20
74.000000000000185
 30
0.0
 42
0.3684995607863874
  0
VERTEX
  5
C6F
  8
3
 10
228.11863276073501
 20
71.185750544105943
 30
0.0
  0
VERTEX
  5
C70
  8
3
 10
228.11863276073501
 20
72.025633012836806
 30
0.0
 42
-0.3500011104183812
  0
VERTEX
  5
C71
  8
3
 10
226.5436327607361
 20
74.0
 30
0.0
  0
VERTEX
  5
C72
  8
3
 10
226.5436327607361
 20
74.45000000000033
 30
0.0
  0
VERTEX
  5
C73
  8
3
 10
227.36863276073569
 20
74.45000000000033
 30
0.0
  0
VERTEX
  5
C74
  8
3
 10
227.36863276073569
 20
73.999999999999915
 30
0.0
 42
0.9999989916437579
  0
VERTEX
  5
C75
  8
3
 10
229.7686327607345
 20
73.999999165053893
 30
0.0
 42
-0.1833501526628178
  0
SEQEND
  5
C76
  8
3
  0
POLYLINE
  5
A49
  8
3
 66
     1
 10
0.0
 20
0.0
 30
0.0
 70
     1
1001
ACAD
1000
ASC_BOUNDS
1002
{
1070
    19
1005
A3A
1002
}
  0
VERTEX
  5
C77
  8
3
 10
231.41863276073559
 20
74.0
 30
0.0
  0
VERTEX
  5
C78
  8
3
 10
231.41863276073559
 20
74.45000000000033
 30
0.0
  0
VERTEX
  5
C79
  8
3
 10
230.59363276073441
 20
74.45000000000033
 30
0.0
  0
VERTEX
  5
C7A
  8
3
 10
230.59363276073441
 20
74.0
 30
0.0
 42
-0.3500011104183828
  0
VERTEX
  5
C7B
  8
3
 10
229.01863276073561
 20
72.025633012836806
 30
0.0
  0
VERTEX
  5
C7C
  8
3
 10
229.01863276073561
 20
71.185750544105943
 30
0.0
 42
0.3684995607863695
  0
SEQEND
  5
C7D
  8
3
  0
LINE
  5
B53
  8
2
 10
282.50000000000023
 20
90.0
 30
0.0
 11
282.50000000000023
 21
73.0
 31
0.0
  0
LINE
  5
B54
  8
2
 10
278.00000000000023
 20
60.133012701892348
 30
0.0
 11
278.00000000000023
 21
73.0
 31
0.0
  0
LINE
  5
B55
  8
2
 10
252.0000000000002
 20
73.5
 30
0.0
 11
252.0000000000002
 21
76.5
 31
0.0
  0
LINE
  5
B56
  8
2
 10
227.0000000000002
 20
73.500000000000028
 30
0.0
 11
227.0000000000002
 21
76.5
 31
0.0
  0
LINE
  5
B57
  8
2
 10
226.5000000000002
 20
90.0
 30
0.0
 11
226.5000000000002
 21
73.0
 31
0.0
  0
LINE
  5
B59
  8
2
 10
231.0000000000002
 20
60.133012701892163
 30
0.0
 11
231.0000000000002
 21
73.0
 31
0.0
  0
LINE
  5
B7B
  8
2
 10
282.50000000000023
 20
73.0
 30
0.0
 11
226.5000000000002
 21
73.0
 31
0.0
  0
LINE
  5
B82
  8
2
 10
251.5000000000002
 20
77.0
 30
0.0
 11
227.5000000000002
 21
77.0
 31
0.0
  0
LINE
  5
B83
  8
2
 10
227.0000000000002
 20
76.5
 30
0.0
 11
227.5000000000002
 21
77.0
 31
0.0
  0
LINE
  5
B84
  8
2
 10
251.5000000000002
 20
77.0
 30
0.0
 11
252.0000000000002
 21
76.5
 31
0.0
  0
LINE
  5
B85
  8
2
 10
251.5000000000002
 20
73.0
 30
0.0
 11
252.0000000000002
 21
73.5
 31
0.0
  0
LINE
  5
B86
  8
2
 10
227.0000000000002
 20
73.5
 30
0.0
 11
227.5000000000002
 21
73.0
 31
0.0
  0
ENDSEC
  0
EOF
