  0
SECTION
  2
HEADER
  9
$ACADVER
  1
AC1009
  9
$INSBASE
 10
0.0
 20
0.0
 30
0.0
  9
$EXTMIN
 10
0.0
 20
-2.960436562073669
 30
0.0
  9
$EXTMAX
 10
587.50000000000114
 20
407.5
 30
0.0
  9
$LIMMIN
 10
0.0
 20
0.0
  9
$LIMMAX
 10
750.0
 20
540.0
  9
$ORTHOMODE
 70
     1
  9
$REGENMODE
 70
     1
  9
$FILLMODE
 70
     1
  9
$QTEXTMODE
 70
     0
  9
$MIRRTEXT
 70
     0
  9
$DRAGMODE
 70
     2
  9
$LTSCALE
 40
20.0
  9
$OSMODE
 70
  3071
  9
$ATTMODE
 70
     1
  9
$TEXTSIZE
 40
0.2
  9
$TRACEWID
 40
0.05
  9
$TEXTSTYLE
  7
STANDARD
  9
$CLAYER
  8
0
  9
$CELTYPE
  6
BYLAYER
  9
$CECOLOR
 62
   256
  9
$DIMSCALE
 40
2.0
  9
$DIMASZ
 40
3.0
  9
$DIMEXO
 40
2.0
  9
$DIMDLI
 40
0.38
  9
$DIMRND
 40
0.0
  9
$DIMDLE
 40
0.0
  9
$DIMEXE
 40
2.0
  9
$DIMTP
 40
0.0
  9
$DIMTM
 40
0.0
  9
$DIMTXT
 40
3.2000000000000002
  9
$DIMCEN
 40
0.0
  9
$DIMTSZ
 40
0.0
  9
$DIMTOL
 70
     0
  9
$DIMLIM
 70
     0
  9
$DIMTIH
 70
     0
  9
$DIMTOH
 70
     0
  9
$DIMSE1
 70
     0
  9
$DIMSE2
 70
     0
  9
$DIMTAD
 70
     1
  9
$DIMZIN
 70
     0
  9
$DIMBLK
  1

  9
$DIMASO
 70
     0
  9
$DIMSHO
 70
     0
  9
$DIMPOST
  1

  9
$DIMAPOST
  1

  9
$DIMALT
 70
     0
  9
$DIMALTD
 70
     2
  9
$DIMALTF
 40
25.399999999999999
  9
$DIMLFAC
 40
1.0
  9
$DIMTOFL
 70
     1
  9
$DIMTVP
 40
1.6000000000000001
  9
$DIMTIX
 70
     1
  9
$DIMSOXD
 70
     0
  9
$DIMSAH
 70
     0
  9
$DIMBLK1
  1

  9
$DIMBLK2
  1

  9
$DIMSTYLE
  2
STANDARD
  9
$DIMCLRD
 70
     0
  9
$DIMCLRE
 70
     0
  9
$DIMCLRT
 70
     0
  9
$DIMTFAC
 40
1.0
  9
$DIMGAP
 40
0.09
  9
$LUNITS
 70
     2
  9
$LUPREC
 70
     4
  9
$SKETCHINC
 40
0.1
  9
$FILLETRAD
 40
0.0
  9
$AUNITS
 70
     0
  9
$AUPREC
 70
     4
  9
$MENU
  1
E:\r13\win\SUPPORT\ACAD
  9
$ELEVATION
 40
0.0
  9
$PELEVATION
 40
0.0
  9
$THICKNESS
 40
0.0
  9
$LIMCHECK
 70
     0
  9
$BLIPMODE
 70
     0
  9
$CHAMFERA
 40
0.0
  9
$CHAMFERB
 40
0.0
  9
$SKPOLY
 70
     0
  9
$TDCREATE
 40
2449839.6324305562
  9
$TDUPDATE
 40
2456597.61976007
  9
$TDINDWG
 40
0.0001112847
  9
$TDUSRTIMER
 40
0.0001112847
  9
$USRTIMER
 70
     1
  9
$ANGBASE
 50
0.0
  9
$ANGDIR
 70
     0
  9
$PDMODE
 70
     0
  9
$PDSIZE
 40
0.0
  9
$PLINEWID
 40
0.0
  9
$COORDS
 70
     1
  9
$SPLFRAME
 70
     0
  9
$SPLINETYPE
 70
     6
  9
$SPLINESEGS
 70
     8
  9
$ATTDIA
 70
     0
  9
$ATTREQ
 70
     1
  9
$HANDLING
 70
     1
  9
$HANDSEED
  5
5FC
  9
$SURFTAB1
 70
     6
  9
$SURFTAB2
 70
     6
  9
$SURFTYPE
 70
     6
  9
$SURFU
 70
     6
  9
$SURFV
 70
     6
  9
$UCSNAME
  2

  9
$UCSORG
 10
0.0
 20
0.0
 30
0.0
  9
$UCSXDIR
 10
1.0
 20
0.0
 30
0.0
  9
$UCSYDIR
 10
0.0
 20
1.0
 30
0.0
  9
$PUCSNAME
  2

  9
$PUCSORG
 10
0.0
 20
0.0
 30
0.0
  9
$PUCSXDIR
 10
1.0
 20
0.0
 30
0.0
  9
$PUCSYDIR
 10
0.0
 20
1.0
 30
0.0
  9
$USERI1
 70
     0
  9
$USERI2
 70
     1
  9
$USERI3
 70
     0
  9
$USERI4
 70
     0
  9
$USERI5
 70
     0
  9
$USERR1
 40
0.0
  9
$USERR2
 40
0.0
  9
$USERR3
 40
0.0
  9
$USERR4
 40
0.0
  9
$USERR5
 40
0.0
  9
$WORLDVIEW
 70
     1
  9
$SHADEDGE
 70
     3
  9
$SHADEDIF
 70
    70
  9
$TILEMODE
 70
     1
  9
$MAXACTVP
 70
    16
  9
$PLIMCHECK
 70
     0
  9
$PEXTMIN
 10
1.0000000000000000E+020
 20
1.0000000000000000E+020
 30
1.0000000000000000E+020
  9
$PEXTMAX
 10
-1.0000000000000000E+020
 20
-1.0000000000000000E+020
 30
-1.0000000000000000E+020
  9
$PLIMMIN
 10
0.0
 20
0.0
  9
$PLIMMAX
 10
12.0
 20
9.0
  9
$UNITMODE
 70
     0
  9
$VISRETAIN
 70
     0
  9
$PLINEGEN
 70
     0
  9
$PSLTSCALE
 70
     0
  0
ENDSEC
  0
SECTION
  2
TABLES
  0
TABLE
  2
VPORT
 70
     1
  0
VPORT
  2
*ACTIVE
 70
     0
 10
0.0
 20
0.0
 11
1.0
 21
1.0
 12
390.03402345615979
 22
268.50860658393782
 13
0.0
 23
0.0
 14
20.0
 24
20.0
 15
20.0
 25
20.0
 16
0.0
 26
0.0
 36
1.0
 17
0.0
 27
0.0
 37
0.0
 40
547.85258761088789
 41
1.831871345029239
 42
50.0
 43
0.0
 44
0.0
 50
0.0
 51
0.0
 71
     0
 72
   500
 73
     1
 74
     0
 75
     0
 76
     0
 77
     0
 78
     2
  0
ENDTAB
  0
TABLE
  2
LTYPE
 70
     3
  0
LTYPE
  2
CONTINUOUS
 70
     0
  3
Solid Line
 72
    65
 73
     0
 40
0.0
  0
LTYPE
  2
CENTER
 70
     0
  3
____ _ ____ _ ____ _ ____ _ ____ _ ____ _ ____
 72
    65
 73
     4
 40
2.0
 49
1.25
 49
-0.25
 49
0.25
 49
-0.25
  0
LTYPE
  2
PHANTOM2
 70
     0
  3
___ _ _ ___ _ _ ___ _ _ ___ _ _
 72
    65
 73
     6
 40
1.25
 49
0.625
 49
-0.125
 49
0.125
 49
-0.125
 49
0.125
 49
-0.125
  0
ENDTAB
  0
TABLE
  2
LAYER
 70
     3
  0
LAYER
  2
0
 70
     0
 62
     7
  6
CONTINUOUS
  0
LAYER
  2
1
 70
     0
 62
     1
  6
CENTER
  0
LAYER
  2
3
 70
     0
 62
     3
  6
CONTINUOUS
  0
ENDTAB
  0
TABLE
  2
STYLE
 70
     2
  0
STYLE
  2
STANDARD
 70
     0
 40
0.0
 41
1.0
 50
0.0
 71
     0
 42
0.2
  3
TXT
  4
BIGFONT
  0
STYLE
  2
STANDARD1
 70
     0
 40
0.0
 41
1.0
 50
0.0
 71
     0
 42
3.0
  3
txt
  4

  0
ENDTAB
  0
TABLE
  2
VIEW
 70
     1
  0
VIEW
  2
ALL
 70
     0
 40
540.0
 10
441.98319327731087
 20
270.0
 41
0.0
 11
0.0
 21
0.0
 31
1.0
 12
0.0
 22
0.0
 32
0.0
 42
0.0
 43
0.0
 44
0.0
 50
0.0
 71
     0
  0
ENDTAB
  0
TABLE
  2
UCS
 70
     0
  0
ENDTAB
  0
TABLE
  2
APPID
 70
     3
  0
APPID
  2
ACAD
 70
     0
  0
APPID
  2
ACAD_MLEADERVER
 70
     0
  0
APPID
  2
ACAD_NAV_VCDISPLAY
 70
     0
  0
ENDTAB
  0
TABLE
  2
DIMSTYLE
 70
     1
  0
DIMSTYLE
  2
STANDARD
 70
     0
  3

  4

  5

  6

  7

 40
1.0
 41
0.18
 42
0.0625
 43
0.38
 44
0.18
 45
0.0
 46
0.0
 47
0.0
 48
0.0
140
0.18
141
0.09
142
0.0
143
25.399999999999999
144
1.0
145
0.0
146
1.0
147
0.09
 71
     0
 72
     0
 73
     1
 74
     1
 75
     0
 76
     0
 77
     0
 78
     0
170
     0
171
     2
172
     0
173
     0
174
     0
175
     0
176
     0
177
     0
178
     0
  0
ENDTAB
  0
ENDSEC
  0
SECTION
  2
BLOCKS
  0
BLOCK
  8
0
  2
$MODEL_SPACE
 70
     0
 10
0.0
 20
0.0
 30
0.0
  3
$MODEL_SPACE
  1

  0
ENDBLK
  5
4B2
  8
0
  0
BLOCK
 67
     1
  8
0
  2
$PAPER_SPACE
 70
     0
 10
0.0
 20
0.0
 30
0.0
  3
$PAPER_SPACE
  1

  0
ENDBLK
  5
4B0
 67
     1
  8
0
  0
BLOCK
  8
0
  2
CEN
 70
     0
 10
178.7876324705091
 20
235.74381621243819
 30
0.0
  3
CEN
  1

  0
LINE
  5
28C
  8
1
 10
178.7876324705091
 20
236.24381621243819
 30
0.0
 11
178.7876324705091
 21
235.2438162124383
 31
0.0
  0
LINE
  5
28D
  8
1
 10
179.2876324705091
 20
235.74381621243819
 30
0.0
 11
178.2876324705091
 21
235.74381621243819
 31
0.0
  0
ENDBLK
  5
28E
  8
0
  0
BLOCK
  8
0
  2
112D50A1
 70
     0
 10
600.00000000000023
 20
334.26258992805771
 30
0.0
  3
112D50A1
  1

  0
INSERT
  5
290
  8
0
  2
112D50AB
 10
600.00000000000023
 20
334.26258992805771
 30
0.0
  0
INSERT
  5
291
  8
0
  2
112D50AA
 10
584.49999999999955
 20
359.26258992805731
 30
0.0
  0
ENDBLK
  5
292
  8
0
  0
BLOCK
  8
0
  2
112D50A2
 70
     0
 10
1437.461946980934
 20
1425.0000053947961
 30
0.0
  3
112D50A2
  1

  0
LINE
  5
294
  8
0
 10
1358.370201941515
 20
1413.000005394797
 30
0.0
 11
1337.8424771717589
 21
1413.000005394797
 31
0.0
  0
LINE
  5
295
  8
0
 10
1358.370201941515
 20
1437.000005394797
 30
0.0
 11
1337.8424771717589
 21
1437.000005394797
 31
0.0
  0
LINE
  5
296
  8
0
 10
1358.370201941515
 20
1413.000005394797
 30
0.0
 11
1358.9740352701299
 21
1425.000005394797
 31
0.0
  0
LINE
  5
297
  8
0
 10
1358.9740352701299
 20
1425.000005394797
 30
0.0
 11
1358.370201941515
 21
1437.000005394797
 31
0.0
  0
POLYLINE
  5
298
  8
0
 66
     1
 10
0.0
 20
0.0
 30
0.0
 70
     1
  0
VERTEX
  5
299
  8
0
 10
1337.8424771717589
 20
1413.000005394797
 30
0.0
 42
0.357064890489134
  0
VERTEX
  5
29A
  8
0
 10
1338.0793110549159
 20
1413.1938497787739
 30
0.0
 42
0.0289196400266042
  0
VERTEX
  5
29B
  8
0
 10
1338.5512039639959
 20
1416.5147240205581
 30
0.0
 42
0.012187540217324
 70
     2
 50
85.225495004005467
  0
VERTEX
  5
29C
  8
0
 10
1338.79183312792
 20
1420.5914318763039
 30
0.0
 42
0.0112886581283108
 50
85.225495004005467
  0
VERTEX
  5
29D
  8
0
 10
1338.8447682133569
 20
1425.000005394797
 30
0.0
 42
0.0086459866706011
  0
VERTEX
  5
29E
  8
0
 10
1338.7588728753531
 20
1429.9669872058539
 30
0.0
 42
0.0121875402172976
  0
VERTEX
  5
29F
  8
0
 10
1338.5512039639959
 20
1433.4852867690361
 30
0.0
 42
0.0289196400266004
 70
     2
 50
94.774504995994008
  0
VERTEX
  5
2A0
  8
0
 10
1338.0793110549159
 20
1436.8061610108191
 30
0.0
 42
0.3570648904890971
 50
94.774504995994008
  0
VERTEX
  5
2A1
  8
0
 10
1337.8424771717589
 20
1437.000005394797
 30
0.0
 42
0.3570648904890484
  0
VERTEX
  5
2A2
  8
0
 10
1337.605643288603
 20
1436.8061610108191
 30
0.0
 42
0.0289196400265911
  0
VERTEX
  5
2A3
  8
0
 10
1337.133750379523
 20
1433.4852867690361
 30
0.0
 42
0.0121875402173174
 70
     2
 50
265.2254950040055
  0
VERTEX
  5
2A4
  8
0
 10
1336.9260814681661
 20
1429.9669872058521
 30
0.0
 42
0.0086459866706104
 50
265.2254950040055
  0
VERTEX
  5
2A5
  8
0
 10
1336.8401861301611
 20
1425.000005394797
 30
0.0
 42
0.0086459866706006
  0
VERTEX
  5
2A6
  8
0
 10
1336.9260814681661
 20
1420.0330235837439
 30
0.0
 42
0.0121875402173204
  0
VERTEX
  5
2A7
  8
0
 10
1337.133750379523
 20
1416.5147240205581
 30
0.0
 42
0.0289196400265789
 70
     2
 50
274.77450499599399
  0
VERTEX
  5
2A8
  8
0
 10
1337.605643288603
 20
1413.1938497787751
 30
0.0
 42
0.3570648904890114
 50
274.77450499599399
  0
SEQEND
  5
2A9
  8
0
  0
ARC
  5
2AA
  8
0
 10
1351.5066952156581
 20
1418.6483263760281
 30
0.0
 40
12.7899092237249
 50
150.22360405341161
 51
206.2074953315317
  0
ARC
  5
2AB
  8
0
 10
1351.5066952156581
 20
1431.3516844135661
 30
0.0
 40
12.7899092237249
 50
153.7925046684683
 51
209.77639594658839
  0
LINE
  5
2AC
  8
0
 10
1435.5793810984139
 20
1431.750005394797
 30
0.0
 11
1433.199915086861
 21
1431.750005394797
 31
0.0
  0
LINE
  5
2AD
  8
0
 10
1435.5793810984139
 20
1418.250005394797
 30
0.0
 11
1433.199915086861
 21
1418.250005394797
 31
0.0
  0
LINE
  5
2AE
  8
3
 10
1362.924273536782
 20
1418.082505394797
 30
0.0
 11
1361.049328537589
 21
1417.000005394797
 31
0.0
  0
LINE
  5
2AF
  8
3
 10
1362.9242735367829
 20
1431.917505394797
 30
0.0
 11
1361.0493285375901
 21
1433.000005394797
 31
0.0
  0
LINE
  5
2B0
  8
1
 10
1327.8424771717589
 20
1425.000005394797
 30
0.0
 11
1444.461946980934
 21
1425.000005394797
 31
0.0
  0
LINE
  5
2B1
  8
0
 10
1358.57147971772
 20
1417.000005394797
 30
0.0
 11
1432.461946980934
 21
1417.000005394797
 31
0.0
  0
LINE
  5
2B2
  8
0
 10
1358.57147971772
 20
1433.000005394797
 30
0.0
 11
1432.461946980934
 21
1433.000005394797
 31
0.0
  0
LINE
  5
2B3
  8
3
 10
1362.9242735367829
 20
1418.082505394797
 30
0.0
 11
1433.1010273606671
 21
1418.082505394797
 31
0.0
  0
LINE
  5
2B4
  8
3
 10
1362.9242735367829
 20
1431.917505394797
 30
0.0
 11
1433.1010273606671
 21
1431.917505394797
 31
0.0
  0
ARC
  5
2B5
  8
0
 10
1424.4194939231199
 20
1425.0000053947961
 30
0.0
 40
13.04245305781391
 50
328.83257084122101
 51
31.16742915878444
  0
ARC
  5
2B6
  8
0
 10
1397.149749526176
 20
1425.0000053948011
 30
0.0
 40
39.017932835785693
 50
350.03786121256047
 51
9.9621387874207343
  0
ARC
  5
2B7
  8
0
 10
1394.770283514624
 20
1425.0000053948011
 30
0.0
 40
39.017932835785693
 50
350.03786121256047
 51
9.9621387874207343
  0
ARC
  5
2B8
  8
0
 10
1388.1443457384271
 20
1425.000005394797
 30
0.0
 40
45.033873694030447
 50
349.7674372727368
 51
10.232562727261911
  0
LINE
  5
2B9
  8
0
 10
1432.461946980934
 20
1433.000005394797
 30
0.0
 11
1433.199915086861
 21
1431.750005394797
 31
0.0
  0
LINE
  5
2BA
  8
0
 10
1432.4619469809329
 20
1417.000005394797
 30
0.0
 11
1433.199915086861
 21
1418.250005394797
 31
0.0
  0
ARC
  5
2BB
  8
0
 10
1317.2011146123741
 20
1425.000005394797
 30
0.0
 40
46.243475953660173
 50
350.03786121259742
 51
9.9621387874024112
  0
LINE
  5
2BC
  8
0
 10
1340.405436206268
 20
1425.000005394797
 30
0.0
 11
1358.9740352701299
 21
1425.000005394797
 31
0.0
  0
ENDBLK
  5
2BD
  8
0
  0
BLOCK
  8
0
  2
112D50AA
 70
     0
 10
767.9523864407505
 20
359.26258992805731
 30
0.0
  3
112D50AA
  1

  0
LINE
  5
2BF
  8
0
 10
766.75306693758705
 20
359.26258992805703
 30
0.0
 11
759.50170975267861
 21
359.26258992805703
 31
0.0
  0
LINE
  5
2C0
  8
0
 10
766.90069718353277
 20
347.26258992805703
 30
0.0
 11
756.93875020316045
 21
347.26258992805703
 31
0.0
  0
POLYLINE
  5
2C1
  8
0
 66
     1
 10
0.0
 20
0.0
 30
0.0
 70
     1
  0
VERTEX
  5
2C2
  8
0
 10
757.94104175977111
 20
359.26258992805703
 30
0.0
 42
0.0086459866706132
  0
VERTEX
  5
2C3
  8
0
 10
757.85514642176656
 20
364.22957173911499
 30
0.0
 42
0.0121875402173137
  0
VERTEX
  5
2C4
  8
0
 10
757.64747751040954
 20
367.74787130229561
 30
0.0
 42
0.0289196400266021
 70
     2
 50
94.774504995994505
  0
VERTEX
  5
2C5
  8
0
 10
757.16666163939885
 20
371.13153952522521
 30
0.0
 42
0.4525708242124149
 50
94.774504995994505
  0
VERTEX
  5
2C6
  8
0
 10
756.93875071817308
 20
371.26258992805703
 30
0.0
 42
0.3570648904890654
  0
VERTEX
  5
2C7
  8
0
 10
756.70191683501673
 20
371.06874554407949
 30
0.0
 42
0.0289196400266059
  0
VERTEX
  5
2C8
  8
0
 10
756.23002392593639
 20
367.74787130229561
 30
0.0
 42
0.0121875402173278
 70
     2
 50
265.22549500400561
  0
VERTEX
  5
2C9
  8
0
 10
756.0223550145796
 20
364.22957173911141
 30
0.0
 42
0.0086459866706084
 50
265.22549500400561
  0
VERTEX
  5
2CA
  8
0
 10
755.93645967657505
 20
359.26258992805703
 30
0.0
 42
0.0086459866706109
  0
VERTEX
  5
2CB
  8
0
 10
756.02235501457983
 20
354.29560811700122
 30
0.0
 42
0.0121875402173233
  0
VERTEX
  5
2CC
  8
0
 10
756.23002392593639
 20
350.77730855381827
 30
0.0
 42
0.0289196400266033
 70
     2
 50
274.7745049959945
  0
VERTEX
  5
2CD
  8
0
 10
756.70191683501673
 20
347.45643431203439
 30
0.0
 42
0.357064890488977
 50
274.7745049959945
  0
VERTEX
  5
2CE
  8
0
 10
756.93875071817308
 20
347.2625899280568
 30
0.0
 42
0.357064890489021
  0
VERTEX
  5
2CF
  8
0
 10
757.17558460132955
 20
347.45643431203439
 30
0.0
 42
0.0289196400265903
  0
VERTEX
  5
2D0
  8
0
 10
757.64747751040954
 20
350.77730855381827
 30
0.0
 42
0.0121875402173164
 70
     2
 50
85.225495004005495
  0
VERTEX
  5
2D1
  8
0
 10
757.85514642176656
 20
354.2956081169994
 30
0.0
 42
0.0086459866706138
 50
85.225495004005495
  0
SEQEND
  5
2D2
  8
0
  0
ARC
  5
2D3
  8
0
 10
771.50907683405273
 20
352.64319361330507
 30
0.0
 40
13.71106384634731
 50
151.13302219174409
 51
203.1056536329298
  0
ARC
  5
2D4
  8
0
 10
753.47067656820434
 20
353.91576014841712
 30
0.0
 40
14.31818712746461
 50
332.31141213738022
 51
21.927263687302251
  0
ARC
  5
2D5
  8
0
 10
753.47067656820434
 20
364.60941970769682
 30
0.0
 40
14.31818712746461
 50
338.07273631269783
 51
27.688587862619819
  0
ARC
  5
2D6
  8
0
 10
771.50907683405273
 20
365.88198624280881
 30
0.0
 40
13.71106384634731
 50
156.8943463670702
 51
208.866977808256
  0
LINE
  5
2D7
  8
0
 10
766.90069718353277
 20
371.26258992805703
 30
0.0
 11
756.93875020316045
 21
371.26258992805703
 31
0.0
  0
LINE
  5
2D8
  8
0
 10
766.75306693758705
 20
359.26258992805703
 30
0.0
 11
759.50170975267861
 21
359.26258992805703
 31
0.0
  0
POLYLINE
  5
2D9
  8
0
 66
     1
 10
0.0
 20
0.0
 30
0.0
  0
VERTEX
  5
2DA
  8
0
 10
767.90298874014331
 20
359.26258992805703
 30
0.0
 42
0.0086459866706132
  0
VERTEX
  5
2DB
  8
0
 10
767.81709340213854
 20
364.22957173911499
 30
0.0
 42
0.0121875402173137
  0
VERTEX
  5
2DC
  8
0
 10
767.60942449078175
 20
367.74787130229561
 30
0.0
 42
0.0289196400266021
 70
     2
 50
94.774504995994505
  0
VERTEX
  5
2DD
  8
0
 10
767.12860861977106
 20
371.13153952522521
 30
0.0
 42
0.4525708242124149
 50
94.774504995994505
  0
VERTEX
  5
2DE
  8
0
 10
766.90069769854517
 20
371.26258992805703
 30
0.0
 42
0.3570648904890654
  0
SEQEND
  5
2DF
  8
0
  0
POLYLINE
  5
2E0
  8
0
 66
     1
 10
0.0
 20
0.0
 30
0.0
  0
VERTEX
  5
2E1
  8
0
 10
766.90069769854517
 20
347.2625899280568
 30
0.0
 42
0.357064890489021
  0
VERTEX
  5
2E2
  8
0
 10
767.13753158170186
 20
347.45643431203439
 30
0.0
 42
0.0289196400265903
  0
VERTEX
  5
2E3
  8
0
 10
767.60942449078175
 20
350.77730855381827
 30
0.0
 42
0.0121875402173164
 70
     2
 50
85.225495004005495
  0
VERTEX
  5
2E4
  8
0
 10
767.81709340213854
 20
354.2956081169994
 30
0.0
 42
0.0086459866706138
 50
85.225495004005495
  0
VERTEX
  5
2E5
  8
0
 10
767.90298874014331
 20
359.26258992805703
 30
0.0
 42
0.0086459866706132
  0
SEQEND
  5
2E6
  8
0
  0
ENDBLK
  5
2E7
  8
0
  0
BLOCK
  8
0
  2
112D50AB
 70
     0
 10
600.00000000000023
 20
334.26258992805771
 30
0.0
  3
112D50AB
  1

  0
LINE
  5
2E9
  8
0
 10
574.40655832777929
 20
316.7625899280572
 30
0.0
 11
574.40655832777929
 21
401.09831996875772
 31
0.0
  0
ARC
  5
2EA
  8
0
 10
612.49999999999955
 20
321.7625899280572
 30
0.0
 40
5.0
 50
270.00000000000011
 51
360.0
  0
ARC
  5
2EB
  8
0
 10
612.49999999999955
 20
396.7625899280572
 30
0.0
 40
5.0
 50
360.0
 51
89.999999999999915
  0
ARC
  5
2EC
  8
0
 10
537.49999999999955
 20
396.7625899280572
 30
0.0
 40
5.0
 50
89.999999999999986
 51
180.0
  0
ARC
  5
2ED
  8
0
 10
537.49999999999955
 20
321.7625899280572
 30
0.0
 40
5.0
 50
180.0
 51
270.0
  0
INSERT
  5
2EE
  8
0
  2
CEN
 10
549.99999999999955
 20
384.2625899280572
 30
0.0
 41
35.0
 42
35.0
 43
35.0
 50
270.0
  0
INSERT
  5
2EF
  8
0
  2
CEN
 10
549.99999999999955
 20
334.2625899280572
 30
0.0
 41
35.0
 42
35.0
 43
35.0
 50
270.0
  0
INSERT
  5
2F0
  8
0
  2
CEN
 10
599.99999999999955
 20
384.2625899280572
 30
0.0
 41
35.0
 42
35.0
 43
35.0
 50
270.0
  0
INSERT
  5
2F1
  8
0
  2
CEN
 10
599.99999999999955
 20
334.2625899280572
 30
0.0
 41
35.0
 42
35.0
 43
35.0
 50
270.0
  0
LINE
  5
2F2
  8
0
 10
584.49999999999955
 20
317.34194193855069
 30
0.0
 11
584.49999999999955
 21
401.09831996875772
 31
0.0
  0
CIRCLE
  5
2F3
  8
0
 10
599.99999999999955
 20
334.2625899280572
 30
0.0
 40
13.0
  0
CIRCLE
  5
2F4
  8
0
 10
599.99999999999955
 20
334.2625899280572
 30
0.0
 40
9.0
  0
CIRCLE
  5
2F5
  8
0
 10
549.99999999999955
 20
334.2625899280572
 30
0.0
 40
9.0
  0
CIRCLE
  5
2F6
  8
0
 10
549.99999999999955
 20
334.2625899280572
 30
0.0
 40
13.0
  0
CIRCLE
  5
2F7
  8
0
 10
549.99999999999955
 20
384.26258992805742
 30
0.0
 40
13.0
  0
CIRCLE
  5
2F8
  8
0
 10
549.99999999999955
 20
384.26258992805742
 30
0.0
 40
9.0
  0
CIRCLE
  5
2F9
  8
0
 10
599.99999999999955
 20
384.2625899280572
 30
0.0
 40
9.0
  0
CIRCLE
  5
2FA
  8
0
 10
599.99999999999955
 20
384.2625899280572
 30
0.0
 40
13.0
  0
LINE
  5
2FB
  8
0
 10
617.49999999999955
 20
396.7625899280572
 30
0.0
 11
617.49999999999955
 21
321.7625899280572
 31
0.0
  0
LINE
  5
2FC
  8
0
 10
537.49999999999955
 20
401.7625899280572
 30
0.0
 11
612.49999999999955
 21
401.7625899280572
 31
0.0
  0
LINE
  5
2FD
  8
0
 10
532.49999999999955
 20
321.7625899280572
 30
0.0
 11
532.49999999999955
 21
396.7625899280572
 31
0.0
  0
LINE
  5
2FE
  8
0
 10
612.49999999999955
 20
316.7625899280572
 30
0.0
 11
537.49999999999955
 21
316.7625899280572
 31
0.0
  0
LINE
  5
2FF
  8
1
 10
629.99999999998329
 20
359.2625899280572
 30
0.0
 11
519.99999999998499
 21
359.26258992805742
 31
0.0
  0
ENDBLK
  5
300
  8
0
  0
BLOCK
  8
0
  2
112D50B1
 70
     0
 10
600.0
 20
300.0
 30
0.0
  3
112D50B1
  1

  0
INSERT
  5
302
  8
0
  2
112D50BB
 10
600.0
 20
300.0
 30
0.0
  0
INSERT
  5
303
  8
0
  2
112D50BA
 10
583.44831074279682
 20
377.97913678391421
 30
0.0
  0
ENDBLK
  5
304
  8
0
  0
BLOCK
  8
0
  2
112D50B2
 70
     0
 10
486.3738967712203
 20
372.99541791680258
 30
0.0
  3
112D50B2
  1

  0
LINE
  5
306
  8
0
 10
482.7001661406934
 20
380.09261160323922
 30
0.0
 11
481.52356361360012
 21
366.64398317900049
 31
0.0
  0
LINE
  5
307
  8
0
 10
482.09016922274247
 20
381.40075421527467
 30
0.0
 11
482.70016614069368
 21
380.09261160323899
 31
0.0
  0
LINE
  5
308
  8
0
 10
480.69567733878011
 20
365.46163904580681
 30
0.0
 11
481.52356361360029
 21
366.64398317900049
 31
0.0
  0
LINE
  5
309
  8
0
 10
485.07963215224771
 20
379.88443530198288
 30
0.0
 11
483.90302962515318
 21
366.43580687774443
 31
0.0
  0
LINE
  5
30A
  8
0
 10
482.09016922274247
 20
381.4007542152749
 30
0.0
 11
480.69567733878011
 21
365.46163904580681
 31
0.0
  0
ARC
  5
30B
  8
0
 10
473.4233656960273
 20
374.12844257252209
 30
0.0
 40
13.0
 50
323.71933284795068
 51
26.280667152046799
  0
LINE
  5
30C
  8
0
 10
485.07963215224697
 20
379.88443530198288
 30
0.0
 11
482.70016614069368
 21
380.09261160323899
 31
0.0
  0
LINE
  5
30D
  8
0
 10
483.90302962515392
 20
366.43580687774443
 30
0.0
 11
481.52356361360029
 21
366.64398317900049
 31
0.0
  0
LINE
  5
30E
  8
3
 10
411.05639456388212
 20
372.64092179882732
 30
0.0
 11
409.09423820494771
 21
371.72595326215861
 31
0.0
  0
LINE
  5
30F
  8
3
 10
412.26219426479582
 20
386.42327544692671
 30
0.0
 11
410.48873008891042
 21
387.66506843162671
 31
0.0
  0
LINE
  5
310
  8
1
 10
379.78106407564769
 20
382.32108239078048
 30
0.0
 11
493.34725965786191
 21
372.385327717569
 31
0.0
  0
LINE
  5
311
  8
0
 10
406.578791800754
 20
371.94602630623262
 30
0.0
 11
480.69567733878011
 21
365.46163904580681
 31
0.0
  0
ARC
  5
312
  8
0
 10
406.5264983551055
 20
371.34830948737749
 30
0.0
 40
0.6
 50
85.000000000000057
 51
175.0
  0
ARC
  5
313
  8
0
 10
408.02557713036532
 20
388.48285829455563
 30
0.0
 40
0.6
 50
175.0
 51
265.0
  0
LINE
  5
314
  8
0
 10
407.97328368471671
 20
387.88514147570049
 30
0.0
 11
482.09016922274247
 21
381.4007542152749
 31
0.0
  0
LINE
  5
315
  8
0
 10
405.47065678734452
 20
366.16421309184187
 30
0.0
 11
407.88598506041598
 21
393.77154158138842
 31
0.0
  0
LINE
  5
316
  8
0
 10
386.9020577234794
 20
367.78875500748808
 30
0.0
 11
405.47065678734452
 21
366.16421309184187
 31
0.0
  0
LINE
  5
317
  8
0
 10
387.50587641292049
 20
374.69058830036971
 30
0.0
 11
406.07448885561229
 21
373.06604521422759
 31
0.0
  0
LINE
  5
318
  8
0
 10
388.71355266793603
 20
388.49423696881672
 30
0.0
 11
407.28215173180132
 21
386.86969505317029
 31
0.0
  0
LINE
  5
319
  8
0
 10
389.31738599655091
 20
395.39608349703491
 30
0.0
 11
407.88598506041598
 21
393.77154158138842
 31
0.0
  0
LINE
  5
31A
  8
0
 10
389.31738599655091
 20
395.39608349703491
 30
0.0
 11
387.75671800364358
 21
393.16723121962349
 31
0.0
  0
ARC
  5
31B
  8
0
 10
392.73128318552199
 20
391.62006864499108
 30
0.0
 40
5.0904795628426038
 50
132.11675228637921
 51
132.11675228637921
  0
ARC
  5
31C
  8
0
 10
392.73128318552199
 20
391.62006864499108
 30
0.0
 40
5.0904795628426038
 50
175.00001518025331
 51
217.8832477136207
  0
ARC
  5
31D
  8
0
 10
390.91978824106508
 20
370.91458668366289
 30
0.0
 40
5.0904795628426038
 50
132.11675228637921
 51
174.9999848197466
  0
ARC
  5
31E
  8
0
 10
390.91978824106508
 20
370.91458668366289
 30
0.0
 40
5.0904795628426038
 50
217.8832477136207
 51
217.8832477136207
  0
LINE
  5
31F
  8
0
 10
386.9020577234794
 20
367.78875500748808
 30
0.0
 11
385.75213592044719
 21
370.25475316351321
 31
0.0
  0
LINE
  5
320
  8
0
 10
387.75671800364358
 20
393.16723121962349
 30
0.0
 11
385.75213592044719
 21
370.2547531635135
 31
0.0
  0
ARC
  5
321
  8
0
 10
405.00589091339469
 20
380.11417224349788
 30
0.0
 40
18.321183649125121
 50
152.78069601879179
 51
197.21919291633671
  0
LINE
  5
322
  8
3
 10
411.05639456388252
 20
372.64092179882761
 30
0.0
 11
481.41262685277451
 21
366.48554906515278
 31
0.0
  0
LINE
  5
323
  8
3
 10
412.26219426479582
 20
386.42327544692671
 30
0.0
 11
482.61842655368798
 21
380.267902713252
 31
0.0
  0
LINE
  5
324
  8
0
 10
412.35654035632018
 20
387.50165620761101
 30
0.0
 11
410.96204847235771
 21
371.56254103814291
 31
0.0
  0
ENDBLK
  5
325
  8
0
  0
BLOCK
  8
0
  2
112D50BA
 70
     0
 10
583.44831074279682
 20
377.97913678391421
 30
0.0
  3
112D50BA
  1

  0
ARC
  5
327
  8
0
 10
577.65172504121313
 20
368.05428870345793
 30
0.0
 40
5.0904795628426038
 50
132.1167522863793
 51
174.9999848197466
  0
LINE
  5
328
  8
0
 10
584.45060178463893
 20
389.43537581194778
 30
0.0
 11
583.30067998160723
 21
391.90137396797292
 31
0.0
  0
LINE
  5
329
  8
0
 10
583.30067998160723
 20
391.90137396797292
 30
0.0
 11
576.04932279669856
 21
392.53578551682978
 31
0.0
  0
LINE
  5
32A
  8
0
 10
576.04932279669856
 20
392.53578551682978
 30
0.0
 11
574.48865480379118
 21
390.30693323941819
 31
0.0
  0
ARC
  5
32B
  8
0
 10
579.46321998566975
 20
388.75977066478617
 30
0.0
 40
5.0904795628426038
 50
132.1167522863793
 51
132.1167522863793
  0
ARC
  5
32C
  8
0
 10
579.46321998566975
 20
388.75977066478617
 30
0.0
 40
5.0904795628426038
 50
175.00001518025331
 51
217.8832477136207
  0
ARC
  5
32D
  8
0
 10
579.28294946402116
 20
388.77554229179827
 30
0.0
 40
5.0904795628426038
 50
312.11675228637932
 51
354.99998481974671
  0
ARC
  5
32E
  8
0
 10
577.47145451956442
 20
368.07006033047003
 30
0.0
 40
5.0904795628426038
 50
355.00001518025329
 51
37.883247713620712
  0
ARC
  5
32F
  8
0
 10
577.65172504121313
 20
368.05428870345793
 30
0.0
 40
5.0904795628426038
 50
217.8832477136207
 51
217.8832477136207
  0
LINE
  5
330
  8
0
 10
573.63399452362705
 20
364.92845702728329
 30
0.0
 11
572.48407272059524
 21
367.39445518330808
 31
0.0
  0
LINE
  5
331
  8
0
 10
580.8853517085355
 20
364.29404547842643
 30
0.0
 11
573.63399452362705
 21
364.92845702728329
 31
0.0
  0
LINE
  5
332
  8
0
 10
582.44601970144265
 20
366.52289775583768
 30
0.0
 11
580.8853517085355
 21
364.29404547842643
 31
0.0
  0
LINE
  5
333
  8
0
 10
574.48865480379118
 20
390.30693323941819
 30
0.0
 11
572.48407272059524
 21
367.39445518330842
 31
0.0
  0
LINE
  5
334
  8
0
 10
584.45060178463893
 20
389.43537581194778
 30
0.0
 11
582.44601970144265
 21
366.52289775583768
 31
0.0
  0
LINE
  5
335
  8
0
 10
575.44548946808368
 20
385.63393898861142
 30
0.0
 11
582.69684665299235
 21
384.9995274397541
 31
0.0
  0
LINE
  5
336
  8
0
 10
574.23782659189499
 20
371.83028914966923
 30
0.0
 11
581.4891837768032
 21
371.19587760081242
 31
0.0
  0
ARC
  5
337
  8
0
 10
591.73782771354252
 20
377.2538742632928
 30
0.0
 40
18.321183649125121
 50
152.78069601879179
 51
197.21919291633671
  0
ARC
  5
338
  8
0
 10
565.19684266588467
 20
379.57590957377403
 30
0.0
 40
18.321183649125121
 50
332.78080708366332
 51
17.219303981208189
  0
ENDBLK
  5
339
  8
0
  0
BLOCK
  8
0
  2
112D50BB
 70
     0
 10
747.30374448963198
 20
300.0
 30
0.0
  3
112D50BB
  1

  0
LINE
  5
33B
  8
0
 10
764.80374448964653
 20
357.27769382218889
 30
0.0
 11
764.80374448964653
 21
342.72230617781111
 31
0.0
  0
ARC
  5
33C
  8
0
 10
721.71030281741173
 20
332.0
 30
0.0
 40
5.0
 50
270.0
 51
355.00000000000023
  0
LINE
  5
33D
  8
0
 10
731.80374448963198
 20
390.0
 30
0.0
 11
726.69127630787045
 21
331.56422128626173
 31
0.0
  0
LINE
  5
33E
  8
0
 10
764.80374448964653
 20
301.0
 30
0.0
 11
763.80374448964653
 21
300.0
 31
0.0
  0
LINE
  5
33F
  8
0
 10
763.80374448964653
 20
390.0
 30
0.0
 11
764.80374448964653
 21
389.0
 31
0.0
  0
LINE
  5
340
  8
0
 10
679.80374448964653
 20
301.0
 30
0.0
 11
680.80374448964653
 21
300.0
 31
0.0
  0
LINE
  5
341
  8
0
 10
680.80374448964653
 20
327.0
 30
0.0
 11
679.80374448964653
 21
326.0
 31
0.0
  0
LINE
  5
342
  8
1
 10
697.30374448963198
 20
337.40107913669073
 30
0.0
 11
697.30374448963198
 21
290.0
 31
0.0
  0
LINE
  5
343
  8
1
 10
747.30374448963198
 20
290.0
 30
0.0
 11
747.30374448963198
 21
400.0
 31
0.0
  0
LINE
  5
344
  8
0
 10
764.80374448964653
 20
389.0
 30
0.0
 11
764.80374448964653
 21
301.0
 31
0.0
  0
LINE
  5
345
  8
0
 10
731.80374448963198
 20
390.0
 30
0.0
 11
763.80374448964653
 21
390.0
 31
0.0
  0
LINE
  5
346
  8
0
 10
680.80374448964653
 20
327.0
 30
0.0
 11
721.71030281741173
 21
327.0
 31
0.0
  0
LINE
  5
347
  8
0
 10
679.80374448964653
 20
301.0
 30
0.0
 11
679.80374448964653
 21
326.0
 31
0.0
  0
LINE
  5
348
  8
0
 10
763.80374448964653
 20
300.0
 30
0.0
 11
680.80374448964653
 21
300.0
 31
0.0
  0
LINE
  5
349
  8
3
 10
727.88420706961085
 20
345.19948228652771
 30
0.0
 11
764.80374448964653
 21
341.96944129965323
 31
0.0
  0
LINE
  5
34A
  8
0
 10
727.97855316113532
 20
346.27786304721189
 30
0.0
 11
764.80374448964653
 21
343.05607627379391
 31
0.0
  0
LINE
  5
34B
  8
0
 10
729.18435286204897
 20
360.06021669531128
 30
0.0
 11
764.80374448964653
 21
356.94392372620632
 31
0.0
  0
LINE
  5
34C
  8
3
 10
729.27869895357344
 20
361.13859745599552
 30
0.0
 11
764.80374448964653
 21
358.03055870034677
 31
0.0
  0
LINE
  5
34D
  8
1
 10
774.76569147056171
 20
349.12844257252368
 30
0.0
 11
718.61950603067555
 21
354.04059729873802
 31
0.0
  0
LINE
  5
34E
  8
3
 10
730.05480929044757
 20
370.00957919918011
 30
0.0
 11
764.80374448964653
 21
366.96944129965323
 31
0.0
  0
LINE
  5
34F
  8
0
 10
730.14915538197192
 20
371.08795995986429
 30
0.0
 11
764.80374448964653
 21
368.05607627379391
 31
0.0
  0
LINE
  5
350
  8
0
 10
731.35495508288568
 20
384.87031360796391
 30
0.0
 11
764.80374448964653
 21
381.94392372620609
 31
0.0
  0
LINE
  5
351
  8
3
 10
731.44930117441004
 20
385.94869436864792
 30
0.0
 11
764.80374448964653
 21
383.03055870034677
 31
0.0
  0
LINE
  5
352
  8
1
 10
774.7656914705633
 20
374.1284425725234
 30
0.0
 11
720.79010825151067
 21
378.85069421139087
 31
0.0
  0
ENDBLK
  5
353
  8
0
  0
BLOCK
  8
0
  2
112D50D2
 70
     0
 10
400.0
 20
450.00000000000023
 30
0.0
  3
112D50D2
  1

  0
LINE
  5
355
  8
0
 10
490.0
 20
433.49999999999977
 30
0.0
 11
490.0
 21
516.49999999999977
 31
0.0
  0
LINE
  5
356
  8
0
 10
426.0
 20
432.49999999999972
 30
0.0
 11
427.0
 21
433.49999999999977
 31
0.0
  0
LINE
  5
357
  8
0
 10
426.0
 20
517.49999999999977
 30
0.0
 11
427.0
 21
516.49999999999977
 31
0.0
  0
LINE
  5
358
  8
0
 10
489.0
 20
432.5
 30
0.0
 11
490.0
 21
433.49999999999977
 31
0.0
  0
LINE
  5
359
  8
0
 10
400.0
 20
433.49999999999977
 30
0.0
 11
401.0
 21
432.49999999999972
 31
0.0
  0
LINE
  5
35A
  8
0
 10
489.0
 20
517.49999999999977
 30
0.0
 11
490.0
 21
516.49999999999977
 31
0.0
  0
LINE
  5
35B
  8
0
 10
401.0
 20
517.49999999999989
 30
0.0
 11
400.0
 21
516.5
 31
0.0
  0
LINE
  5
35C
  8
1
 10
431.73805477803649
 20
450.00000000000023
 30
0.0
 11
394.83207444999613
 21
450.00000000000023
 31
0.0
  0
LINE
  5
35D
  8
1
 10
431.73805477803649
 20
500.00000000000023
 30
0.0
 11
394.83207444999613
 21
500.00000000000023
 31
0.0
  0
LINE
  5
35E
  8
1
 10
453.26648344372637
 20
462.49999999999977
 30
0.0
 11
453.26648344372637
 21
487.49999999999977
 31
0.0
  0
POLYLINE
  5
35F
  8
3
 66
     1
 10
0.0
 20
0.0
 30
0.0
 70
     1
  0
VERTEX
  5
360
  8
3
 10
445.23592474337869
 20
474.99999999999977
 30
0.0
 42
0.0988321282103465
 50
360.0
  0
VERTEX
  5
361
  8
3
 10
445.84674678688702
 20
471.93998463213683
 30
0.0
 42
0.0986318836570982
 50
360.0
  0
VERTEX
  5
362
  8
3
 10
447.58802092999389
 20
469.34314575050797
 30
0.0
 42
0.0983500096457707
 70
     2
 50
315.10922154799852
  0
VERTEX
  5
363
  8
3
 10
450.41875988763348
 20
467.45835780357902
 30
0.0
 42
0.1164044402990869
 50
315.10922154799852
  0
VERTEX
  5
364
  8
3
 10
453.26648344372637
 20
467.00000000000068
 30
0.0
 42
0.0981516183769888
 50
360.0
  0
VERTEX
  5
365
  8
3
 10
456.34109684287068
 20
467.60942762946678
 30
0.0
 42
0.0983500096457938
 50
360.0
  0
VERTEX
  5
366
  8
3
 10
458.94494595745869
 20
469.34314575050797
 30
0.0
 42
0.0986318836570885
 70
     2
 50
44.89077845200147
  0
VERTEX
  5
367
  8
3
 10
460.686220100566
 20
471.93998463213711
 30
0.0
 42
0.0988321282103357
 50
44.89077845200147
  0
VERTEX
  5
368
  8
3
 10
461.29704214407411
 20
474.99999999999977
 30
0.0
 42
0.0988321282103429
 50
360.0
  0
VERTEX
  5
369
  8
3
 10
460.68622010056578
 20
478.06001536786312
 30
0.0
 42
0.0986318836570725
 50
360.0
  0
VERTEX
  5
36A
  8
3
 10
458.94494595745869
 20
480.65685424949152
 30
0.0
 42
0.098350009645802
 70
     2
 50
135.10922154799849
  0
VERTEX
  5
36B
  8
3
 10
456.34109684287068
 20
482.39057237053271
 30
0.0
 42
0.0981516183769977
 50
135.10922154799849
  0
VERTEX
  5
36C
  8
3
 10
453.26648344372637
 20
482.99999999999881
 30
0.0
 42
0.0981516183769923
 50
360.0
  0
VERTEX
  5
36D
  8
3
 10
450.19187004458189
 20
482.39057237053288
 30
0.0
 42
0.0983500096457938
 50
360.0
  0
VERTEX
  5
36E
  8
3
 10
447.58802092999389
 20
480.65685424949152
 30
0.0
 42
0.0986318836570832
 70
     2
 50
224.89077845200151
  0
VERTEX
  5
36F
  8
3
 10
445.84674678688702
 20
478.06001536786329
 30
0.0
 42
0.0988321282103537
 50
224.89077845200151
  0
SEQEND
  5
370
  8
3
  0
POLYLINE
  5
371
  8
0
 66
     1
 10
0.0
 20
0.0
 30
0.0
 70
     1
  0
VERTEX
  5
372
  8
0
 10
445.98878962153702
 20
474.99999999999977
 30
0.0
 42
0.1020123768154575
 50
360.0
  0
VERTEX
  5
373
  8
0
 10
446.53835151111087
 20
472.33442707152221
 30
0.0
 42
0.0998807627473162
 50
360.0
  0
VERTEX
  5
374
  8
0
 10
448.12037679065702
 20
470.0502525316947
 30
0.0
 42
0.0970069589999634
 70
     2
 50
316.11423304190521
  0
VERTEX
  5
375
  8
0
 10
450.67738862667761
 20
468.40210165230741
 30
0.0
 42
0.1130067156392234
 50
316.11423304190521
  0
VERTEX
  5
376
  8
0
 10
453.26648344372637
 20
468.00000000000091
 30
0.0
 42
0.0950682713253105
 50
360.0
  0
VERTEX
  5
377
  8
0
 10
456.06470494597988
 20
468.5368966208984
 30
0.0
 42
0.0970069589999364
 50
360.0
  0
VERTEX
  5
378
  8
0
 10
458.41259009679578
 20
470.0502525316947
 30
0.0
 42
0.0998807627473281
 70
     2
 50
43.885766958094777
  0
VERTEX
  5
379
  8
0
 10
459.99461537634181
 20
472.33442707152221
 30
0.0
 42
0.1020123768154618
 50
43.885766958094777
  0
VERTEX
  5
37A
  8
0
 10
460.54417726591549
 20
474.99999999999977
 30
0.0
 42
0.1020123768154618
 50
360.0
  0
VERTEX
  5
37B
  8
0
 10
459.99461537634181
 20
477.6655729284775
 30
0.0
 42
0.0998807627473278
 50
360.0
  0
VERTEX
  5
37C
  8
0
 10
458.41259009679578
 20
479.94974746830502
 30
0.0
 42
0.0970069589999194
 70
     2
 50
136.11423304190509
  0
VERTEX
  5
37D
  8
0
 10
456.06470494597988
 20
481.46310337910148
 30
0.0
 42
0.0950682713252908
 50
136.11423304190509
  0
VERTEX
  5
37E
  8
0
 10
453.26648344372637
 20
481.99999999999881
 30
0.0
 42
0.0950682713252922
 50
360.0
  0
VERTEX
  5
37F
  8
0
 10
450.46826194147309
 20
481.46310337910148
 30
0.0
 42
0.0970069589999439
 50
360.0
  0
VERTEX
  5
380
  8
0
 10
448.12037679065702
 20
479.94974746830502
 30
0.0
 42
0.0998807627473164
 70
     2
 50
223.88576695809479
  0
VERTEX
  5
381
  8
0
 10
446.53835151111087
 20
477.6655729284775
 30
0.0
 42
0.1020123768154575
 50
223.88576695809479
  0
SEQEND
  5
382
  8
0
  0
LINE
  5
383
  8
1
 10
499.9999999999992
 20
474.99999999999977
 30
0.0
 11
389.99999999999949
 21
474.99999999999977
 31
0.0
  0
LINE
  5
384
  8
0
 10
427.0
 20
516.49999999999977
 30
0.0
 11
427.0
 21
433.49999999999977
 31
0.0
  0
LINE
  5
385
  8
0
 10
400.0
 20
516.5
 30
0.0
 11
400.0
 21
433.49999999999977
 31
0.0
  0
LINE
  5
386
  8
0
 10
489.0
 20
517.49999999999977
 30
0.0
 11
401.0
 21
517.49999999999977
 31
0.0
  0
LINE
  5
387
  8
0
 10
401.0
 20
432.49999999999972
 30
0.0
 11
489.0
 21
432.5
 31
0.0
  0
ENDBLK
  5
388
  8
0
  0
BLOCK
  8
0
  2
112D50D1
 70
     0
 10
478.26648344372637
 20
474.99999999999977
 30
0.0
  3
112D50D1
  1

  0
LINE
  5
38A
  8
1
 10
478.26648344372637
 20
462.49999999999977
 30
0.0
 11
478.26648344372637
 21
487.49999999999977
 31
0.0
  0
LINE
  5
38B
  8
1
 10
496.95157474919301
 20
474.99999999999977
 30
0.0
 11
459.34424625964488
 21
474.99999999999977
 31
0.0
  0
LINE
  5
38C
  8
1
 10
478.26648344372637
 20
491.9999874765283
 30
0.0
 11
478.26648344372637
 21
458.00001252347153
 31
0.0
  0
LINE
  5
38D
  8
0
 10
491.95157474919301
 20
474.99999999999977
 30
0.0
 11
485.04972822097437
 21
486.9999874765283
 31
0.0
  0
LINE
  5
38E
  8
0
 10
485.04972822097437
 20
486.9999874765283
 30
0.0
 11
471.24607838203252
 21
486.9999874765283
 31
0.0
  0
LINE
  5
38F
  8
0
 10
471.24607838203252
 20
486.9999874765283
 30
0.0
 11
464.34424625964618
 21
474.99999999999977
 31
0.0
  0
LINE
  5
390
  8
0
 10
464.34424625964618
 20
474.99999999999977
 30
0.0
 11
471.24607838203252
 21
463.00001252347141
 31
0.0
  0
LINE
  5
391
  8
0
 10
471.24607838203252
 20
463.00001252347141
 30
0.0
 11
485.04972822097437
 21
463.00001252347141
 31
0.0
  0
LINE
  5
392
  8
0
 10
485.04972822097437
 20
463.00001252347141
 30
0.0
 11
491.95157474919301
 21
474.99999999999977
 31
0.0
  0
POLYLINE
  5
393
  8
0
 66
     1
 10
0.0
 20
0.0
 30
0.0
 70
     1
  0
VERTEX
  5
394
  8
0
 10
489.72272247178148
 20
474.99999999999977
 30
0.0
 42
0.0981516183770052
 50
270.0
  0
VERTEX
  5
395
  8
0
 10
488.85000389759819
 20
479.40293825243151
 30
0.0
 42
0.0983500096458003
 50
270.0
  0
VERTEX
  5
396
  8
0
 10
486.3672677473582
 20
483.13172798364508
 30
0.0
 42
0.0986318836570796
 70
     2
 50
134.8907784520074
  0
VERTEX
  5
397
  8
0
 10
482.32602843335047
 20
485.84152471896459
 30
0.0
 42
0.1171541799010321
 50
134.8907784520074
  0
VERTEX
  5
398
  8
0
 10
478.26648344372637
 20
486.49999999999972
 30
0.0
 42
0.0988321282103317
 50
270.0
  0
VERTEX
  5
399
  8
0
 10
473.8844500082555
 20
485.6252845832455
 30
0.0
 42
0.0986318836570876
 50
270.0
  0
VERTEX
  5
39A
  8
0
 10
470.1656991400946
 20
483.13172798364508
 30
0.0
 42
0.0983500096458012
 70
     2
 50
225.1092215479926
  0
VERTEX
  5
39B
  8
0
 10
467.6829629898545
 20
479.4029382524318
 30
0.0
 42
0.098151618377011
 50
225.1092215479926
  0
VERTEX
  5
39C
  8
0
 10
466.81024441567138
 20
474.99999999999977
 30
0.0
 42
0.0981516183770088
 50
270.0
  0
VERTEX
  5
39D
  8
0
 10
467.6829629898545
 20
470.59706174756769
 30
0.0
 42
0.0983500096457979
 50
270.0
  0
VERTEX
  5
39E
  8
0
 10
470.1656991400946
 20
466.86827201635441
 30
0.0
 42
0.098631883657083
 70
     2
 50
314.89077845200751
  0
VERTEX
  5
39F
  8
0
 10
473.8844500082555
 20
464.37471541675399
 30
0.0
 42
0.0988321282103283
 50
314.89077845200751
  0
VERTEX
  5
3A0
  8
0
 10
478.26648344372637
 20
463.49999999999977
 30
0.0
 42
0.0988321282103309
 50
270.0
  0
VERTEX
  5
3A1
  8
0
 10
482.64851687919742
 20
464.37471541675399
 30
0.0
 42
0.0986318836570853
 50
270.0
  0
VERTEX
  5
3A2
  8
0
 10
486.3672677473582
 20
466.86827201635441
 30
0.0
 42
0.098350009645801
 70
     2
 50
45.109221547992497
  0
VERTEX
  5
3A3
  8
0
 10
488.85000389759819
 20
470.59706174756798
 30
0.0
 42
0.0981516183770052
 50
45.109221547992497
  0
SEQEND
  5
3A4
  8
0
  0
ENDBLK
  5
3A5
  8
0
  0
ENDSEC
  0
SECTION
  2
ENTITIES
  0
INSERT
  5
3AF
  8
0
  2
112D50A1
 10
400.0
 20
340.0
 30
0.0
  0
INSERT
  5
3B0
  8
0
  2
112D50A2
 10
427.46194698093348
 20
364.99999999999937
 30
0.0
  0
INSERT
  5
3B1
  8
0
  2
112D50B2
 10
427.46194698094843
 20
234.12844257252209
 30
0.0
  0
INSERT
  5
3B2
  8
0
  2
112D50B1
 10
400.0
 20
160.0
 30
0.0
  0
LINE
  5
3B3
  8
0
 10
503.50000000000102
 20
160.0000000000002
 30
0.0
 11
586.50000000000091
 21
160.0000000000002
 31
0.0
  0
LINE
  5
3B4
  8
0
 10
587.50000000000102
 20
161.0000000000002
 30
0.0
 11
587.50000000000114
 21
249.0000000000002
 31
0.0
  0
LINE
  5
3B5
  8
0
 10
586.50000000000114
 20
250.0000000000002
 30
0.0
 11
503.50000000000131
 21
250.0000000000002
 31
0.0
  0
LINE
  5
3B6
  8
0
 10
502.50000000000119
 20
249.0000000000002
 30
0.0
 11
502.50000000000108
 21
161.0000000000002
 31
0.0
  0
LINE
  5
3B7
  8
1
 10
545.00000000000091
 20
149.99999999999949
 30
0.0
 11
545.00000000000125
 21
260.00000000000091
 31
0.0
  0
LINE
  5
3B8
  8
1
 10
532.50000000000125
 20
235.0
 30
0.0
 11
557.50000000000125
 21
235.0
 31
0.0
  0
POLYLINE
  5
3B9
  8
0
 66
     1
 10
0.0
 20
0.0
 30
0.0
 70
     1
  0
VERTEX
  5
3BA
  8
0
 10
545.00000000000125
 20
217.27769382218929
 30
0.0
 42
0.1020123768154575
 50
270.0
  0
VERTEX
  5
3BB
  8
0
 10
542.33442707152358
 20
216.7281319326155
 30
0.0
 42
0.0998807627473162
 50
270.0
  0
VERTEX
  5
3BC
  8
0
 10
540.05025253169617
 20
215.14610665306941
 30
0.0
 42
0.0970069589999634
 70
     2
 50
226.11423304190521
  0
VERTEX
  5
3BD
  8
0
 10
538.40210165230906
 20
212.58909481704879
 30
0.0
 42
0.1130067156392234
 50
226.11423304190521
  0
VERTEX
  5
3BE
  8
0
 10
538.00000000000216
 20
210.0
 30
0.0
 42
0.0950682713253105
 50
270.0
  0
VERTEX
  5
3BF
  8
0
 10
538.53689662089982
 20
207.20177849774649
 30
0.0
 42
0.0970069589999364
 50
270.0
  0
VERTEX
  5
3C0
  8
0
 10
540.05025253169617
 20
204.85389334693059
 30
0.0
 42
0.0998807627473281
 70
     2
 50
313.88576695809479
  0
VERTEX
  5
3C1
  8
0
 10
542.33442707152369
 20
203.2718680673845
 30
0.0
 42
0.1020123768154618
 50
313.88576695809479
  0
VERTEX
  5
3C2
  8
0
 10
545.00000000000125
 20
202.72230617781091
 30
0.0
 42
0.1020123768154618
 50
270.0
  0
VERTEX
  5
3C3
  8
0
 10
547.66557292847892
 20
203.2718680673845
 30
0.0
 42
0.0998807627473278
 50
270.0
  0
VERTEX
  5
3C4
  8
0
 10
549.94974746830644
 20
204.85389334693059
 30
0.0
 42
0.0970069589999194
 70
     2
 50
46.114233041905187
  0
VERTEX
  5
3C5
  8
0
 10
551.4631033791029
 20
207.20177849774649
 30
0.0
 42
0.0950682713252908
 50
46.114233041905187
  0
VERTEX
  5
3C6
  8
0
 10
552.00000000000023
 20
210.0
 30
0.0
 42
0.0950682713252922
 50
270.0
  0
VERTEX
  5
3C7
  8
0
 10
551.4631033791029
 20
212.7982215022532
 30
0.0
 42
0.0970069589999439
 50
270.0
  0
VERTEX
  5
3C8
  8
0
 10
549.94974746830644
 20
215.14610665306941
 30
0.0
 42
0.0998807627473164
 70
     2
 50
133.88576695809471
  0
VERTEX
  5
3C9
  8
0
 10
547.66557292847915
 20
216.7281319326155
 30
0.0
 42
0.1020123768154575
 50
133.88576695809471
  0
SEQEND
  5
3CA
  8
0
  0
POLYLINE
  5
3CB
  8
3
 66
     1
 10
0.0
 20
0.0
 30
0.0
 70
     1
  0
VERTEX
  5
3CC
  8
3
 10
545.00000000000125
 20
218.03055870034771
 30
0.0
 42
0.0988321282103465
 50
270.0
  0
VERTEX
  5
3CD
  8
3
 10
541.93998463213825
 20
217.4197366568394
 30
0.0
 42
0.0986318836570982
 50
270.0
  0
VERTEX
  5
3CE
  8
3
 10
539.34314575050962
 20
215.67846251373251
 30
0.0
 42
0.0983500096457707
 70
     2
 50
225.10922154799849
  0
VERTEX
  5
3CF
  8
3
 10
537.45835780358027
 20
212.84772355609289
 30
0.0
 42
0.1164044402990869
 50
225.10922154799849
  0
VERTEX
  5
3D0
  8
3
 10
537.00000000000227
 20
210.0
 30
0.0
 42
0.0981516183769888
 50
270.0
  0
VERTEX
  5
3D1
  8
3
 10
537.60942762946843
 20
206.92538660085569
 30
0.0
 42
0.0983500096457938
 50
270.0
  0
VERTEX
  5
3D2
  8
3
 10
539.34314575050962
 20
204.32153748626769
 30
0.0
 42
0.0986318836570885
 70
     2
 50
314.89077845200148
  0
VERTEX
  5
3D3
  8
3
 10
541.93998463213836
 20
202.58026334316031
 30
0.0
 42
0.0988321282103357
 50
314.89077845200148
  0
VERTEX
  5
3D4
  8
3
 10
545.00000000000125
 20
201.96944129965229
 30
0.0
 42
0.0988321282103429
 50
270.0
  0
VERTEX
  5
3D5
  8
3
 10
548.06001536786437
 20
202.58026334316051
 30
0.0
 42
0.0986318836570725
 50
270.0
  0
VERTEX
  5
3D6
  8
3
 10
550.65685424949311
 20
204.32153748626769
 30
0.0
 42
0.098350009645802
 70
     2
 50
45.109221547998509
  0
VERTEX
  5
3D7
  8
3
 10
552.39057237053419
 20
206.92538660085569
 30
0.0
 42
0.0981516183769977
 50
45.109221547998509
  0
VERTEX
  5
3D8
  8
3
 10
553.00000000000045
 20
210.0
 30
0.0
 42
0.0981516183769923
 50
270.0
  0
VERTEX
  5
3D9
  8
3
 10
552.39057237053419
 20
213.0746133991444
 30
0.0
 42
0.0983500096457938
 50
270.0
  0
VERTEX
  5
3DA
  8
3
 10
550.65685424949311
 20
215.67846251373251
 30
0.0
 42
0.0986318836570832
 70
     2
 50
134.8907784520014
  0
VERTEX
  5
3DB
  8
3
 10
548.06001536786471
 20
217.4197366568394
 30
0.0
 42
0.0988321282103537
 50
134.8907784520014
  0
SEQEND
  5
3DC
  8
3
  0
LINE
  5
3DD
  8
1
 10
532.50000000000125
 20
210.0
 30
0.0
 11
557.50000000000125
 21
210.0
 31
0.0
  0
LINE
  5
3DE
  8
1
 10
569.99999999999955
 20
152.75352107745351
 30
0.0
 11
569.99999999999966
 21
257.84090277102109
 31
0.0
  0
LINE
  5
3DF
  8
1
 10
519.99999999999955
 20
152.75352107745351
 30
0.0
 11
519.99999999999966
 21
257.84090277102109
 31
0.0
  0
LINE
  5
3E0
  8
0
 10
503.50000000000131
 20
250.0000000000002
 30
0.0
 11
502.50000000000119
 21
249.0000000000002
 31
0.0
  0
LINE
  5
3E1
  8
0
 10
587.50000000000102
 20
161.0000000000002
 30
0.0
 11
586.50000000000091
 21
160.0000000000002
 31
0.0
  0
LINE
  5
3E2
  8
0
 10
502.50000000000108
 20
161.0000000000002
 30
0.0
 11
503.50000000000102
 21
160.0000000000002
 31
0.0
  0
LINE
  5
3E3
  8
0
 10
587.50000000000114
 20
249.0000000000002
 30
0.0
 11
586.50000000000114
 21
250.0000000000002
 31
0.0
  0
POLYLINE
  5
3E4
  8
3
 66
     1
 10
0.0
 20
0.0
 30
0.0
 70
     1
  0
VERTEX
  5
3E5
  8
3
 10
545.00000000000125
 20
243.03055870034771
 30
0.0
 42
0.0988321282103465
 50
270.0
  0
VERTEX
  5
3E6
  8
3
 10
541.93998463213825
 20
242.4197366568394
 30
0.0
 42
0.0986318836570982
 50
270.0
  0
VERTEX
  5
3E7
  8
3
 10
539.34314575050962
 20
240.67846251373251
 30
0.0
 42
0.0983500096457707
 70
     2
 50
225.10922154799849
  0
VERTEX
  5
3E8
  8
3
 10
537.45835780358027
 20
237.84772355609289
 30
0.0
 42
0.1164044402990869
 50
225.10922154799849
  0
VERTEX
  5
3E9
  8
3
 10
537.00000000000227
 20
235.0
 30
0.0
 42
0.0981516183769888
 50
270.0
  0
VERTEX
  5
3EA
  8
3
 10
537.60942762946843
 20
231.92538660085569
 30
0.0
 42
0.0983500096457938
 50
270.0
  0
VERTEX
  5
3EB
  8
3
 10
539.34314575050962
 20
229.32153748626769
 30
0.0
 42
0.0986318836570885
 70
     2
 50
314.89077845200148
  0
VERTEX
  5
3EC
  8
3
 10
541.93998463213836
 20
227.58026334316031
 30
0.0
 42
0.0988321282103357
 50
314.89077845200148
  0
VERTEX
  5
3ED
  8
3
 10
545.00000000000125
 20
226.96944129965229
 30
0.0
 42
0.0988321282103429
 50
270.0
  0
VERTEX
  5
3EE
  8
3
 10
548.06001536786437
 20
227.5802633431606
 30
0.0
 42
0.0986318836570725
 50
270.0
  0
VERTEX
  5
3EF
  8
3
 10
550.65685424949311
 20
229.32153748626769
 30
0.0
 42
0.098350009645802
 70
     2
 50
45.109221547998509
  0
VERTEX
  5
3F0
  8
3
 10
552.39057237053419
 20
231.92538660085569
 30
0.0
 42
0.0981516183769977
 50
45.109221547998509
  0
VERTEX
  5
3F1
  8
3
 10
553.00000000000045
 20
235.0
 30
0.0
 42
0.0981516183769923
 50
270.0
  0
VERTEX
  5
3F2
  8
3
 10
552.39057237053419
 20
238.0746133991444
 30
0.0
 42
0.0983500096457938
 50
270.0
  0
VERTEX
  5
3F3
  8
3
 10
550.65685424949311
 20
240.67846251373251
 30
0.0
 42
0.0986318836570832
 70
     2
 50
134.8907784520014
  0
VERTEX
  5
3F4
  8
3
 10
548.06001536786471
 20
242.4197366568394
 30
0.0
 42
0.0988321282103537
 50
134.8907784520014
  0
SEQEND
  5
3F5
  8
3
  0
POLYLINE
  5
3F6
  8
0
 66
     1
 10
0.0
 20
0.0
 30
0.0
 70
     1
  0
VERTEX
  5
3F7
  8
0
 10
545.00000000000125
 20
242.27769382218929
 30
0.0
 42
0.1020123768154575
 50
270.0
  0
VERTEX
  5
3F8
  8
0
 10
542.33442707152358
 20
241.7281319326155
 30
0.0
 42
0.0998807627473162
 50
270.0
  0
VERTEX
  5
3F9
  8
0
 10
540.05025253169617
 20
240.14610665306941
 30
0.0
 42
0.0970069589999634
 70
     2
 50
226.11423304190521
  0
VERTEX
  5
3FA
  8
0
 10
538.40210165230906
 20
237.58909481704879
 30
0.0
 42
0.1130067156392234
 50
226.11423304190521
  0
VERTEX
  5
3FB
  8
0
 10
538.00000000000216
 20
235.0
 30
0.0
 42
0.0950682713253105
 50
270.0
  0
VERTEX
  5
3FC
  8
0
 10
538.53689662089982
 20
232.20177849774649
 30
0.0
 42
0.0970069589999364
 50
270.0
  0
VERTEX
  5
3FD
  8
0
 10
540.05025253169617
 20
229.85389334693059
 30
0.0
 42
0.0998807627473281
 70
     2
 50
313.88576695809479
  0
VERTEX
  5
3FE
  8
0
 10
542.33442707152369
 20
228.2718680673845
 30
0.0
 42
0.1020123768154618
 50
313.88576695809479
  0
VERTEX
  5
3FF
  8
0
 10
545.00000000000125
 20
227.72230617781091
 30
0.0
 42
0.1020123768154618
 50
270.0
  0
VERTEX
  5
400
  8
0
 10
547.66557292847892
 20
228.2718680673845
 30
0.0
 42
0.0998807627473278
 50
270.0
  0
VERTEX
  5
401
  8
0
 10
549.94974746830644
 20
229.85389334693059
 30
0.0
 42
0.0970069589999194
 70
     2
 50
46.114233041905187
  0
VERTEX
  5
402
  8
0
 10
551.4631033791029
 20
232.20177849774649
 30
0.0
 42
0.0950682713252908
 50
46.114233041905187
  0
VERTEX
  5
403
  8
0
 10
552.00000000000023
 20
235.0
 30
0.0
 42
0.0950682713252922
 50
270.0
  0
VERTEX
  5
404
  8
0
 10
551.4631033791029
 20
237.7982215022532
 30
0.0
 42
0.0970069589999439
 50
270.0
  0
VERTEX
  5
405
  8
0
 10
549.94974746830644
 20
240.14610665306941
 30
0.0
 42
0.0998807627473164
 70
     2
 50
133.88576695809471
  0
VERTEX
  5
406
  8
0
 10
547.66557292847915
 20
241.7281319326155
 30
0.0
 42
0.1020123768154575
 50
133.88576695809471
  0
SEQEND
  5
407
  8
0
  0
INSERT
  5
408
  8
0
  2
112D50D2
 10
240.0
 20
160.0
 30
0.0
 50
90.0
  0
INSERT
  5
409
  8
0
  2
112D50D1
 10
215.04436959467799
 20
238.28394992426291
 30
0.0
 50
90.0
  0
TEXT
  5
56B
  8
0
 62
     3
 10
0.0
 20
0.0
 30
0.0
 40
10.0
  1
BJ112-16050
  7
STANDARD1
  0
ENDSEC
  0
EOF
