  0
SECTION
  2
HEADER
  9
$ACADVER
  1
AC1009
  9
$INSBASE
 10
0.0
 20
0.0
 30
0.0
  9
$EXTMIN
 10
0.0
 20
-2.960436562073669
 30
0.0
  9
$EXTMAX
 10
303.09299800000002
 20
222.69744600000001
 30
0.0
  9
$LIMMIN
 10
0.0
 20
0.0
  9
$LIMMAX
 10
375.0
 20
270.0
  9
$ORTHOMODE
 70
     0
  9
$REGENMODE
 70
     1
  9
$FILLMODE
 70
     1
  9
$QTEXTMODE
 70
     0
  9
$MIRRTEXT
 70
     0
  9
$DRAGMODE
 70
     2
  9
$LTSCALE
 40
10.0
  9
$OSMODE
 70
  3071
  9
$ATTMODE
 70
     1
  9
$TEXTSIZE
 40
0.2
  9
$TRACEWID
 40
0.05
  9
$TEXTSTYLE
  7
STANDARD
  9
$CLAYER
  8
2
  9
$CELTYPE
  6
BYLAYER
  9
$CECOLOR
 62
   256
  9
$DIMSCALE
 40
1.0
  9
$DIMASZ
 40
3.0
  9
$DIMEXO
 40
2.0
  9
$DIMDLI
 40
0.38
  9
$DIMRND
 40
0.0
  9
$DIMDLE
 40
0.0
  9
$DIMEXE
 40
2.0
  9
$DIMTP
 40
0.0
  9
$DIMTM
 40
0.0
  9
$DIMTXT
 40
3.0
  9
$DIMCEN
 40
0.0
  9
$DIMTSZ
 40
0.0
  9
$DIMTOL
 70
     0
  9
$DIMLIM
 70
     0
  9
$DIMTIH
 70
     0
  9
$DIMTOH
 70
     0
  9
$DIMSE1
 70
     0
  9
$DIMSE2
 70
     0
  9
$DIMTAD
 70
     1
  9
$DIMZIN
 70
     0
  9
$DIMBLK
  1

  9
$DIMASO
 70
     0
  9
$DIMSHO
 70
     0
  9
$DIMPOST
  1

  9
$DIMAPOST
  1

  9
$DIMALT
 70
     0
  9
$DIMALTD
 70
     2
  9
$DIMALTF
 40
25.399999999999999
  9
$DIMLFAC
 40
1.0
  9
$DIMTOFL
 70
     1
  9
$DIMTVP
 40
1.6000000000000001
  9
$DIMTIX
 70
     1
  9
$DIMSOXD
 70
     0
  9
$DIMSAH
 70
     0
  9
$DIMBLK1
  1

  9
$DIMBLK2
  1

  9
$DIMSTYLE
  2
STANDARD
  9
$DIMCLRD
 70
     0
  9
$DIMCLRE
 70
     0
  9
$DIMCLRT
 70
     0
  9
$DIMTFAC
 40
1.0
  9
$DIMGAP
 40
0.09
  9
$LUNITS
 70
     2
  9
$LUPREC
 70
     4
  9
$SKETCHINC
 40
0.1
  9
$FILLETRAD
 40
0.0
  9
$AUNITS
 70
     0
  9
$AUPREC
 70
     4
  9
$MENU
  1
E:\r13\win\SUPPORT\ACAD
  9
$ELEVATION
 40
0.0
  9
$PELEVATION
 40
0.0
  9
$THICKNESS
 40
0.0
  9
$LIMCHECK
 70
     0
  9
$BLIPMODE
 70
     0
  9
$CHAMFERA
 40
0.0
  9
$CHAMFERB
 40
0.0
  9
$SKPOLY
 70
     0
  9
$TDCREATE
 40
2449840.3502893518
  9
$TDUPDATE
 40
2456597.6198454858
  9
$TDINDWG
 40
0.0352002199
  9
$TDUSRTIMER
 40
2456518.269722118
  9
$USRTIMER
 70
     1
  9
$ANGBASE
 50
0.0
  9
$ANGDIR
 70
     0
  9
$PDMODE
 70
     0
  9
$PDSIZE
 40
0.0
  9
$PLINEWID
 40
0.0
  9
$COORDS
 70
     1
  9
$SPLFRAME
 70
     0
  9
$SPLINETYPE
 70
     6
  9
$SPLINESEGS
 70
     8
  9
$ATTDIA
 70
     0
  9
$ATTREQ
 70
     1
  9
$HANDLING
 70
     1
  9
$HANDSEED
  5
6D7
  9
$SURFTAB1
 70
     6
  9
$SURFTAB2
 70
     6
  9
$SURFTYPE
 70
     6
  9
$SURFU
 70
     6
  9
$SURFV
 70
     6
  9
$UCSNAME
  2

  9
$UCSORG
 10
0.0
 20
0.0
 30
0.0
  9
$UCSXDIR
 10
1.0
 20
0.0
 30
0.0
  9
$UCSYDIR
 10
0.0
 20
1.0
 30
0.0
  9
$PUCSNAME
  2

  9
$PUCSORG
 10
0.0
 20
0.0
 30
0.0
  9
$PUCSXDIR
 10
1.0
 20
0.0
 30
0.0
  9
$PUCSYDIR
 10
0.0
 20
1.0
 30
0.0
  9
$USERI1
 70
     3
  9
$USERI2
 70
     1
  9
$USERI3
 70
     0
  9
$USERI4
 70
     0
  9
$USERI5
 70
     0
  9
$USERR1
 40
1.0
  9
$USERR2
 40
3.0
  9
$USERR3
 40
3.0
  9
$USERR4
 40
3.0
  9
$USERR5
 40
10.0
  9
$WORLDVIEW
 70
     1
  9
$SHADEDGE
 70
     3
  9
$SHADEDIF
 70
    70
  9
$TILEMODE
 70
     1
  9
$MAXACTVP
 70
    16
  9
$PLIMCHECK
 70
     0
  9
$PEXTMIN
 10
1.0000000000000000E+020
 20
1.0000000000000000E+020
 30
1.0000000000000000E+020
  9
$PEXTMAX
 10
-1.0000000000000000E+020
 20
-1.0000000000000000E+020
 30
-1.0000000000000000E+020
  9
$PLIMMIN
 10
0.0
 20
0.0
  9
$PLIMMAX
 10
12.0
 20
9.0
  9
$UNITMODE
 70
     0
  9
$VISRETAIN
 70
     0
  9
$PLINEGEN
 70
     0
  9
$PSLTSCALE
 70
     0
  0
ENDSEC
  0
SECTION
  2
TABLES
  0
TABLE
  2
VPORT
 70
     1
  0
VPORT
  2
*ACTIVE
 70
     0
 10
0.0
 20
0.0
 11
1.0
 21
1.0
 12
187.49427839065231
 22
191.41710799499691
 13
0.0
 23
0.0
 14
5.0
 24
5.0
 15
10.0
 25
10.0
 16
0.0
 26
0.0
 36
1.0
 17
0.0
 27
0.0
 37
0.0
 40
392.30556364789771
 41
1.831871345029239
 42
50.0
 43
0.0
 44
0.0
 50
0.0
 51
0.0
 71
    16
 72
   100
 73
     1
 74
     0
 75
     0
 76
     0
 77
     0
 78
     2
  0
ENDTAB
  0
TABLE
  2
LTYPE
 70
     4
  0
LTYPE
  2
CONTINUOUS
 70
     0
  3
Solid Line
 72
    65
 73
     0
 40
0.0
  0
LTYPE
  2
PHANTOM2
 70
     0
  3
___ _ _ ___ _ _ ___ _ _ ___ _ _
 72
    65
 73
     6
 40
1.25
 49
0.625
 49
-0.125
 49
0.125
 49
-0.125
 49
0.125
 49
-0.125
  0
LTYPE
  2
CENTER
 70
     0
  3
____ _ ____ _ ____ _ ____ _ ____ _ ____ _ ____
 72
    65
 73
     4
 40
2.0
 49
1.25
 49
-0.25
 49
0.25
 49
-0.25
  0
LTYPE
  2
HIDDEN
 70
     0
  3
_ _ _ _ _ _ _ _ _ _ _ _ _ _ _ _ _ _ _ _ _ _ _
 72
    65
 73
     2
 40
0.375
 49
0.25
 49
-0.125
  0
ENDTAB
  0
TABLE
  2
LAYER
 70
     4
  0
LAYER
  2
0
 70
     0
 62
     7
  6
CONTINUOUS
  0
LAYER
  2
2
 70
     0
 62
     2
  6
HIDDEN
  0
LAYER
  2
1
 70
     0
 62
     1
  6
CENTER
  0
LAYER
  2
3
 70
     0
 62
     3
  6
CONTINUOUS
  0
ENDTAB
  0
TABLE
  2
STYLE
 70
     3
  0
STYLE
  2
STANDARD
 70
     0
 40
0.0
 41
1.0
 50
0.0
 71
     0
 42
0.2
  3
TXT
  4
BIGFONT
  0
STYLE
  2
ANNOTATIVE
 70
     0
 40
0.0
 41
1.0
 50
0.0
 71
     0
 42
0.2
  3
txt
  4

  0
STYLE
  2
STANDARD1
 70
     0
 40
0.0
 41
1.0
 50
0.0
 71
     0
 42
3.0
  3
txt
  4

  0
ENDTAB
  0
TABLE
  2
VIEW
 70
     1
  0
VIEW
  2
ALL
 70
     0
 40
270.0
 10
220.99159700000001
 20
135.0
 41
0.0
 11
0.0
 21
0.0
 31
1.0
 12
0.0
 22
0.0
 32
0.0
 42
0.0
 43
0.0
 44
0.0
 50
0.0
 71
     0
  0
ENDTAB
  0
TABLE
  2
UCS
 70
     0
  0
ENDTAB
  0
TABLE
  2
APPID
 70
     5
  0
APPID
  2
ACAD
 70
     0
  0
APPID
  2
ACADANNOTATIVE
 70
     0
  0
APPID
  2
ACAD_MLEADERVER
 70
     0
  0
APPID
  2
ACAD_EXEMPT_FROM_CAD_STANDARDS
 70
     0
  0
APPID
  2
ACAD_NAV_VCDISPLAY
 70
     0
  0
ENDTAB
  0
TABLE
  2
DIMSTYLE
 70
     2
  0
DIMSTYLE
  2
STANDARD
 70
     0
  3

  4

  5

  6

  7

 40
1.0
 41
0.18
 42
0.0625
 43
0.38
 44
0.18
 45
0.0
 46
0.0
 47
0.0
 48
0.0
140
0.18
141
0.09
142
0.0
143
25.399999999999999
144
1.0
145
0.0
146
1.0
147
0.09
 71
     0
 72
     0
 73
     1
 74
     1
 75
     0
 76
     0
 77
     0
 78
     0
170
     0
171
     2
172
     0
173
     0
174
     0
175
     0
176
     0
177
     0
178
     0
  0
DIMSTYLE
  2
ANNOTATIVE
 70
     0
  3

  4

  5

  6

  7

 40
1.0
 41
0.18
 42
0.0625
 43
0.38
 44
0.18
 45
0.0
 46
0.0
 47
0.0
 48
0.0
140
0.18
141
0.09
142
0.0
143
25.399999999999999
144
1.0
145
0.0
146
1.0
147
0.09
 71
     0
 72
     0
 73
     1
 74
     1
 75
     0
 76
     0
 77
     0
 78
     0
170
     0
171
     2
172
     0
173
     0
174
     0
175
     0
176
     0
177
     0
178
     0
  0
ENDTAB
  0
ENDSEC
  0
SECTION
  2
BLOCKS
  0
BLOCK
  8
0
  2
$MODEL_SPACE
 70
     0
 10
0.0
 20
0.0
 30
0.0
  3
$MODEL_SPACE
  1

  0
ENDBLK
  5
609
  8
0
  0
BLOCK
 67
     1
  8
0
  2
$PAPER_SPACE
 70
     0
 10
0.0
 20
0.0
 30
0.0
  3
$PAPER_SPACE
  1

  0
ENDBLK
  5
605
 67
     1
  8
0
  0
BLOCK
  8
0
  2
STDGX5
 70
     0
 10
0.0
 20
0.0
 30
0.0
  3
STDGX5
  1

  0
ENDBLK
  5
10D
  8
0
  0
ENDSEC
  0
SECTION
  2
ENTITIES
  0
INSERT
  5
148
  8
0
  2
STDGX5
 10
0.0
 20
0.0
 30
0.0
  0
INSERT
  5
14A
  8
0
  2
STDGX5
 10
0.0
 20
0.0
 30
0.0
  0
INSERT
  5
14B
  8
0
  2
STDGX5
 10
0.0
 20
0.0
 30
0.0
  0
INSERT
  5
14C
  8
0
  2
STDGX5
 10
0.0
 20
0.0
 30
0.0
  0
LINE
  5
2AE
  8
0
 10
298.5156980000001
 20
124.92814
 30
0.0
 11
298.17139800000001
 21
123.92814
 31
0.0
  0
LINE
  5
2AF
  8
0
 10
283.670298
 20
124.92814
 30
0.0
 11
284.01459799999998
 21
123.92814
 31
0.0
  0
LINE
  5
2B0
  8
0
 10
280.59299800000002
 20
135.92814000000001
 30
0.0
 11
286.09299800000002
 21
130.92814000000001
 31
0.0
  0
LINE
  5
2B1
  8
0
 10
301.59299800000002
 20
135.92814000000001
 30
0.0
 11
296.09299800000002
 21
130.92814000000001
 31
0.0
  0
LINE
  5
2B2
  8
0
 10
286.09299800000002
 20
130.92814000000001
 30
0.0
 11
286.09299800000002
 21
123.92814
 31
0.0
  0
LINE
  5
2B3
  8
0
 10
296.09299800000002
 20
130.92814000000001
 30
0.0
 11
296.09299800000002
 21
123.92814
 31
0.0
  0
LINE
  5
2B4
  8
0
 10
283.670298
 20
124.92814
 30
0.0
 11
280.59299800000002
 21
124.92814
 31
0.0
  0
LINE
  5
2B5
  8
0
 10
286.09299800000002
 20
130.92814000000001
 30
0.0
 11
296.09299800000002
 21
130.92814000000001
 31
0.0
  0
LINE
  5
2B7
  8
0
 10
297.59299800000002
 20
137.42814000000001
 30
0.0
 11
284.59299800000002
 21
137.42814000000001
 31
0.0
  0
LINE
  5
2B8
  8
0
 10
285.459023
 20
137.9281399999999
 30
0.0
 11
296.72697299999999
 21
137.9281399999999
 31
0.0
  0
LINE
  5
2B9
  8
0
 10
285.459023
 20
137.9281399999999
 30
0.0
 11
284.59299800000002
 21
137.42814000000001
 31
0.0
  0
LINE
  5
2BA
  8
0
 10
284.59299800000002
 20
137.42814000000001
 30
0.0
 11
284.59299800000002
 21
135.92814000000001
 31
0.0
  0
LINE
  5
2BB
  8
0
 10
297.59299800000002
 20
137.42814000000001
 30
0.0
 11
297.59299800000002
 21
135.92814000000001
 31
0.0
  0
LINE
  5
2BC
  8
0
 10
296.72697299999999
 20
137.9281399999999
 30
0.0
 11
297.59299800000002
 21
137.42814000000001
 31
0.0
  0
LINE
  5
2BD
  8
2
 10
282.09299800000002
 20
122.98652
 30
0.0
 11
300.09299800000002
 21
122.98652
 31
0.0
  0
LINE
  5
2BE
  8
0
 10
280.09299800000002
 20
135.42814000000001
 30
0.0
 11
280.09299800000002
 21
125.4281399999999
 31
0.0
  0
LINE
  5
2BF
  8
0
 10
302.09299800000002
 20
135.42814000000001
 30
0.0
 11
302.09299800000002
 21
125.4281399999999
 31
0.0
  0
LINE
  5
2C0
  8
0
 10
280.59299800000002
 20
135.92814000000001
 30
0.0
 11
301.59299800000002
 21
135.92814000000001
 31
0.0
  0
ARC
  5
2C1
  8
0
 10
280.59299800000002
 20
135.42814000000001
 30
0.0
 40
0.5
 50
90.0
 51
180.0
  0
ARC
  5
2C2
  8
0
 10
301.59299800000002
 20
135.42814000000001
 30
0.0
 40
0.5
 50
0.000000000000007
 51
90.0
  0
LINE
  5
2C3
  8
0
 10
301.59299800000002
 20
124.92814
 30
0.0
 11
298.5156980000001
 21
124.92814
 31
0.0
  0
ARC
  5
2C4
  8
0
 10
301.59299800000002
 20
125.4281399999999
 30
0.0
 40
0.5
 50
270.0
 51
0.000000000000007
  0
ARC
  5
2C5
  8
0
 10
280.59299800000002
 20
125.4281399999999
 30
0.0
 40
0.5
 50
180.0
 51
270.0
  0
LINE
  5
2C6
  8
0
 10
282.59299800000002
 20
123.92814
 30
0.0
 11
282.59299800000002
 21
124.12814
 31
0.0
  0
ARC
  5
2C7
  8
2
 10
281.79299800000001
 20
123.72814
 30
0.0
 40
0.8
 50
292.02431299999841
 51
0.000000000000007
  0
ARC
  5
2C8
  8
2
 10
300.39299799999998
 20
123.72814
 30
0.0
 40
0.8
 50
180.0
 51
247.97568700000161
  0
ARC
  5
2C9
  8
0
 10
300.39299799999998
 20
124.12814
 30
0.0
 40
0.8
 50
90.0
 51
180.0
  0
LINE
  5
2CA
  8
0
 10
299.59299800000002
 20
123.92814
 30
0.0
 11
299.59299800000002
 21
124.12814
 31
0.0
  0
ARC
  5
2CB
  8
0
 10
281.79299800000001
 20
124.12814
 30
0.0
 40
0.8
 50
0.000000000000007
 51
90.0
  0
LINE
  5
2CC
  8
2
 10
294.49299800000011
 20
100.92814
 30
0.0
 11
294.49299800000011
 21
80.528139999999993
 31
0.0
  0
LINE
  5
2CD
  8
2
 10
295.09299800000002
 20
100.92814
 30
0.0
 11
295.09299800000002
 21
81.128140000000002
 31
0.0
  0
LINE
  5
2CE
  8
2
 10
287.69299799999999
 20
100.92814
 30
0.0
 11
287.69299799999999
 21
80.528139999999993
 31
0.0
  0
LINE
  5
2CF
  8
2
 10
287.09299800000002
 20
100.92814
 30
0.0
 11
287.09299800000002
 21
81.128140000000002
 31
0.0
  0
LINE
  5
2D0
  8
2
 10
295.09299800000002
 20
81.128140000000002
 30
0.0
 11
293.89299800000009
 21
79.928139999999999
 31
0.0
  0
LINE
  5
2D1
  8
2
 10
287.09299800000002
 20
81.128140000000002
 30
0.0
 11
288.29299800000001
 21
79.928139999999999
 31
0.0
  0
LINE
  5
2D2
  8
2
 10
295.09299800000002
 20
81.128140000000002
 30
0.0
 11
287.09299800000002
 21
81.128140000000002
 31
0.0
  0
LINE
  5
2D3
  8
2
 10
293.89299800000009
 20
79.928139999999999
 30
0.0
 11
288.29299800000001
 21
79.928139999999999
 31
0.0
  0
LINE
  5
2D4
  8
2
 10
300.09299800000002
 20
101.42814
 30
0.0
 11
282.09299800000002
 21
101.42814
 31
0.0
  0
LINE
  5
2D5
  8
2
 10
282.59299800000002
 20
100.92814
 30
0.0
 11
282.09299800000002
 21
101.42814
 31
0.0
  0
LINE
  5
2D6
  8
2
 10
299.59299800000002
 20
100.92814
 30
0.0
 11
300.09299800000002
 21
101.42814
 31
0.0
  0
LINE
  5
2D7
  8
2
 10
282.59299800000002
 20
100.92814
 30
0.0
 11
299.59299800000002
 21
100.92814
 31
0.0
  0
LINE
  5
2D8
  8
2
 10
282.09299800000002
 20
122.98652
 30
0.0
 11
282.09299800000002
 21
101.42814
 31
0.0
  0
LINE
  5
2D9
  8
2
 10
300.09299800000002
 20
122.98652
 30
0.0
 11
300.09299800000002
 21
101.42814
 31
0.0
  0
LINE
  5
2DA
  8
1
 10
291.09299800000002
 20
147.92814000000001
 30
0.0
 11
291.09299800000002
 21
39.928140000000042
 31
0.0
  0
ARC
  5
2DB
  8
0
 10
285.59299800000002
 20
93.577686999999983
 30
0.0
 40
15.226924
 50
254.17136800000031
 51
285.82863199999969
  0
ARC
  5
2DC
  8
0
 10
285.59299800000002
 20
77.278593000000001
 30
0.0
 40
15.226924
 50
74.171368000000285
 51
105.8286319999997
  0
LINE
  5
2DD
  8
0
 10
289.74630999999999
 20
91.928140000000013
 30
0.0
 11
289.74630999999999
 21
78.928139999999999
 31
0.0
  0
LINE
  5
2DE
  8
0
 10
281.43968599999999
 20
91.928140000000013
 30
0.0
 11
281.43968599999999
 21
78.928139999999999
 31
0.0
  0
LINE
  5
2DF
  8
0
 10
289.74630999999999
 20
78.928139999999999
 30
0.0
 11
281.43968599999999
 21
78.928139999999999
 31
0.0
  0
LINE
  5
2E0
  8
0
 10
289.74630999999999
 20
91.928140000000013
 30
0.0
 11
281.43968599999999
 21
91.928140000000013
 31
0.0
  0
ARC
  5
2E1
  8
0
 10
294.74299800000011
 20
68.528139999999993
 30
0.0
 40
0.4
 50
90.0
 51
180.0
  0
ARC
  5
2E2
  8
0
 10
287.44299799999999
 20
68.528139999999993
 30
0.0
 40
0.4
 50
0.000000000000007
 51
90.0
  0
LINE
  5
2E3
  8
0
 10
287.09299800000002
 20
66.428139999999999
 30
0.0
 11
287.44299799999999
 21
66.428139999999999
 31
0.0
  0
LINE
  5
2E4
  8
0
 10
302.59299800000002
 20
68.928139999999999
 30
0.0
 11
279.59299800000002
 21
68.928139999999999
 31
0.0
  0
LINE
  5
2E6
  8
0
 10
279.09299800000002
 20
69.428139999999999
 30
0.0
 11
279.09299800000002
 21
78.350763000000001
 31
0.0
  0
LINE
  5
2E7
  8
0
 10
279.59299800000002
 20
123.92814
 30
0.0
 11
302.59299800000002
 21
123.92814
 31
0.0
  0
LINE
  5
2E8
  8
0
 10
287.09299800000002
 20
66.428139999999999
 30
0.0
 11
287.09299800000002
 21
51.128140000000002
 31
0.0
  0
LINE
  5
2E9
  8
3
 10
287.69299799999999
 20
66.428139999999999
 30
0.0
 11
287.69299799999999
 21
50.52814
 31
0.0
  0
LINE
  5
2EA
  8
3
 10
294.49299800000011
 20
66.428139999999999
 30
0.0
 11
294.49299800000011
 21
50.52814
 31
0.0
  0
LINE
  5
2EB
  8
0
 10
295.09299800000002
 20
66.428139999999999
 30
0.0
 11
295.09299800000002
 21
51.128140000000002
 31
0.0
  0
LINE
  5
2EC
  8
0
 10
288.29299800000001
 20
49.928139999999999
 30
0.0
 11
293.89299800000009
 21
49.928139999999999
 31
0.0
  0
LINE
  5
2ED
  8
0
 10
295.09299800000002
 20
66.428139999999999
 30
0.0
 11
287.44299999999998
 21
66.428139999999999
 31
0.0
  0
LINE
  5
2EE
  8
0
 10
294.34299800000002
 20
68.528139999999993
 30
0.0
 11
294.34299800000002
 21
66.828136999999998
 31
0.0
  0
LINE
  5
2EF
  8
0
 10
295.09299800000002
 20
51.128140000000002
 30
0.0
 11
293.89299800000009
 21
49.928139999999999
 31
0.0
  0
LINE
  5
2F0
  8
0
 10
288.29299800000001
 20
49.928139999999999
 30
0.0
 11
287.09299800000002
 21
51.128140000000002
 31
0.0
  0
LINE
  5
2F1
  8
0
 10
287.09299800000002
 20
51.128140000000002
 30
0.0
 11
295.09299800000002
 21
51.128140000000002
 31
0.0
  0
LINE
  5
2F2
  8
0
 10
279.09299800000002
 20
92.505516999999998
 30
0.0
 11
279.09299800000002
 21
123.42814
 31
0.0
  0
LINE
  5
2F3
  8
0
 10
292.43968600000011
 20
91.928140000000013
 30
0.0
 11
300.74630999999999
 21
91.928140000000013
 31
0.0
  0
LINE
  5
2F4
  8
0
 10
302.09295100000008
 20
91.928140000000013
 30
0.0
 11
302.09295100000008
 21
78.928139999999999
 31
0.0
  0
LINE
  5
2F5
  8
0
 10
292.43968600000011
 20
78.928139999999999
 30
0.0
 11
300.74630999999999
 21
78.928139999999999
 31
0.0
  0
LINE
  5
2F6
  8
0
 10
303.09299800000002
 20
92.505516999999998
 30
0.0
 11
303.09299800000002
 21
123.42814
 31
0.0
  0
LINE
  5
2F7
  8
0
 10
303.09299800000002
 20
69.428139999999999
 30
0.0
 11
303.09299800000002
 21
78.350763000000001
 31
0.0
  0
ARC
  5
2F8
  8
0
 10
294.74299800000011
 20
66.828140000000005
 30
0.0
 40
0.4
 50
180.0
 51
270.0
  0
ARC
  5
2F9
  8
0
 10
287.44299799999999
 20
66.828140000000005
 30
0.0
 40
0.4
 50
270.0
 51
0.000000000000007
  0
LINE
  5
2FA
  8
0
 10
287.84299800000002
 20
68.528139999999993
 30
0.0
 11
287.84299800000002
 21
66.828140000000005
 31
0.0
  0
LINE
  5
2FB
  8
0
 10
300.74630999999999
 20
91.928140000000013
 30
0.0
 11
300.74630999999999
 21
78.928139999999999
 31
0.0
  0
LINE
  5
2FC
  8
0
 10
292.43968600000011
 20
91.928140000000013
 30
0.0
 11
292.43968600000011
 21
78.928139999999999
 31
0.0
  0
LINE
  5
2FD
  8
0
 10
302.09295100000008
 20
91.928140000000013
 30
0.0
 11
303.09299800000002
 21
92.505516999999998
 31
0.0
  0
LINE
  5
2FE
  8
0
 10
302.09295100000008
 20
78.928139999999999
 30
0.0
 11
303.09299800000002
 21
78.350763000000001
 31
0.0
  0
ARC
  5
2FF
  8
0
 10
296.59299800000002
 20
77.278593000000001
 30
0.0
 40
15.226924
 50
74.171368000000285
 51
105.8286319999997
  0
ARC
  5
300
  8
0
 10
296.59299800000002
 20
93.577686999999983
 30
0.0
 40
15.226924
 50
254.17136800000031
 51
285.82863199999969
  0
LINE
  5
301
  8
0
 10
280.09304500000002
 20
78.928139999999999
 30
0.0
 11
279.09299800000002
 21
78.350763000000001
 31
0.0
  0
LINE
  5
302
  8
0
 10
280.09304500000002
 20
91.928140000000013
 30
0.0
 11
279.09299800000002
 21
92.505516999999998
 31
0.0
  0
LINE
  5
303
  8
0
 10
280.09304500000002
 20
91.928140000000013
 30
0.0
 11
280.09304500000002
 21
78.928139999999999
 31
0.0
  0
LINE
  5
304
  8
0
 10
302.59299800000002
 20
68.928139999999999
 30
0.0
 11
303.09299800000002
 21
69.428139999999999
 31
0.0
  0
LINE
  5
305
  8
0
 10
303.09299800000002
 20
123.42814
 30
0.0
 11
302.59299800000002
 21
123.92814
 31
0.0
  0
LINE
  5
306
  8
0
 10
279.59299800000002
 20
123.92814
 30
0.0
 11
279.09299800000002
 21
123.42814
 31
0.0
  0
LINE
  5
307
  8
0
 10
279.59299800000002
 20
68.928139999999999
 30
0.0
 11
279.09299800000002
 21
69.428139999999999
 31
0.0
  0
LINE
  5
308
  8
0
 10
205.25525099999999
 20
123.92814
 30
0.0
 11
204.25525099999999
 21
124.92814
 31
0.0
  0
LINE
  5
309
  8
0
 10
211.53041200000001
 20
123.92814
 30
0.0
 11
205.25525099999999
 21
123.92814
 31
0.0
  0
LINE
  5
30A
  8
0
 10
181.53041200000001
 20
135.92814000000001
 30
0.0
 11
200.43915200000001
 21
135.92814000000001
 31
0.0
  0
LINE
  5
30B
  8
0
 10
212.03041200000001
 20
130.633938
 30
0.0
 11
212.03041200000001
 21
124.42814
 31
0.0
  0
ARC
  5
30C
  8
0
 10
211.53041200000001
 20
124.42814
 30
0.0
 40
0.5
 50
270.0
 51
0.000000000000007
  0
LINE
  5
30D
  8
0
 10
211.773233
 20
131.07101700000001
 30
0.0
 11
205.295581
 21
134.669713
 31
0.0
  0
ARC
  5
30E
  8
0
 10
200.43915200000001
 20
125.92814
 30
0.0
 40
10.0
 50
60.945396000001281
 51
90.0
  0
ARC
  5
30F
  8
0
 10
211.53041200000001
 20
130.633938
 30
0.0
 40
0.5
 50
0.000000000000007
 51
60.945395999998183
  0
LINE
  5
310
  8
2
 10
183.03041200000001
 20
122.98652
 30
0.0
 11
183.03041200000001
 21
101.42814
 31
0.0
  0
LINE
  5
311
  8
2
 10
183.53041200000001
 20
100.92814
 30
0.0
 11
200.53041200000001
 21
100.92814
 31
0.0
  0
LINE
  5
312
  8
2
 10
200.53041200000001
 20
100.92814
 30
0.0
 11
201.03041200000001
 21
101.42814
 31
0.0
  0
LINE
  5
313
  8
2
 10
183.53041200000001
 20
100.92814
 30
0.0
 11
183.03041200000001
 21
101.42814
 31
0.0
  0
LINE
  5
314
  8
0
 10
183.53041200000001
 20
123.92814
 30
0.0
 11
183.53041200000001
 21
124.12814
 31
0.0
  0
ARC
  5
315
  8
2
 10
182.730412
 20
123.72814
 30
0.0
 40
0.8
 50
292.02431300000171
 51
0.000000000000007
  0
ARC
  5
316
  8
2
 10
201.330412
 20
123.72814
 30
0.0
 40
0.8
 50
180.0
 51
247.9756869999984
  0
ARC
  5
317
  8
0
 10
201.330412
 20
124.12814
 30
0.0
 40
0.8
 50
90.0
 51
180.0
  0
LINE
  5
318
  8
0
 10
200.53041200000001
 20
123.92814
 30
0.0
 11
200.53041200000001
 21
124.12814
 31
0.0
  0
LINE
  5
319
  8
2
 10
201.03041200000001
 20
122.98652
 30
0.0
 11
201.03041200000001
 21
101.42814
 31
0.0
  0
LINE
  5
31A
  8
2
 10
201.03041200000001
 20
122.98652
 30
0.0
 11
183.03041200000001
 21
122.98652
 31
0.0
  0
LINE
  5
31B
  8
2
 10
201.03041200000001
 20
101.42814
 30
0.0
 11
183.03041200000001
 21
101.42814
 31
0.0
  0
LINE
  5
31C
  8
1
 10
192.03041200000001
 20
147.92814000000001
 30
0.0
 11
192.03041200000001
 21
39.928139999999999
 31
0.0
  0
LINE
  5
31D
  8
0
 10
197.664387
 20
137.9281399999999
 30
0.0
 11
198.53041200000001
 21
137.42814000000001
 31
0.0
  0
LINE
  5
31E
  8
0
 10
198.53041200000001
 20
137.42814000000001
 30
0.0
 11
198.53041200000001
 21
135.92814000000001
 31
0.0
  0
LINE
  5
31F
  8
0
 10
185.53041200000001
 20
137.42814000000001
 30
0.0
 11
185.53041200000001
 21
135.92814000000001
 31
0.0
  0
LINE
  5
320
  8
0
 10
186.39643699999999
 20
137.9281399999999
 30
0.0
 11
185.53041200000001
 21
137.42814000000001
 31
0.0
  0
LINE
  5
321
  8
0
 10
186.39643699999999
 20
137.9281399999999
 30
0.0
 11
197.664387
 21
137.9281399999999
 31
0.0
  0
LINE
  5
322
  8
2
 10
194.830412
 20
79.928139999999999
 30
0.0
 11
189.230412
 21
79.928139999999999
 31
0.0
  0
LINE
  5
323
  8
2
 10
196.03041200000001
 20
81.128140000000002
 30
0.0
 11
188.03041200000001
 21
81.128140000000002
 31
0.0
  0
LINE
  5
324
  8
2
 10
188.03041200000001
 20
81.128140000000002
 30
0.0
 11
189.230412
 21
79.928139999999999
 31
0.0
  0
LINE
  5
325
  8
2
 10
196.03041200000001
 20
81.128140000000002
 30
0.0
 11
194.830412
 21
79.928139999999999
 31
0.0
  0
LINE
  5
326
  8
0
 10
198.53041200000001
 20
137.42814000000001
 30
0.0
 11
185.53041200000001
 21
137.42814000000001
 31
0.0
  0
LINE
  5
327
  8
2
 10
188.03041200000001
 20
100.92814
 30
0.0
 11
188.03041200000001
 21
81.128140000000002
 31
0.0
  0
LINE
  5
328
  8
2
 10
188.63041200000001
 20
100.92814
 30
0.0
 11
188.63041200000001
 21
80.528139999999993
 31
0.0
  0
LINE
  5
329
  8
2
 10
196.03041200000001
 20
100.92814
 30
0.0
 11
196.03041200000001
 21
81.128140000000002
 31
0.0
  0
LINE
  5
32A
  8
2
 10
195.43041199999999
 20
100.92814
 30
0.0
 11
195.43041199999999
 21
80.528139999999993
 31
0.0
  0
ARC
  5
32C
  8
0
 10
182.730412
 20
124.12814
 30
0.0
 40
0.8
 50
0.000000000000007
 51
90.0
  0
ARC
  5
32D
  8
0
 10
181.53041200000001
 20
125.4281399999999
 30
0.0
 40
0.5
 50
180.0
 51
270.0
  0
ARC
  5
32E
  8
0
 10
181.53041200000001
 20
135.42814000000001
 30
0.0
 40
0.5
 50
90.0
 51
180.0
  0
LINE
  5
32F
  8
0
 10
181.03041200000001
 20
135.42814000000001
 30
0.0
 11
181.03041200000001
 21
125.4281399999999
 31
0.0
  0
LINE
  5
330
  8
0
 10
204.25525099999999
 20
124.92814
 30
0.0
 11
181.53041200000001
 21
124.92814
 31
0.0
  0
ARC
  5
331
  8
0
 10
85.267955000000029
 20
124.12814
 30
0.0
 40
0.8
 50
0.000000000000007
 51
90.0
  0
LINE
  5
332
  8
0
 10
103.067955
 20
123.92814
 30
0.0
 11
103.067955
 21
124.12814
 31
0.0
  0
ARC
  5
333
  8
0
 10
103.86795499999999
 20
124.12814
 30
0.0
 40
0.8
 50
90.0
 51
180.0
  0
ARC
  5
334
  8
2
 10
103.86795499999999
 20
123.72814
 30
0.0
 40
0.8
 50
180.0
 51
247.9756869999984
  0
ARC
  5
335
  8
2
 10
85.267955000000029
 20
123.72814
 30
0.0
 40
0.8
 50
292.02431300000171
 51
0.000000000000007
  0
LINE
  5
336
  8
0
 10
86.06795500000004
 20
123.92814
 30
0.0
 11
86.06795500000004
 21
124.12814
 31
0.0
  0
ARC
  5
337
  8
0
 10
84.067955000000055
 20
125.4281399999999
 30
0.0
 40
0.5
 50
180.0
 51
270.0
  0
ARC
  5
338
  8
0
 10
105.067955
 20
125.4281399999999
 30
0.0
 40
0.5
 50
270.0
 51
0.000000000000007
  0
LINE
  5
339
  8
0
 10
105.067955
 20
124.92814
 30
0.0
 11
84.067955000000055
 21
124.92814
 31
0.0
  0
ARC
  5
33A
  8
0
 10
105.067955
 20
135.42814000000001
 30
0.0
 40
0.5
 50
0.000000000000007
 51
90.0
  0
ARC
  5
33B
  8
0
 10
84.067955000000055
 20
135.42814000000001
 30
0.0
 40
0.5
 50
90.0
 51
180.0
  0
LINE
  5
33C
  8
0
 10
84.067955000000055
 20
135.92814000000001
 30
0.0
 11
105.067955
 21
135.92814000000001
 31
0.0
  0
LINE
  5
33D
  8
0
 10
105.567955
 20
135.42814000000001
 30
0.0
 11
105.567955
 21
125.4281399999999
 31
0.0
  0
LINE
  5
33E
  8
0
 10
83.567955000000055
 20
135.42814000000001
 30
0.0
 11
83.567955000000055
 21
125.4281399999999
 31
0.0
  0
LINE
  5
33F
  8
2
 10
103.567955
 20
122.98652
 30
0.0
 11
103.567955
 21
101.42814
 31
0.0
  0
LINE
  5
340
  8
2
 10
85.567955000000055
 20
122.98652
 30
0.0
 11
85.567955000000055
 21
101.42814
 31
0.0
  0
LINE
  5
341
  8
2
 10
86.06795500000004
 20
100.92814
 30
0.0
 11
103.067955
 21
100.92814
 31
0.0
  0
LINE
  5
342
  8
2
 10
103.067955
 20
100.92814
 30
0.0
 11
103.567955
 21
101.42814
 31
0.0
  0
LINE
  5
343
  8
2
 10
86.06795500000004
 20
100.92814
 30
0.0
 11
85.567955000000055
 21
101.42814
 31
0.0
  0
LINE
  5
344
  8
2
 10
103.567955
 20
101.42814
 30
0.0
 11
85.567955000000055
 21
101.42814
 31
0.0
  0
LINE
  5
345
  8
2
 10
97.367955000000066
 20
79.928139999999999
 30
0.0
 11
91.767955000000001
 21
79.928139999999999
 31
0.0
  0
LINE
  5
346
  8
2
 10
98.56795500000004
 20
81.128140000000002
 30
0.0
 11
90.567955000000055
 21
81.128140000000002
 31
0.0
  0
LINE
  5
347
  8
2
 10
90.567955000000055
 20
81.128140000000002
 30
0.0
 11
91.767955000000001
 21
79.928139999999999
 31
0.0
  0
LINE
  5
348
  8
2
 10
98.56795500000004
 20
81.128140000000002
 30
0.0
 11
97.367955000000066
 21
79.928139999999999
 31
0.0
  0
LINE
  5
349
  8
2
 10
90.567955000000055
 20
100.92814
 30
0.0
 11
90.567955000000055
 21
81.128140000000002
 31
0.0
  0
LINE
  5
34A
  8
2
 10
91.167955000000063
 20
100.92814
 30
0.0
 11
91.167955000000063
 21
80.528139999999993
 31
0.0
  0
LINE
  5
34B
  8
2
 10
98.56795500000004
 20
100.92814
 30
0.0
 11
98.56795500000004
 21
81.128140000000002
 31
0.0
  0
LINE
  5
34C
  8
2
 10
97.967955000000003
 20
100.92814
 30
0.0
 11
97.967955000000003
 21
80.528139999999993
 31
0.0
  0
LINE
  5
34D
  8
2
 10
85.567955000000055
 20
122.98652
 30
0.0
 11
103.567955
 21
122.98652
 31
0.0
  0
LINE
  5
34E
  8
0
 10
100.20193
 20
137.9281399999999
 30
0.0
 11
101.067955
 21
137.42814000000001
 31
0.0
  0
LINE
  5
34F
  8
0
 10
101.067955
 20
137.42814000000001
 30
0.0
 11
101.067955
 21
135.92814000000001
 31
0.0
  0
LINE
  5
350
  8
0
 10
88.067955000000055
 20
137.42814000000001
 30
0.0
 11
88.067955000000055
 21
135.92814000000001
 31
0.0
  0
LINE
  5
351
  8
0
 10
88.933980000000034
 20
137.9281399999999
 30
0.0
 11
88.067955000000055
 21
137.42814000000001
 31
0.0
  0
LINE
  5
352
  8
0
 10
88.933980000000034
 20
137.9281399999999
 30
0.0
 11
100.20193
 21
137.9281399999999
 31
0.0
  0
LINE
  5
353
  8
0
 10
101.067955
 20
137.42814000000001
 30
0.0
 11
88.067955000000055
 21
137.42814000000001
 31
0.0
  0
LINE
  5
354
  8
1
 10
94.567955000000012
 20
147.92814000000001
 30
0.0
 11
94.567955000000012
 21
39.928140000000042
 31
0.0
  0
ARC
  5
355
  8
0
 10
89.06795500000004
 20
93.577686999999983
 30
0.0
 40
15.226924
 50
254.17136800000031
 51
285.82863199999969
  0
ARC
  5
356
  8
0
 10
89.06795500000004
 20
77.278593000000001
 30
0.0
 40
15.226924
 50
74.171368000000285
 51
105.8286319999997
  0
LINE
  5
357
  8
0
 10
93.221267000000054
 20
91.928140000000013
 30
0.0
 11
93.221267000000054
 21
78.928139999999999
 31
0.0
  0
LINE
  5
358
  8
0
 10
84.914643000000083
 20
91.928140000000013
 30
0.0
 11
84.914643000000083
 21
78.928139999999999
 31
0.0
  0
LINE
  5
359
  8
0
 10
93.221267000000054
 20
78.928139999999999
 30
0.0
 11
84.914643000000083
 21
78.928139999999999
 31
0.0
  0
LINE
  5
35A
  8
0
 10
93.221267000000054
 20
91.928140000000013
 30
0.0
 11
84.914643000000083
 21
91.928140000000013
 31
0.0
  0
ARC
  5
35B
  8
0
 10
98.217955000000003
 20
68.528139999999993
 30
0.0
 40
0.4
 50
90.0
 51
180.0
  0
ARC
  5
35C
  8
0
 10
90.917955000000063
 20
68.528139999999993
 30
0.0
 40
0.4
 50
0.000000000000007
 51
90.0
  0
LINE
  5
35D
  8
0
 10
90.567955000000055
 20
66.428139999999999
 30
0.0
 11
90.917955000000063
 21
66.428139999999999
 31
0.0
  0
LINE
  5
35E
  8
0
 10
106.067955
 20
68.928139999999999
 30
0.0
 11
83.067955000000055
 21
68.928139999999999
 31
0.0
  0
LINE
  5
360
  8
0
 10
82.567955000000055
 20
69.428139999999999
 30
0.0
 11
82.567955000000055
 21
78.350763000000001
 31
0.0
  0
LINE
  5
361
  8
0
 10
83.067955000000055
 20
123.92814
 30
0.0
 11
106.067955
 21
123.92814
 31
0.0
  0
LINE
  5
362
  8
0
 10
90.567955000000055
 20
66.428139999999999
 30
0.0
 11
90.567955000000055
 21
51.128140000000002
 31
0.0
  0
LINE
  5
363
  8
3
 10
91.167955000000063
 20
66.428139999999999
 30
0.0
 11
91.167955000000063
 21
50.52814
 31
0.0
  0
LINE
  5
364
  8
3
 10
97.967955000000003
 20
66.428139999999999
 30
0.0
 11
97.967955000000003
 21
50.52814
 31
0.0
  0
LINE
  5
365
  8
0
 10
98.56795500000004
 20
66.428139999999999
 30
0.0
 11
98.56795500000004
 21
51.128140000000002
 31
0.0
  0
LINE
  5
366
  8
0
 10
91.767955000000001
 20
49.928139999999999
 30
0.0
 11
97.367955000000066
 21
49.928139999999999
 31
0.0
  0
LINE
  5
367
  8
0
 10
98.56795500000004
 20
66.428139999999999
 30
0.0
 11
90.917957000000044
 21
66.428139999999999
 31
0.0
  0
LINE
  5
368
  8
0
 10
97.81795500000004
 20
68.528139999999993
 30
0.0
 11
97.81795500000004
 21
66.828136999999998
 31
0.0
  0
LINE
  5
369
  8
0
 10
98.56795500000004
 20
51.128140000000002
 30
0.0
 11
97.367955000000066
 21
49.928139999999999
 31
0.0
  0
LINE
  5
36A
  8
0
 10
91.767955000000001
 20
49.928139999999999
 30
0.0
 11
90.567955000000055
 21
51.128140000000002
 31
0.0
  0
LINE
  5
36B
  8
0
 10
90.567955000000055
 20
51.128140000000002
 30
0.0
 11
98.56795500000004
 21
51.128140000000002
 31
0.0
  0
LINE
  5
36C
  8
0
 10
82.567955000000055
 20
92.505516999999998
 30
0.0
 11
82.567955000000055
 21
123.42814
 31
0.0
  0
LINE
  5
36D
  8
0
 10
95.914642999999998
 20
91.928140000000013
 30
0.0
 11
104.221267
 21
91.928140000000013
 31
0.0
  0
LINE
  5
36E
  8
0
 10
105.567908
 20
91.928140000000013
 30
0.0
 11
105.567908
 21
78.928139999999999
 31
0.0
  0
LINE
  5
36F
  8
0
 10
95.914642999999998
 20
78.928139999999999
 30
0.0
 11
104.221267
 21
78.928139999999999
 31
0.0
  0
LINE
  5
370
  8
0
 10
106.567955
 20
92.505516999999998
 30
0.0
 11
106.567955
 21
123.42814
 31
0.0
  0
LINE
  5
371
  8
0
 10
106.567955
 20
69.428139999999999
 30
0.0
 11
106.567955
 21
78.350763000000001
 31
0.0
  0
ARC
  5
372
  8
0
 10
98.217955000000003
 20
66.828140000000005
 30
0.0
 40
0.4
 50
180.0
 51
270.0
  0
ARC
  5
373
  8
0
 10
90.917955000000063
 20
66.828140000000005
 30
0.0
 40
0.4
 50
270.0
 51
0.000000000000007
  0
LINE
  5
374
  8
0
 10
91.31795500000004
 20
68.528139999999993
 30
0.0
 11
91.31795500000004
 21
66.828140000000005
 31
0.0
  0
LINE
  5
375
  8
0
 10
104.221267
 20
91.928140000000013
 30
0.0
 11
104.221267
 21
78.928139999999999
 31
0.0
  0
LINE
  5
376
  8
0
 10
95.914642999999998
 20
91.928140000000013
 30
0.0
 11
95.914642999999998
 21
78.928139999999999
 31
0.0
  0
LINE
  5
377
  8
0
 10
105.567908
 20
91.928140000000013
 30
0.0
 11
106.567955
 21
92.505516999999998
 31
0.0
  0
LINE
  5
378
  8
0
 10
105.567908
 20
78.928139999999999
 30
0.0
 11
106.567955
 21
78.350763000000001
 31
0.0
  0
ARC
  5
379
  8
0
 10
100.067955
 20
77.278593000000001
 30
0.0
 40
15.226924
 50
74.171368000000285
 51
105.8286319999997
  0
ARC
  5
37A
  8
0
 10
100.067955
 20
93.577686999999983
 30
0.0
 40
15.226924
 50
254.17136800000031
 51
285.82863199999969
  0
LINE
  5
37B
  8
0
 10
83.568002000000035
 20
78.928139999999999
 30
0.0
 11
82.567955000000055
 21
78.350763000000001
 31
0.0
  0
LINE
  5
37C
  8
0
 10
83.568002000000035
 20
91.928140000000013
 30
0.0
 11
82.567955000000055
 21
92.505516999999998
 31
0.0
  0
LINE
  5
37D
  8
0
 10
83.568002000000035
 20
91.928140000000013
 30
0.0
 11
83.568002000000035
 21
78.928139999999999
 31
0.0
  0
LINE
  5
37E
  8
0
 10
106.067955
 20
68.928139999999999
 30
0.0
 11
106.567955
 21
69.428139999999999
 31
0.0
  0
LINE
  5
37F
  8
0
 10
106.567955
 20
123.42814
 30
0.0
 11
106.067955
 21
123.92814
 31
0.0
  0
LINE
  5
380
  8
0
 10
83.067955000000055
 20
123.92814
 30
0.0
 11
82.567955000000055
 21
123.42814
 31
0.0
  0
LINE
  5
381
  8
0
 10
83.067955000000055
 20
68.928139999999999
 30
0.0
 11
82.567955000000055
 21
69.428139999999999
 31
0.0
  0
LINE
  5
382
  8
0
 10
199.158681
 20
91.928140000000013
 30
0.0
 11
199.158681
 21
78.928139999999999
 31
0.0
  0
LINE
  5
383
  8
0
 10
203.95462000000001
 20
91.928140000000013
 30
0.0
 11
203.95462000000001
 21
78.928139999999999
 31
0.0
  0
ARC
  5
384
  8
0
 10
201.55665099999999
 20
87.237192999999976
 30
0.0
 40
5.268324999999999
 50
62.924293000000489
 51
117.0757069999995
  0
ARC
  5
385
  8
0
 10
201.55665099999999
 20
83.619086999999979
 30
0.0
 40
5.268324999999999
 50
242.9242930000004
 51
297.07570699999951
  0
LINE
  5
386
  8
0
 10
199.158681
 20
78.928139999999999
 30
0.0
 11
203.95462000000001
 21
78.928139999999999
 31
0.0
  0
LINE
  5
387
  8
0
 10
199.158681
 20
91.928140000000013
 30
0.0
 11
203.95462000000001
 21
91.928140000000013
 31
0.0
  0
LINE
  5
388
  8
0
 10
184.902143
 20
91.928140000000013
 30
0.0
 11
180.10620399999999
 21
91.928140000000013
 31
0.0
  0
LINE
  5
389
  8
0
 10
184.902143
 20
78.928139999999999
 30
0.0
 11
180.10620399999999
 21
78.928139999999999
 31
0.0
  0
ARC
  5
38A
  8
0
 10
182.50417300000001
 20
83.619086999999979
 30
0.0
 40
5.268324999999999
 50
242.9242930000004
 51
297.07570699999951
  0
ARC
  5
38B
  8
0
 10
182.50417300000001
 20
87.237192999999976
 30
0.0
 40
5.268324999999999
 50
62.924293000000489
 51
117.0757069999995
  0
ARC
  5
38C
  8
0
 10
192.03041200000001
 20
98.557995000000005
 30
0.0
 40
20.207232000000001
 50
256.27053399999949
 51
283.72946600000051
  0
ARC
  5
38D
  8
0
 10
192.03041200000001
 20
72.298284999999979
 30
0.0
 40
20.207232000000001
 50
76.270533999999486
 51
103.7294660000005
  0
LINE
  5
38E
  8
0
 10
180.10620399999999
 20
91.928140000000013
 30
0.0
 11
180.10620399999999
 21
78.928139999999999
 31
0.0
  0
LINE
  5
38F
  8
0
 10
184.902143
 20
91.928140000000013
 30
0.0
 11
184.902143
 21
78.928139999999999
 31
0.0
  0
LINE
  5
390
  8
0
 10
196.82635099999999
 20
91.928140000000013
 30
0.0
 11
196.82635099999999
 21
78.928139999999999
 31
0.0
  0
LINE
  5
391
  8
0
 10
187.23447300000001
 20
91.928140000000013
 30
0.0
 11
187.23447300000001
 21
78.928139999999999
 31
0.0
  0
LINE
  5
392
  8
0
 10
196.82635099999999
 20
78.928139999999999
 30
0.0
 11
187.23447300000001
 21
78.928139999999999
 31
0.0
  0
LINE
  5
393
  8
0
 10
196.82635099999999
 20
91.928140000000013
 30
0.0
 11
187.23447300000001
 21
91.928140000000013
 31
0.0
  0
LINE
  5
394
  8
0
 10
180.53041200000001
 20
68.928139999999999
 30
0.0
 11
180.03041200000001
 21
69.428139999999999
 31
0.0
  0
LINE
  5
395
  8
0
 10
180.53041200000001
 20
123.92814
 30
0.0
 11
180.03041200000001
 21
123.42814
 31
0.0
  0
LINE
  5
396
  8
0
 10
204.03041200000001
 20
123.42814
 30
0.0
 11
203.53041200000001
 21
123.92814
 31
0.0
  0
LINE
  5
397
  8
0
 10
203.53041200000001
 20
68.928139999999999
 30
0.0
 11
204.03041200000001
 21
69.428139999999999
 31
0.0
  0
LINE
  5
398
  8
0
 10
188.78041200000001
 20
68.528139999999993
 30
0.0
 11
188.78041200000001
 21
66.828140000000005
 31
0.0
  0
ARC
  5
399
  8
0
 10
188.38041200000001
 20
66.828140000000005
 30
0.0
 40
0.4
 50
270.0
 51
0.000000000000007
  0
ARC
  5
39A
  8
0
 10
195.68041199999999
 20
66.828140000000005
 30
0.0
 40
0.4
 50
180.0
 51
270.0
  0
LINE
  5
39B
  8
0
 10
204.03041200000001
 20
69.428139999999999
 30
0.0
 11
204.03041200000001
 21
123.42814
 31
0.0
  0
LINE
  5
39C
  8
0
 10
180.03041200000001
 20
69.428139999999999
 30
0.0
 11
180.03041200000001
 21
123.42814
 31
0.0
  0
LINE
  5
39D
  8
0
 10
188.03041200000001
 20
51.128140000000002
 30
0.0
 11
196.03041200000001
 21
51.128140000000002
 31
0.0
  0
LINE
  5
39E
  8
0
 10
189.230412
 20
49.928139999999999
 30
0.0
 11
188.03041200000001
 21
51.128140000000002
 31
0.0
  0
LINE
  5
39F
  8
0
 10
196.03041200000001
 20
51.128140000000002
 30
0.0
 11
194.830412
 21
49.928139999999999
 31
0.0
  0
LINE
  5
3A0
  8
0
 10
195.28041200000001
 20
68.528139999999993
 30
0.0
 11
195.28041200000001
 21
66.828136999999998
 31
0.0
  0
LINE
  5
3A1
  8
0
 10
196.03041200000001
 20
66.428139999999999
 30
0.0
 11
188.380414
 21
66.428139999999999
 31
0.0
  0
LINE
  5
3A2
  8
0
 10
189.230412
 20
49.928139999999999
 30
0.0
 11
194.830412
 21
49.928139999999999
 31
0.0
  0
LINE
  5
3A3
  8
0
 10
196.03041200000001
 20
66.428139999999999
 30
0.0
 11
196.03041200000001
 21
51.128140000000002
 31
0.0
  0
LINE
  5
3A4
  8
3
 10
195.43041199999999
 20
66.428139999999999
 30
0.0
 11
195.43041199999999
 21
50.52814
 31
0.0
  0
LINE
  5
3A5
  8
3
 10
188.63041200000001
 20
66.428139999999999
 30
0.0
 11
188.63041200000001
 21
50.52814
 31
0.0
  0
LINE
  5
3A6
  8
0
 10
188.03041200000001
 20
66.428139999999999
 30
0.0
 11
188.03041200000001
 21
51.128140000000002
 31
0.0
  0
LINE
  5
3A7
  8
0
 10
180.53041200000001
 20
123.92814
 30
0.0
 11
203.53041200000001
 21
123.92814
 31
0.0
  0
LINE
  5
3A9
  8
0
 10
203.53041200000001
 20
68.928139999999999
 30
0.0
 11
180.53041200000001
 21
68.928139999999999
 31
0.0
  0
LINE
  5
3AA
  8
0
 10
188.03041200000001
 20
66.428139999999999
 30
0.0
 11
188.38041200000001
 21
66.428139999999999
 31
0.0
  0
ARC
  5
3AB
  8
0
 10
188.38041200000001
 20
68.528139999999993
 30
0.0
 40
0.4
 50
0.000000000000007
 51
90.0
  0
ARC
  5
3AC
  8
0
 10
195.68041199999999
 20
68.528139999999993
 30
0.0
 40
0.4
 50
90.0
 51
180.0
  0
ARC
  5
3BA
  8
0
 10
192.03041200000001
 20
200.69744600000001
 30
0.0
 40
20.0
 50
347.24884300000002
 51
12.75115799999978
  0
LINE
  5
3BB
  8
0
 10
195.42520999999999
 20
211.160493
 30
0.0
 11
210.88739100000001
 21
205.83659299999999
 31
0.0
  0
ARC
  5
3BC
  8
0
 10
210.56183100000001
 20
204.89107200000001
 30
0.0
 40
1.0
 50
12.751158000000739
 51
71.000518999997851
  0
ARC
  5
3BD
  8
0
 10
210.56183100000001
 20
196.50381999999999
 30
0.0
 40
1.0
 50
288.99948100000199
 51
347.24884199999917
  0
ARC
  5
3BF
  8
0
 10
192.03041200000001
 20
200.69744600000001
 30
0.0
 40
11.0
 50
304.498707999999
 51
55.501292000000973
  0
LINE
  5
3C0
  8
0
 10
195.42520999999999
 20
190.234399
 30
0.0
 11
210.88739100000001
 21
195.55829900000001
 31
0.0
  0
CIRCLE
  5
3C1
  8
0
 10
192.03041200000001
 20
200.69744600000001
 30
0.0
 40
7.8660249999999978
  0
ARC
  5
3C2
  8
0
 10
192.03041200000001
 20
200.69744600000001
 30
0.0
 40
11.0
 50
72.024035000001149
 51
287.97596499999889
  0
LINE
  5
3C4
  8
1
 10
170.03041200000001
 20
200.69744600000001
 30
0.0
 11
214.03041200000001
 21
200.69744600000001
 31
0.0
  0
LINE
  5
3C5
  8
1
 10
192.03041200000001
 20
178.69744600000001
 30
0.0
 11
192.03041200000001
 21
222.69744600000001
 31
0.0
  0
ARC
  5
3C9
  8
0
 10
192.03041200000001
 20
200.69744600000001
 30
0.0
 40
12.0
 50
47.423096132234839
 51
312.57690386776488
  0
LINE
  5
415
  8
2
 10
299.59299800000002
 20
123.92814
 30
0.0
 11
299.59299800000002
 21
123.72814
 31
0.0
  0
LINE
  5
416
  8
2
 10
282.59299800000002
 20
123.92814
 30
0.0
 11
282.59299800000002
 21
123.72814
 31
0.0
  0
LINE
  5
417
  8
2
 10
200.53041200000001
 20
123.92814
 30
0.0
 11
200.53041200000001
 21
123.72814
 31
0.0
  0
LINE
  5
418
  8
2
 10
183.53041200000001
 20
123.92814
 30
0.0
 11
183.53041200000001
 21
123.72814
 31
0.0
  0
LINE
  5
419
  8
2
 10
103.067955
 20
123.92814
 30
0.0
 11
103.067955
 21
123.72814
 31
0.0
  0
LINE
  5
41A
  8
2
 10
86.06795500000004
 20
123.92814
 30
0.0
 11
86.06795500000004
 21
123.7281399999999
 31
0.0
  0
CIRCLE
  5
429
  8
0
 10
192.0304119999999
 20
200.6974460000001
 30
0.0
 40
6.5
  0
LINE
  5
42A
  8
0
 10
193.76246300000011
 20
197.69744600000001
 30
0.0
 11
195.49451399999981
 21
200.6974460000001
 31
0.0
  0
LINE
  5
42B
  8
0
 10
195.49451399999981
 20
200.6974460000001
 30
0.0
 11
193.76246300000011
 21
203.6974460000001
 31
0.0
  0
LINE
  5
42C
  8
0
 10
193.76246300000011
 20
203.6974460000001
 30
0.0
 11
190.2983619999998
 21
203.6974460000001
 31
0.0
  0
LINE
  5
42D
  8
0
 10
190.2983619999998
 20
203.6974460000001
 30
0.0
 11
188.5663110000001
 21
200.6974460000001
 31
0.0
  0
LINE
  5
42E
  8
0
 10
188.5663110000001
 20
200.6974460000001
 30
0.0
 11
190.2983619999998
 21
197.69744600000001
 31
0.0
  0
LINE
  5
42F
  8
0
 10
190.2983619999998
 20
197.69744600000001
 30
0.0
 11
193.76246300000011
 21
197.69744600000001
 31
0.0
  0
CIRCLE
  5
430
  8
0
 10
192.0304119999999
 20
200.6974460000001
 30
0.0
 40
5.6339750000000004
  0
TEXT
  5
678
  8
0
 62
     3
 10
0.0
 20
0.0
 30
0.0
 40
10.0
  1
BJ130-08020A1
  7
STANDARD1
  0
ENDSEC
  0
EOF
