  0
SECTION
  2
HEADER
  9
$ACADVER
  1
AC1009
  9
$INSBASE
 10
0.0
 20
0.0
 30
0.0
  9
$EXTMIN
 10
0.0
 20
-2.960436562073669
 30
0.0
  9
$EXTMAX
 10
271.00000000000028
 20
230.9999999999998
 30
0.0
  9
$LIMMIN
 10
0.0
 20
0.0
  9
$LIMMAX
 10
375.0
 20
270.0
  9
$ORTHOMODE
 70
     1
  9
$REGENMODE
 70
     1
  9
$FILLMODE
 70
     1
  9
$QTEXTMODE
 70
     0
  9
$MIRRTEXT
 70
     0
  9
$DRAGMODE
 70
     2
  9
$LTSCALE
 40
10.0
  9
$OSMODE
 70
  3071
  9
$ATTMODE
 70
     1
  9
$TEXTSIZE
 40
0.2
  9
$TRACEWID
 40
0.05
  9
$TEXTSTYLE
  7
STANDARD
  9
$CLAYER
  8
0
  9
$CELTYPE
  6
BYLAYER
  9
$CECOLOR
 62
   256
  9
$DIMSCALE
 40
1.0
  9
$DIMASZ
 40
3.0
  9
$DIMEXO
 40
2.0
  9
$DIMDLI
 40
0.38
  9
$DIMRND
 40
0.0
  9
$DIMDLE
 40
0.0
  9
$DIMEXE
 40
2.0
  9
$DIMTP
 40
0.0
  9
$DIMTM
 40
0.0
  9
$DIMTXT
 40
3.2000000000000002
  9
$DIMCEN
 40
0.0
  9
$DIMTSZ
 40
0.0
  9
$DIMTOL
 70
     0
  9
$DIMLIM
 70
     0
  9
$DIMTIH
 70
     0
  9
$DIMTOH
 70
     0
  9
$DIMSE1
 70
     0
  9
$DIMSE2
 70
     0
  9
$DIMTAD
 70
     1
  9
$DIMZIN
 70
     0
  9
$DIMBLK
  1

  9
$DIMASO
 70
     0
  9
$DIMSHO
 70
     0
  9
$DIMPOST
  1

  9
$DIMAPOST
  1

  9
$DIMALT
 70
     0
  9
$DIMALTD
 70
     2
  9
$DIMALTF
 40
25.399999999999999
  9
$DIMLFAC
 40
1.0
  9
$DIMTOFL
 70
     1
  9
$DIMTVP
 40
1.6000000000000001
  9
$DIMTIX
 70
     1
  9
$DIMSOXD
 70
     0
  9
$DIMSAH
 70
     0
  9
$DIMBLK1
  1

  9
$DIMBLK2
  1

  9
$DIMSTYLE
  2
STANDARD
  9
$DIMCLRD
 70
     0
  9
$DIMCLRE
 70
     0
  9
$DIMCLRT
 70
     0
  9
$DIMTFAC
 40
1.0
  9
$DIMGAP
 40
0.09
  9
$LUNITS
 70
     2
  9
$LUPREC
 70
     4
  9
$SKETCHINC
 40
0.1
  9
$FILLETRAD
 40
0.5
  9
$AUNITS
 70
     0
  9
$AUPREC
 70
     4
  9
$MENU
  1
E:\r13\win\SUPPORT\ACAD
  9
$ELEVATION
 40
0.0
  9
$PELEVATION
 40
0.0
  9
$THICKNESS
 40
0.0
  9
$LIMCHECK
 70
     0
  9
$BLIPMODE
 70
     0
  9
$CHAMFERA
 40
0.0
  9
$CHAMFERB
 40
0.0
  9
$SKPOLY
 70
     0
  9
$TDCREATE
 40
2449839.63369213
  9
$TDUPDATE
 40
2456597.619913368
  9
$TDINDWG
 40
0.0220919676
  9
$TDUSRTIMER
 40
2456514.0720876618
  9
$USRTIMER
 70
     1
  9
$ANGBASE
 50
0.0
  9
$ANGDIR
 70
     0
  9
$PDMODE
 70
     0
  9
$PDSIZE
 40
0.0
  9
$PLINEWID
 40
0.0
  9
$COORDS
 70
     1
  9
$SPLFRAME
 70
     0
  9
$SPLINETYPE
 70
     6
  9
$SPLINESEGS
 70
     8
  9
$ATTDIA
 70
     0
  9
$ATTREQ
 70
     1
  9
$HANDLING
 70
     1
  9
$HANDSEED
  5
5C9
  9
$SURFTAB1
 70
     6
  9
$SURFTAB2
 70
     6
  9
$SURFTYPE
 70
     6
  9
$SURFU
 70
     6
  9
$SURFV
 70
     6
  9
$UCSNAME
  2

  9
$UCSORG
 10
0.0
 20
0.0
 30
0.0
  9
$UCSXDIR
 10
1.0
 20
0.0
 30
0.0
  9
$UCSYDIR
 10
0.0
 20
1.0
 30
0.0
  9
$PUCSNAME
  2

  9
$PUCSORG
 10
0.0
 20
0.0
 30
0.0
  9
$PUCSXDIR
 10
1.0
 20
0.0
 30
0.0
  9
$PUCSYDIR
 10
0.0
 20
1.0
 30
0.0
  9
$USERI1
 70
     0
  9
$USERI2
 70
     1
  9
$USERI3
 70
     0
  9
$USERI4
 70
     0
  9
$USERI5
 70
     0
  9
$USERR1
 40
0.0
  9
$USERR2
 40
0.0
  9
$USERR3
 40
0.0
  9
$USERR4
 40
0.0
  9
$USERR5
 40
0.0
  9
$WORLDVIEW
 70
     1
  9
$SHADEDGE
 70
     3
  9
$SHADEDIF
 70
    70
  9
$TILEMODE
 70
     1
  9
$MAXACTVP
 70
    16
  9
$PLIMCHECK
 70
     0
  9
$PEXTMIN
 10
1.0000000000000000E+020
 20
1.0000000000000000E+020
 30
1.0000000000000000E+020
  9
$PEXTMAX
 10
-1.0000000000000000E+020
 20
-1.0000000000000000E+020
 30
-1.0000000000000000E+020
  9
$PLIMMIN
 10
0.0
 20
0.0
  9
$PLIMMAX
 10
12.0
 20
9.0
  9
$UNITMODE
 70
     0
  9
$VISRETAIN
 70
     0
  9
$PLINEGEN
 70
     0
  9
$PSLTSCALE
 70
     0
  0
ENDSEC
  0
SECTION
  2
TABLES
  0
TABLE
  2
VPORT
 70
     1
  0
VPORT
  2
*ACTIVE
 70
     0
 10
0.0
 20
0.0
 11
1.0
 21
1.0
 12
187.49427839065231
 22
191.41710799499691
 13
0.0
 23
0.0
 14
10.0
 24
10.0
 15
10.0
 25
10.0
 16
0.0
 26
0.0
 36
1.0
 17
0.0
 27
0.0
 37
0.0
 40
392.30556364789771
 41
1.831871345029239
 42
50.0
 43
0.0
 44
0.0
 50
0.0
 51
0.0
 71
    16
 72
   500
 73
     1
 74
     0
 75
     0
 76
     0
 77
     0
 78
     2
  0
ENDTAB
  0
TABLE
  2
LTYPE
 70
     3
  0
LTYPE
  2
CONTINUOUS
 70
     0
  3
Solid Line
 72
    65
 73
     0
 40
0.0
  0
LTYPE
  2
PHANTOM2
 70
     0
  3
___ _ _ ___ _ _ ___ _ _ ___ _ _
 72
    65
 73
     6
 40
1.25
 49
0.625
 49
-0.125
 49
0.125
 49
-0.125
 49
0.125
 49
-0.125
  0
LTYPE
  2
CENTER
 70
     0
  3
____ _ ____ _ ____ _ ____ _ ____ _ ____ _ ____
 72
    65
 73
     4
 40
2.0
 49
1.25
 49
-0.25
 49
0.25
 49
-0.25
  0
ENDTAB
  0
TABLE
  2
LAYER
 70
     3
  0
LAYER
  2
0
 70
     0
 62
     7
  6
CONTINUOUS
  0
LAYER
  2
1
 70
     0
 62
     1
  6
CENTER
  0
LAYER
  2
3
 70
     0
 62
     3
  6
CONTINUOUS
  0
ENDTAB
  0
TABLE
  2
STYLE
 70
     3
  0
STYLE
  2
STANDARD
 70
     0
 40
0.0
 41
1.0
 50
0.0
 71
     0
 42
0.2
  3
TXT
  4
BIGFONT
  0
STYLE
  2
ANNOTATIVE
 70
     0
 40
0.0
 41
1.0
 50
0.0
 71
     0
 42
0.2
  3
txt
  4

  0
STYLE
  2
STANDARD1
 70
     0
 40
0.0
 41
1.0
 50
0.0
 71
     0
 42
3.0
  3
txt
  4

  0
ENDTAB
  0
TABLE
  2
VIEW
 70
     1
  0
VIEW
  2
ALL
 70
     0
 40
179.5384664489153
 10
135.0
 20
89.769233224457665
 41
0.0
 11
0.0
 21
0.0
 31
1.0
 12
0.0
 22
0.0
 32
0.0
 42
0.0
 43
0.0
 44
0.0
 50
0.0
 71
     0
  0
ENDTAB
  0
TABLE
  2
UCS
 70
     0
  0
ENDTAB
  0
TABLE
  2
APPID
 70
     5
  0
APPID
  2
ACAD
 70
     0
  0
APPID
  2
ACADANNOTATIVE
 70
     0
  0
APPID
  2
ACAD_MLEADERVER
 70
     0
  0
APPID
  2
ACAD_EXEMPT_FROM_CAD_STANDARDS
 70
     0
  0
APPID
  2
ACAD_NAV_VCDISPLAY
 70
     0
  0
ENDTAB
  0
TABLE
  2
DIMSTYLE
 70
     2
  0
DIMSTYLE
  2
STANDARD
 70
     0
  3

  4

  5

  6

  7

 40
1.0
 41
0.18
 42
0.0625
 43
0.38
 44
0.18
 45
0.0
 46
0.0
 47
0.0
 48
0.0
140
0.18
141
0.09
142
0.0
143
25.399999999999999
144
1.0
145
0.0
146
1.0
147
0.09
 71
     0
 72
     0
 73
     1
 74
     1
 75
     0
 76
     0
 77
     0
 78
     0
170
     0
171
     2
172
     0
173
     0
174
     0
175
     0
176
     0
177
     0
178
     0
  0
DIMSTYLE
  2
ANNOTATIVE
 70
     0
  3

  4

  5

  6

  7

 40
1.0
 41
0.18
 42
0.0625
 43
0.38
 44
0.18
 45
0.0
 46
0.0
 47
0.0
 48
0.0
140
0.18
141
0.09
142
0.0
143
25.399999999999999
144
1.0
145
0.0
146
1.0
147
0.09
 71
     0
 72
     0
 73
     1
 74
     1
 75
     0
 76
     0
 77
     0
 78
     0
170
     0
171
     2
172
     0
173
     0
174
     0
175
     0
176
     0
177
     0
178
     0
  0
ENDTAB
  0
ENDSEC
  0
SECTION
  2
BLOCKS
  0
BLOCK
  8
0
  2
$MODEL_SPACE
 70
     0
 10
0.0
 20
0.0
 30
0.0
  3
$MODEL_SPACE
  1

  0
ENDBLK
  5
501
  8
0
  0
BLOCK
 67
     1
  8
0
  2
$PAPER_SPACE
 70
     0
 10
0.0
 20
0.0
 30
0.0
  3
$PAPER_SPACE
  1

  0
ENDBLK
  5
4FD
 67
     1
  8
0
  0
ENDSEC
  0
SECTION
  2
ENTITIES
  0
LINE
  5
40
  8
0
 10
192.22483920649429
 20
126.7038519894317
 30
0.0
 11
169.5000000000002
 21
126.7038519894316
 31
0.0
  0
LINE
  5
41
  8
0
 10
169.00000000000011
 20
137.2038519894316
 30
0.0
 11
169.00000000000011
 21
127.2038519894316
 31
0.0
  0
ARC
  5
42
  8
0
 10
169.50000000000011
 20
137.2038519894316
 30
0.0
 40
0.5
 50
90.0
 51
179.99999999999989
  0
ARC
  5
43
  8
0
 10
169.5000000000002
 20
127.2038519894316
 30
0.0
 40
0.5
 50
179.99999999999989
 51
270.0
  0
ARC
  5
44
  8
0
 10
170.70000000000019
 20
125.9038519894316
 30
0.0
 40
0.8
 50
0.0000000000007708
 51
90.0
  0
LINE
  5
4A
  8
0
 10
186.50000000000011
 20
139.20385198943069
 30
0.0
 11
173.50000000000011
 21
139.20385198943069
 31
0.0
  0
LINE
  5
4F
  8
0
 10
174.36602540378601
 20
139.7038519894316
 30
0.0
 11
185.6339745962141
 21
139.7038519894316
 31
0.0
  0
LINE
  5
50
  8
0
 10
174.36602540378601
 20
139.7038519894316
 30
0.0
 11
173.50000000000011
 21
139.20385198943069
 31
0.0
  0
LINE
  5
51
  8
0
 10
173.50000000000011
 20
139.20385198943069
 30
0.0
 11
173.50000000000011
 21
137.7038519894316
 31
0.0
  0
LINE
  5
52
  8
0
 10
186.50000000000011
 20
139.20385198943069
 30
0.0
 11
186.50000000000011
 21
137.70385198943171
 31
0.0
  0
LINE
  5
53
  8
0
 10
185.6339745962141
 20
139.7038519894316
 30
0.0
 11
186.50000000000011
 21
139.20385198943069
 31
0.0
  0
LINE
  5
54
  8
1
 10
180.00000000000011
 20
149.7038519894316
 30
0.0
 11
180.0000000000002
 21
71.703851989431683
 31
0.0
  0
LINE
  5
55
  8
0
 10
189.0
 20
103.2038519894317
 30
0.0
 11
171.0000000000002
 21
103.2038519894317
 31
0.0
  0
LINE
  5
56
  8
0
 10
189.0
 20
124.7622321407226
 30
0.0
 11
171.0000000000002
 21
124.76223214072191
 31
0.0
  0
LINE
  5
57
  8
0
 10
189.0
 20
124.76223214072201
 30
0.0
 11
189.0
 21
103.2038519894317
 31
0.0
  0
LINE
  5
58
  8
0
 10
188.50000000000011
 20
125.5038519894316
 30
0.0
 11
188.50000000000011
 21
125.9038519894316
 31
0.0
  0
ARC
  5
59
  8
0
 10
189.30000000000001
 20
125.9038519894316
 30
0.0
 40
0.8
 50
90.0
 51
179.9999999999994
  0
ARC
  5
5A
  8
0
 10
189.30000000000001
 20
125.50385198943169
 30
0.0
 40
0.8
 50
179.99999999999901
 51
247.97568716296129
  0
ARC
  5
5B
  8
0
 10
170.70000000000019
 20
125.5038519894316
 30
0.0
 40
0.8
 50
292.02431283703862
 51
0.0000000000010252
  0
LINE
  5
5C
  8
0
 10
171.5000000000002
 20
125.5038519894316
 30
0.0
 11
171.5000000000002
 21
125.9038519894316
 31
0.0
  0
LINE
  5
5D
  8
0
 10
171.5000000000002
 20
102.7038519894317
 30
0.0
 11
171.0000000000002
 21
103.2038519894317
 31
0.0
  0
LINE
  5
5E
  8
0
 10
188.50000000000011
 20
102.7038519894317
 30
0.0
 11
189.0
 21
103.2038519894317
 31
0.0
  0
LINE
  5
5F
  8
0
 10
171.5000000000002
 20
102.7038519894317
 30
0.0
 11
188.50000000000011
 21
102.7038519894317
 31
0.0
  0
LINE
  5
60
  8
0
 10
171.0000000000002
 20
124.76223214072191
 30
0.0
 11
171.0000000000002
 21
103.2038519894316
 31
0.0
  0
ARC
  5
62
  8
0
 10
179.99999999999969
 20
210.0
 30
0.0
 40
11.0
 50
72.024034886867895
 51
287.97596511317312
  0
CIRCLE
  5
63
  8
0
 10
180.0000000000002
 20
210.0
 30
0.0
 40
7.8660254037843611
  0
ARC
  5
64
  8
0
 10
180.0000000000002
 20
210.0
 30
0.0
 40
11.0
 50
304.49870752370418
 51
55.50129247629588
  0
LINE
  5
65
  8
1
 10
180.00000000000011
 20
230.9999999999998
 30
0.0
 11
180.0000000000002
 21
189.00000000000031
 31
0.0
  0
LINE
  5
66
  8
1
 10
215.0000000000002
 20
210.0
 30
0.0
 11
158.99999999999969
 21
210.0
 31
0.0
  0
LINE
  5
67
  8
0
 10
169.50000000000011
 20
137.7038519894316
 30
0.0
 11
189.26786250536321
 21
137.7038519894316
 31
0.0
  0
LINE
  5
68
  8
0
 10
204.50000000000031
 20
125.7038519894317
 30
0.0
 11
193.22483920649429
 21
125.7038519894317
 31
0.0
  0
LINE
  5
72
  8
1
 10
110.0000000000001
 20
149.70385198943151
 30
0.0
 11
110.0000000000002
 21
71.703851989431584
 31
0.0
  0
LINE
  5
73
  8
1
 10
260.0
 20
149.70385198943171
 30
0.0
 11
260.00000000000028
 21
71.703851989431811
 31
0.0
  0
LINE
  5
74
  8
0
 10
269.00000000000028
 20
124.76223214072201
 30
0.0
 11
269.00000000000028
 21
103.2038519894317
 31
0.0
  0
LINE
  5
75
  8
0
 10
251.0000000000002
 20
124.76223214072201
 30
0.0
 11
251.0000000000002
 21
103.2038519894317
 31
0.0
  0
LINE
  5
76
  8
0
 10
251.5000000000002
 20
102.7038519894316
 30
0.0
 11
268.5
 21
102.7038519894317
 31
0.0
  0
LINE
  5
77
  8
0
 10
268.5
 20
102.7038519894317
 30
0.0
 11
269.00000000000011
 21
103.2038519894317
 31
0.0
  0
LINE
  5
78
  8
0
 10
251.5000000000002
 20
102.7038519894316
 30
0.0
 11
251.0000000000002
 21
103.2038519894316
 31
0.0
  0
LINE
  5
79
  8
0
 10
269.00000000000028
 20
103.2038519894317
 30
0.0
 11
251.0000000000002
 21
103.2038519894316
 31
0.0
  0
LINE
  5
82
  8
0
 10
116.5000000000001
 20
139.2038519894306
 30
0.0
 11
103.5000000000001
 21
139.2038519894306
 31
0.0
  0
LINE
  5
83
  8
0
 10
104.366025403786
 20
139.70385198943151
 30
0.0
 11
115.6339745962142
 21
139.70385198943151
 31
0.0
  0
LINE
  5
84
  8
0
 10
104.366025403786
 20
139.70385198943151
 30
0.0
 11
103.5000000000001
 21
139.2038519894306
 31
0.0
  0
LINE
  5
85
  8
0
 10
103.5000000000001
 20
139.2038519894306
 30
0.0
 11
103.5000000000001
 21
137.70385198943151
 31
0.0
  0
LINE
  5
86
  8
0
 10
116.5000000000001
 20
139.2038519894306
 30
0.0
 11
116.5000000000001
 21
137.7038519894316
 31
0.0
  0
LINE
  5
87
  8
0
 10
115.6339745962142
 20
139.70385198943151
 30
0.0
 11
116.5000000000001
 21
139.2038519894306
 31
0.0
  0
LINE
  5
88
  8
0
 10
101.0000000000002
 20
124.76223214072169
 30
0.0
 11
119.0000000000001
 21
124.76223214072169
 31
0.0
  0
LINE
  5
91
  8
0
 10
119.0000000000001
 20
103.2038519894314
 30
0.0
 11
101.0000000000002
 21
103.2038519894314
 31
0.0
  0
LINE
  5
92
  8
0
 10
101.5000000000002
 20
102.7038519894314
 30
0.0
 11
101.0000000000002
 21
103.2038519894314
 31
0.0
  0
LINE
  5
93
  8
0
 10
118.5000000000001
 20
102.7038519894314
 30
0.0
 11
119.0000000000001
 21
103.2038519894314
 31
0.0
  0
LINE
  5
94
  8
0
 10
101.5000000000002
 20
102.7038519894314
 30
0.0
 11
118.5000000000001
 21
102.7038519894314
 31
0.0
  0
LINE
  5
95
  8
0
 10
101.0000000000002
 20
124.76223214072169
 30
0.0
 11
101.0000000000002
 21
103.2038519894314
 31
0.0
  0
LINE
  5
96
  8
0
 10
119.0000000000001
 20
124.76223214072169
 30
0.0
 11
119.0000000000001
 21
103.2038519894315
 31
0.0
  0
LINE
  5
97
  8
0
 10
99.000000000000114
 20
137.20385198943151
 30
0.0
 11
99.000000000000114
 21
127.2038519894315
 31
0.0
  0
LINE
  5
98
  8
0
 10
121.0000000000001
 20
137.20385198943151
 30
0.0
 11
121.0000000000001
 21
127.2038519894315
 31
0.0
  0
LINE
  5
99
  8
0
 10
99.500000000000128
 20
137.70385198943151
 30
0.0
 11
120.5000000000001
 21
137.70385198943151
 31
0.0
  0
ARC
  5
9A
  8
0
 10
99.500000000000128
 20
137.20385198943151
 30
0.0
 40
0.5
 50
90.0
 51
180.0
  0
ARC
  5
9B
  8
0
 10
120.5000000000001
 20
137.20385198943151
 30
0.0
 40
0.5
 50
0.0000000000000838
 51
90.0
  0
LINE
  5
9C
  8
0
 10
120.5000000000001
 20
126.7038519894315
 30
0.0
 11
99.500000000000128
 21
126.7038519894315
 31
0.0
  0
ARC
  5
9D
  8
0
 10
120.5000000000001
 20
127.2038519894315
 30
0.0
 40
0.5
 50
270.0
 51
0.0000000000000838
  0
ARC
  5
9E
  8
0
 10
99.500000000000128
 20
127.2038519894315
 30
0.0
 40
0.5
 50
179.99999999999989
 51
270.0
  0
LINE
  5
9F
  8
0
 10
101.5000000000002
 20
125.5038519894315
 30
0.0
 11
101.5000000000002
 21
125.9038519894315
 31
0.0
  0
ARC
  5
A0
  8
0
 10
100.7000000000001
 20
125.5038519894315
 30
0.0
 40
0.8
 50
292.02431283703862
 51
0.0000000000010252
  0
ARC
  5
A1
  8
0
 10
119.3000000000001
 20
125.5038519894316
 30
0.0
 40
0.8
 50
179.99999999999901
 51
247.97568716296129
  0
ARC
  5
A2
  8
0
 10
119.3000000000001
 20
125.9038519894315
 30
0.0
 40
0.8
 50
90.0
 51
179.9999999999994
  0
LINE
  5
A3
  8
0
 10
118.5000000000001
 20
125.5038519894316
 30
0.0
 11
118.5000000000001
 21
125.9038519894315
 31
0.0
  0
ARC
  5
A4
  8
0
 10
100.7000000000001
 20
125.9038519894315
 30
0.0
 40
0.8
 50
0.0000000000007708
 51
90.0
  0
ARC
  5
A5
  8
0
 10
250.7000000000001
 20
125.9038519894317
 30
0.0
 40
0.8
 50
0.0000000000007708
 51
90.0
  0
LINE
  5
A6
  8
0
 10
268.50000000000028
 20
125.50385198943179
 30
0.0
 11
268.50000000000028
 21
125.9038519894318
 31
0.0
  0
ARC
  5
A7
  8
0
 10
269.30000000000013
 20
125.9038519894318
 30
0.0
 40
0.8
 50
90.0
 51
179.9999999999994
  0
ARC
  5
A8
  8
0
 10
269.30000000000013
 20
125.50385198943179
 30
0.0
 40
0.8
 50
179.99999999999901
 51
247.97568716296129
  0
ARC
  5
A9
  8
0
 10
250.7000000000001
 20
125.50385198943169
 30
0.0
 40
0.8
 50
292.02431283703862
 51
0.0000000000010252
  0
LINE
  5
AA
  8
0
 10
251.5000000000002
 20
125.50385198943169
 30
0.0
 11
251.5000000000002
 21
125.9038519894317
 31
0.0
  0
ARC
  5
AB
  8
0
 10
249.50000000000011
 20
127.2038519894317
 30
0.0
 40
0.5
 50
179.99999999999989
 51
270.0
  0
ARC
  5
AC
  8
0
 10
270.50000000000028
 20
127.2038519894318
 30
0.0
 40
0.5
 50
270.0
 51
0.0000000000000838
  0
LINE
  5
AD
  8
0
 10
270.50000000000028
 20
126.7038519894317
 30
0.0
 11
267.42270000000008
 21
126.7038519894318
 31
0.0
  0
ARC
  5
AE
  8
0
 10
270.50000000000028
 20
137.20385198943171
 30
0.0
 40
0.5
 50
0.0000000000000838
 51
90.0
  0
ARC
  5
AF
  8
0
 10
249.5000000000002
 20
137.20385198943171
 30
0.0
 40
0.5
 50
90.0
 51
180.0
  0
LINE
  5
B0
  8
0
 10
249.5000000000002
 20
137.70385198943171
 30
0.0
 11
270.50000000000028
 21
137.7038519894318
 31
0.0
  0
LINE
  5
B1
  8
0
 10
271.00000000000028
 20
137.20385198943171
 30
0.0
 11
271.00000000000028
 21
127.2038519894318
 31
0.0
  0
LINE
  5
B2
  8
0
 10
249.00000000000011
 20
137.20385198943171
 30
0.0
 11
249.00000000000011
 21
127.2038519894317
 31
0.0
  0
LINE
  5
B3
  8
0
 10
251.0000000000002
 20
124.76223214072191
 30
0.0
 11
269.00000000000028
 21
124.76223214072191
 31
0.0
  0
LINE
  5
B4
  8
0
 10
265.63397459621427
 20
139.7038519894318
 30
0.0
 11
266.50000000000028
 21
139.2038519894308
 31
0.0
  0
LINE
  5
B5
  8
0
 10
266.50000000000028
 20
139.2038519894308
 30
0.0
 11
266.50000000000028
 21
137.7038519894318
 31
0.0
  0
LINE
  5
B6
  8
0
 10
253.5000000000002
 20
139.2038519894308
 30
0.0
 11
253.5000000000002
 21
137.70385198943171
 31
0.0
  0
LINE
  5
B7
  8
0
 10
254.3660254037861
 20
139.70385198943171
 30
0.0
 11
253.5000000000002
 21
139.2038519894308
 31
0.0
  0
LINE
  5
B8
  8
0
 10
254.3660254037861
 20
139.70385198943171
 30
0.0
 11
265.63397459621427
 21
139.7038519894318
 31
0.0
  0
LINE
  5
B9
  8
0
 10
266.50000000000028
 20
139.2038519894308
 30
0.0
 11
253.5000000000002
 21
139.2038519894308
 31
0.0
  0
LINE
  5
BA
  8
0
 10
252.9216000000001
 20
125.7038519894318
 30
0.0
 11
267.0784000000001
 21
125.7038519894317
 31
0.0
  0
LINE
  5
BB
  8
0
 10
255.0000000000002
 20
132.70385198943171
 30
0.0
 11
265.00000000000028
 21
132.70385198943171
 31
0.0
  0
LINE
  5
BC
  8
0
 10
252.57730000000021
 20
126.7038519894317
 30
0.0
 11
249.50000000000011
 21
126.7038519894317
 31
0.0
  0
LINE
  5
BD
  8
0
 10
265.00000000000028
 20
132.70385198943171
 30
0.0
 11
265.00000000000028
 21
125.7038519894318
 31
0.0
  0
LINE
  5
BE
  8
0
 10
255.0000000000002
 20
132.70385198943171
 30
0.0
 11
255.0000000000002
 21
125.7038519894318
 31
0.0
  0
LINE
  5
BF
  8
0
 10
270.50000000000028
 20
137.7038519894318
 30
0.0
 11
265.00000000000028
 21
132.70385198943171
 31
0.0
  0
LINE
  5
C0
  8
0
 10
249.5000000000002
 20
137.70385198943171
 30
0.0
 11
255.0000000000002
 21
132.70385198943171
 31
0.0
  0
LINE
  5
C1
  8
0
 10
193.22483920649429
 20
125.7038519894317
 30
0.0
 11
192.22483920649429
 21
126.7038519894317
 31
0.0
  0
LINE
  5
C2
  8
0
 10
252.57730000000001
 20
126.7038519894317
 30
0.0
 11
252.92160000000021
 21
125.7038519894318
 31
0.0
  0
LINE
  5
C3
  8
0
 10
267.42270000000008
 20
126.7038519894318
 30
0.0
 11
267.07840000000027
 21
125.7038519894318
 31
0.0
  0
ARC
  5
C4
  8
0
 10
180.0000000000002
 20
210.0
 30
0.0
 40
25.0
 50
349.1907146172606
 51
10.809285382739819
  0
LINE
  5
C5
  8
0
 10
183.3947981153492
 20
220.4630466765669
 30
0.0
 11
204.19061642667049
 21
215.07878168190209
 31
0.0
  0
LINE
  5
C6
  8
0
 10
183.3947981153525
 20
199.53695332343401
 30
0.0
 11
204.19061642667049
 21
204.92121831809811
 31
0.0
  0
LINE
  5
C7
  8
0
 10
205.0000000000004
 20
132.3514923913132
 30
0.0
 11
205.00000000000031
 21
126.2038519894317
 31
0.0
  0
ARC
  5
C8
  8
0
 10
204.50000000000031
 20
126.2038519894316
 30
0.0
 40
0.5
 50
270.0
 51
0.0000000000000838
  0
LINE
  5
C9
  8
0
 10
204.6681681984995
 20
132.82236334711061
 30
0.0
 11
192.63122647534479
 21
137.12127110538
 31
0.0
  0
ARC
  5
CA
  8
0
 10
204.5000000000004
 20
132.3514923913132
 30
0.0
 40
0.5
 50
359.99999999999972
 51
70.346175941947109
  0
ARC
  5
CB
  8
0
 10
189.2678625053633
 20
127.7038519894316
 30
0.0
 40
10.0
 50
70.346175941947109
 51
90.0
  0
ARC
  5
CC
  8
0
 10
204.06529333263731
 20
214.59474230116751
 30
0.0
 40
0.5
 50
10.80928538274002
 51
75.484246449321347
  0
ARC
  5
CD
  8
0
 10
204.0652933326372
 20
205.40525769883271
 30
0.0
 40
0.5
 50
284.5157535506786
 51
349.19071461726202
  0
LINE
  5
2E6
  8
3
 10
176.60000000000051
 20
102.7038519894317
 30
0.0
 11
176.60000000000059
 21
82.303851989431223
 31
0.0
  0
LINE
  5
2E7
  8
0
 10
176.0000000000002
 20
102.7038519894317
 30
0.0
 11
176.00000000000031
 21
82.903851989431502
 31
0.0
  0
LINE
  5
2E8
  8
3
 10
183.39999999999981
 20
102.7038519894317
 30
0.0
 11
183.39999999999989
 21
82.303851989431223
 31
0.0
  0
LINE
  5
2E9
  8
0
 10
184.00000000000011
 20
102.7038519894317
 30
0.0
 11
184.00000000000031
 21
82.903851989431502
 31
0.0
  0
LINE
  5
304
  8
0
 10
176.00000000000031
 20
82.903851989431502
 30
0.0
 11
177.2000000000003
 21
81.703851989431683
 31
0.0
  0
LINE
  5
305
  8
0
 10
184.00000000000031
 20
82.903851989431502
 30
0.0
 11
182.80000000000021
 21
81.703851989431698
 31
0.0
  0
LINE
  5
306
  8
0
 10
176.00000000000031
 20
82.903851989431502
 30
0.0
 11
184.00000000000031
 21
82.903851989431502
 31
0.0
  0
LINE
  5
307
  8
0
 10
177.2000000000003
 20
81.703851989431683
 30
0.0
 11
182.80000000000021
 21
81.703851989431698
 31
0.0
  0
CIRCLE
  5
3C0
  8
0
 10
180.00000000000011
 20
210.0
 30
0.0
 40
6.5
  0
LINE
  5
3C1
  8
0
 10
181.7320508075689
 20
207.0
 30
0.0
 11
183.46410161513771
 21
210.0
 31
0.0
  0
LINE
  5
3C2
  8
0
 10
183.46410161513771
 20
210.0
 30
0.0
 11
181.7320508075689
 21
213.0
 31
0.0
  0
LINE
  5
3C3
  8
0
 10
181.7320508075689
 20
213.0
 30
0.0
 11
178.26794919243119
 21
213.0
 31
0.0
  0
LINE
  5
3C4
  8
0
 10
178.26794919243119
 20
213.0
 30
0.0
 11
176.53589838486241
 21
210.0
 31
0.0
  0
LINE
  5
3C5
  8
0
 10
176.53589838486241
 20
210.0
 30
0.0
 11
178.26794919243119
 21
207.0
 31
0.0
  0
LINE
  5
3C6
  8
0
 10
178.26794919243119
 20
207.0
 30
0.0
 11
181.7320508075691
 21
207.0
 31
0.0
  0
CIRCLE
  5
3C7
  8
0
 10
180.00000000000011
 20
210.0
 30
0.0
 40
5.633974596214216
  0
CIRCLE
  5
3E7
  8
0
 10
184.7500000000002
 20
87.703808828426915
 30
0.0
 40
0.5
  0
LINE
  5
3EA
  8
3
 10
184.2500000000002
 20
87.703808828426915
 30
0.0
 11
184.2500000000002
 21
102.7038519894317
 31
0.0
  0
LINE
  5
3EB
  8
3
 10
185.2500000000002
 20
87.703808828426915
 30
0.0
 11
185.2500000000002
 21
102.7038519894317
 31
0.0
  0
CIRCLE
  5
3ED
  8
0
 10
175.2500000000002
 20
87.703808828426915
 30
0.0
 40
0.5
  0
LINE
  5
3EE
  8
3
 10
175.7500000000002
 20
87.703808828426915
 30
0.0
 11
175.7500000000002
 21
102.7038519894316
 31
0.0
  0
LINE
  5
3EF
  8
3
 10
174.7500000000002
 20
87.703808828426915
 30
0.0
 11
174.7500000000002
 21
102.7038519894316
 31
0.0
  0
LINE
  5
414
  8
3
 10
106.60000000000061
 20
102.7038519894314
 30
0.0
 11
106.6000000000007
 21
82.303851989430939
 31
0.0
  0
LINE
  5
415
  8
0
 10
106.0000000000002
 20
102.7038519894314
 30
0.0
 11
106.0000000000003
 21
82.903851989431232
 31
0.0
  0
LINE
  5
416
  8
3
 10
113.39999999999991
 20
102.7038519894314
 30
0.0
 11
113.39999999999991
 21
82.303851989430939
 31
0.0
  0
LINE
  5
417
  8
0
 10
114.0000000000002
 20
102.7038519894314
 30
0.0
 11
114.0000000000003
 21
82.903851989431232
 31
0.0
  0
LINE
  5
418
  8
0
 10
106.0000000000003
 20
82.903851989431232
 30
0.0
 11
107.2000000000004
 21
81.703851989431413
 31
0.0
  0
LINE
  5
419
  8
0
 10
114.0000000000003
 20
82.903851989431232
 30
0.0
 11
112.8000000000003
 21
81.703851989431413
 31
0.0
  0
LINE
  5
41A
  8
0
 10
106.0000000000003
 20
82.903851989431232
 30
0.0
 11
114.0000000000003
 21
82.903851989431232
 31
0.0
  0
LINE
  5
41B
  8
0
 10
107.2000000000004
 20
81.703851989431413
 30
0.0
 11
112.8000000000003
 21
81.703851989431413
 31
0.0
  0
CIRCLE
  5
41C
  8
0
 10
114.7500000000002
 20
87.703808828426645
 30
0.0
 40
0.5
  0
LINE
  5
41D
  8
3
 10
114.2500000000002
 20
87.703808828426645
 30
0.0
 11
114.2500000000002
 21
102.7038519894314
 31
0.0
  0
LINE
  5
41E
  8
3
 10
115.2500000000002
 20
87.703808828426645
 30
0.0
 11
115.2500000000002
 21
102.7038519894314
 31
0.0
  0
CIRCLE
  5
41F
  8
0
 10
105.2500000000002
 20
87.703808828426645
 30
0.0
 40
0.5
  0
LINE
  5
420
  8
3
 10
105.7500000000002
 20
87.703808828426645
 30
0.0
 11
105.7500000000002
 21
102.7038519894314
 31
0.0
  0
LINE
  5
421
  8
3
 10
104.7500000000002
 20
87.703808828426645
 30
0.0
 11
104.7500000000002
 21
102.7038519894314
 31
0.0
  0
LINE
  5
422
  8
3
 10
256.60000000000059
 20
102.7038519894318
 30
0.0
 11
256.6000000000007
 21
82.303851989431394
 31
0.0
  0
LINE
  5
423
  8
0
 10
256.00000000000028
 20
102.7038519894318
 30
0.0
 11
256.0000000000004
 21
82.903851989431686
 31
0.0
  0
LINE
  5
424
  8
3
 10
263.39999999999992
 20
102.7038519894318
 30
0.0
 11
263.39999999999998
 21
82.303851989431394
 31
0.0
  0
LINE
  5
425
  8
0
 10
264.00000000000028
 20
102.7038519894318
 30
0.0
 11
264.0000000000004
 21
82.903851989431686
 31
0.0
  0
LINE
  5
426
  8
0
 10
256.0000000000004
 20
82.903851989431686
 30
0.0
 11
257.20000000000039
 21
81.703851989431854
 31
0.0
  0
LINE
  5
427
  8
0
 10
264.0000000000004
 20
82.903851989431686
 30
0.0
 11
262.8000000000003
 21
81.703851989431854
 31
0.0
  0
LINE
  5
428
  8
0
 10
256.0000000000004
 20
82.903851989431686
 30
0.0
 11
264.0000000000004
 21
82.903851989431686
 31
0.0
  0
LINE
  5
429
  8
0
 10
257.20000000000039
 20
81.703851989431854
 30
0.0
 11
262.8000000000003
 21
81.703851989431854
 31
0.0
  0
CIRCLE
  5
42A
  8
0
 10
264.75000000000028
 20
87.703808828427086
 30
0.0
 40
0.5
  0
LINE
  5
42B
  8
3
 10
264.25000000000028
 20
87.703808828427086
 30
0.0
 11
264.25000000000028
 21
102.7038519894318
 31
0.0
  0
LINE
  5
42C
  8
3
 10
265.25000000000028
 20
87.703808828427086
 30
0.0
 11
265.25000000000028
 21
102.7038519894318
 31
0.0
  0
CIRCLE
  5
42D
  8
0
 10
255.2500000000002
 20
87.703808828427086
 30
0.0
 40
0.5
  0
LINE
  5
42E
  8
3
 10
255.75000000000031
 20
87.703808828427086
 30
0.0
 11
255.75000000000031
 21
102.7038519894318
 31
0.0
  0
LINE
  5
42F
  8
3
 10
254.7500000000002
 20
87.703808828427086
 30
0.0
 11
254.7500000000002
 21
102.7038519894318
 31
0.0
  0
TEXT
  5
56A
  8
0
 62
     3
 10
0.0
 20
0.0
 30
0.0
 40
10.0
  1
BJ130-08025
  7
STANDARD1
  0
ENDSEC
  0
EOF
