  0
SECTION
  2
HEADER
  9
$ACADVER
  1
AC1009
  9
$INSBASE
 10
0.0
 20
0.0
 30
0.0
  9
$EXTMIN
 10
0.0
 20
-2.960436562073669
 30
0.0
  9
$EXTMAX
 10
280.07113199999998
 20
224.69410400000001
 30
0.0
  9
$LIMMIN
 10
0.0
 20
0.0
  9
$LIMMAX
 10
375.0
 20
270.0
  9
$ORTHOMODE
 70
     1
  9
$REGENMODE
 70
     1
  9
$FILLMODE
 70
     1
  9
$QTEXTMODE
 70
     0
  9
$MIRRTEXT
 70
     0
  9
$DRAGMODE
 70
     2
  9
$LTSCALE
 40
10.0
  9
$OSMODE
 70
  3071
  9
$ATTMODE
 70
     1
  9
$TEXTSIZE
 40
0.2
  9
$TRACEWID
 40
0.05
  9
$TEXTSTYLE
  7
STANDARD
  9
$CLAYER
  8
2
  9
$CELTYPE
  6
BYLAYER
  9
$CECOLOR
 62
   256
  9
$DIMSCALE
 40
1.0
  9
$DIMASZ
 40
3.0
  9
$DIMEXO
 40
2.0
  9
$DIMDLI
 40
0.38
  9
$DIMRND
 40
0.0
  9
$DIMDLE
 40
0.0
  9
$DIMEXE
 40
2.0
  9
$DIMTP
 40
0.0
  9
$DIMTM
 40
0.0
  9
$DIMTXT
 40
3.0
  9
$DIMCEN
 40
0.0
  9
$DIMTSZ
 40
0.0
  9
$DIMTOL
 70
     0
  9
$DIMLIM
 70
     0
  9
$DIMTIH
 70
     0
  9
$DIMTOH
 70
     0
  9
$DIMSE1
 70
     0
  9
$DIMSE2
 70
     0
  9
$DIMTAD
 70
     1
  9
$DIMZIN
 70
     0
  9
$DIMBLK
  1

  9
$DIMASO
 70
     0
  9
$DIMSHO
 70
     0
  9
$DIMPOST
  1

  9
$DIMAPOST
  1

  9
$DIMALT
 70
     0
  9
$DIMALTD
 70
     2
  9
$DIMALTF
 40
25.399999999999999
  9
$DIMLFAC
 40
1.0
  9
$DIMTOFL
 70
     1
  9
$DIMTVP
 40
1.6000000000000001
  9
$DIMTIX
 70
     1
  9
$DIMSOXD
 70
     0
  9
$DIMSAH
 70
     0
  9
$DIMBLK1
  1

  9
$DIMBLK2
  1

  9
$DIMSTYLE
  2
STANDARD
  9
$DIMCLRD
 70
     0
  9
$DIMCLRE
 70
     0
  9
$DIMCLRT
 70
     0
  9
$DIMTFAC
 40
1.0
  9
$DIMGAP
 40
0.09
  9
$LUNITS
 70
     2
  9
$LUPREC
 70
     4
  9
$SKETCHINC
 40
0.1
  9
$FILLETRAD
 40
0.0
  9
$AUNITS
 70
     0
  9
$AUPREC
 70
     4
  9
$MENU
  1
E:\r13\win\SUPPORT\ACAD
  9
$ELEVATION
 40
0.0
  9
$PELEVATION
 40
0.0
  9
$THICKNESS
 40
0.0
  9
$LIMCHECK
 70
     0
  9
$BLIPMODE
 70
     0
  9
$CHAMFERA
 40
0.0
  9
$CHAMFERB
 40
0.0
  9
$SKPOLY
 70
     0
  9
$TDCREATE
 40
2449840.3503240738
  9
$TDUPDATE
 40
2456597.6200623149
  9
$TDINDWG
 40
0.0150275463
  9
$TDUSRTIMER
 40
2456513.2466986692
  9
$USRTIMER
 70
     1
  9
$ANGBASE
 50
0.0
  9
$ANGDIR
 70
     0
  9
$PDMODE
 70
     0
  9
$PDSIZE
 40
0.0
  9
$PLINEWID
 40
0.0
  9
$COORDS
 70
     1
  9
$SPLFRAME
 70
     0
  9
$SPLINETYPE
 70
     6
  9
$SPLINESEGS
 70
     8
  9
$ATTDIA
 70
     0
  9
$ATTREQ
 70
     1
  9
$HANDLING
 70
     1
  9
$HANDSEED
  5
5DD
  9
$SURFTAB1
 70
     6
  9
$SURFTAB2
 70
     6
  9
$SURFTYPE
 70
     6
  9
$SURFU
 70
     6
  9
$SURFV
 70
     6
  9
$UCSNAME
  2

  9
$UCSORG
 10
0.0
 20
0.0
 30
0.0
  9
$UCSXDIR
 10
1.0
 20
0.0
 30
0.0
  9
$UCSYDIR
 10
0.0
 20
1.0
 30
0.0
  9
$PUCSNAME
  2

  9
$PUCSORG
 10
0.0
 20
0.0
 30
0.0
  9
$PUCSXDIR
 10
1.0
 20
0.0
 30
0.0
  9
$PUCSYDIR
 10
0.0
 20
1.0
 30
0.0
  9
$USERI1
 70
     3
  9
$USERI2
 70
     1
  9
$USERI3
 70
     0
  9
$USERI4
 70
     0
  9
$USERI5
 70
     0
  9
$USERR1
 40
1.0
  9
$USERR2
 40
3.0
  9
$USERR3
 40
3.0
  9
$USERR4
 40
3.0
  9
$USERR5
 40
10.0
  9
$WORLDVIEW
 70
     1
  9
$SHADEDGE
 70
     3
  9
$SHADEDIF
 70
    70
  9
$TILEMODE
 70
     1
  9
$MAXACTVP
 70
    16
  9
$PLIMCHECK
 70
     0
  9
$PEXTMIN
 10
1.0000000000000000E+020
 20
1.0000000000000000E+020
 30
1.0000000000000000E+020
  9
$PEXTMAX
 10
-1.0000000000000000E+020
 20
-1.0000000000000000E+020
 30
-1.0000000000000000E+020
  9
$PLIMMIN
 10
0.0
 20
0.0
  9
$PLIMMAX
 10
12.0
 20
9.0
  9
$UNITMODE
 70
     0
  9
$VISRETAIN
 70
     0
  9
$PLINEGEN
 70
     0
  9
$PSLTSCALE
 70
     0
  0
ENDSEC
  0
SECTION
  2
TABLES
  0
TABLE
  2
VPORT
 70
     1
  0
VPORT
  2
*ACTIVE
 70
     0
 10
0.0
 20
0.0
 11
1.0
 21
1.0
 12
187.49427839065231
 22
191.41710799499691
 13
0.0
 23
0.0
 14
5.0
 24
5.0
 15
10.0
 25
10.0
 16
0.0
 26
0.0
 36
1.0
 17
0.0
 27
0.0
 37
0.0
 40
392.30556364789771
 41
1.831871345029239
 42
50.0
 43
0.0
 44
0.0
 50
0.0
 51
0.0
 71
    16
 72
   100
 73
     1
 74
     0
 75
     0
 76
     0
 77
     0
 78
     2
  0
ENDTAB
  0
TABLE
  2
LTYPE
 70
     4
  0
LTYPE
  2
CONTINUOUS
 70
     0
  3
Solid Line
 72
    65
 73
     0
 40
0.0
  0
LTYPE
  2
PHANTOM2
 70
     0
  3
___ _ _ ___ _ _ ___ _ _ ___ _ _
 72
    65
 73
     6
 40
1.25
 49
0.625
 49
-0.125
 49
0.125
 49
-0.125
 49
0.125
 49
-0.125
  0
LTYPE
  2
CENTER
 70
     0
  3
____ _ ____ _ ____ _ ____ _ ____ _ ____ _ ____
 72
    65
 73
     4
 40
2.0
 49
1.25
 49
-0.25
 49
0.25
 49
-0.25
  0
LTYPE
  2
HIDDEN
 70
     0
  3
_ _ _ _ _ _ _ _ _ _ _ _ _ _ _ _ _ _ _ _ _ _ _
 72
    65
 73
     2
 40
0.375
 49
0.25
 49
-0.125
  0
ENDTAB
  0
TABLE
  2
LAYER
 70
     4
  0
LAYER
  2
0
 70
     0
 62
     7
  6
CONTINUOUS
  0
LAYER
  2
2
 70
     0
 62
     2
  6
HIDDEN
  0
LAYER
  2
1
 70
     0
 62
     1
  6
CENTER
  0
LAYER
  2
3
 70
     0
 62
     3
  6
CONTINUOUS
  0
ENDTAB
  0
TABLE
  2
STYLE
 70
     3
  0
STYLE
  2
STANDARD
 70
     0
 40
0.0
 41
1.0
 50
0.0
 71
     0
 42
0.2
  3
TXT
  4
BIGFONT
  0
STYLE
  2
ANNOTATIVE
 70
     0
 40
0.0
 41
1.0
 50
0.0
 71
     0
 42
0.2
  3
txt
  4

  0
STYLE
  2
STANDARD1
 70
     0
 40
0.0
 41
1.0
 50
0.0
 71
     0
 42
3.0
  3
txt
  4

  0
ENDTAB
  0
TABLE
  2
VIEW
 70
     0
  0
ENDTAB
  0
TABLE
  2
UCS
 70
     0
  0
ENDTAB
  0
TABLE
  2
APPID
 70
     5
  0
APPID
  2
ACAD
 70
     0
  0
APPID
  2
ACADANNOTATIVE
 70
     0
  0
APPID
  2
ACAD_MLEADERVER
 70
     0
  0
APPID
  2
ACAD_NAV_VCDISPLAY
 70
     0
  0
APPID
  2
ACAD_EXEMPT_FROM_CAD_STANDARDS
 70
     0
  0
ENDTAB
  0
TABLE
  2
DIMSTYLE
 70
     2
  0
DIMSTYLE
  2
STANDARD
 70
     0
  3

  4

  5

  6

  7

 40
1.0
 41
0.18
 42
0.0625
 43
0.38
 44
0.18
 45
0.0
 46
0.0
 47
0.0
 48
0.0
140
0.18
141
0.09
142
0.0
143
25.399999999999999
144
1.0
145
0.0
146
1.0
147
0.09
 71
     0
 72
     0
 73
     1
 74
     1
 75
     0
 76
     0
 77
     0
 78
     0
170
     0
171
     2
172
     0
173
     0
174
     0
175
     0
176
     0
177
     0
178
     0
  0
DIMSTYLE
  2
ANNOTATIVE
 70
     0
  3

  4

  5

  6

  7

 40
1.0
 41
0.18
 42
0.0625
 43
0.38
 44
0.18
 45
0.0
 46
0.0
 47
0.0
 48
0.0
140
0.18
141
0.09
142
0.0
143
25.399999999999999
144
1.0
145
0.0
146
1.0
147
0.09
 71
     0
 72
     0
 73
     1
 74
     1
 75
     0
 76
     0
 77
     0
 78
     0
170
     0
171
     2
172
     0
173
     0
174
     0
175
     0
176
     0
177
     0
178
     0
  0
ENDTAB
  0
ENDSEC
  0
SECTION
  2
BLOCKS
  0
BLOCK
  8
0
  2
$MODEL_SPACE
 70
     0
 10
0.0
 20
0.0
 30
0.0
  3
$MODEL_SPACE
  1

  0
ENDBLK
  5
516
  8
0
  0
BLOCK
 67
     1
  8
0
  2
$PAPER_SPACE
 70
     0
 10
0.0
 20
0.0
 30
0.0
  3
$PAPER_SPACE
  1

  0
ENDBLK
  5
512
 67
     1
  8
0
  0
ENDSEC
  0
SECTION
  2
ENTITIES
  0
LINE
  5
277
  8
1
 10
162.03556599999999
 20
202.69410400000001
 30
0.0
 11
206.03556599999999
 21
202.69410400000001
 31
0.0
  0
LINE
  5
278
  8
1
 10
184.03556599999999
 20
180.69410400000001
 30
0.0
 11
184.03556599999999
 21
224.69410400000001
 31
0.0
  0
ARC
  5
27C
  8
0
 10
184.03556599999999
 20
202.69410400000001
 30
0.0
 40
12.0
 50
66.443535690898742
 51
293.55646430910127
  0
ARC
  5
27D
  8
0
 10
83.771131999999966
 20
128.980535
 30
0.0
 40
0.8
 50
0.000000000000007
 51
90.0
  0
LINE
  5
27E
  8
0
 10
101.57113200000001
 20
128.78053499999999
 30
0.0
 11
101.57113200000001
 21
128.980535
 31
0.0
  0
ARC
  5
27F
  8
0
 10
102.371132
 20
128.980535
 30
0.0
 40
0.8
 50
90.0
 51
180.0
  0
ARC
  5
280
  8
2
 10
102.371132
 20
128.580535
 30
0.0
 40
0.8
 50
180.0
 51
247.9756869999984
  0
ARC
  5
281
  8
2
 10
83.771131999999966
 20
128.580535
 30
0.0
 40
0.8
 50
292.02431300000171
 51
0.000000000000007
  0
LINE
  5
282
  8
0
 10
84.571131999999977
 20
128.78053499999999
 30
0.0
 11
84.571131999999977
 21
128.980535
 31
0.0
  0
ARC
  5
283
  8
0
 10
82.571131999999963
 20
130.28053499999999
 30
0.0
 40
0.5
 50
180.0
 51
270.0
  0
ARC
  5
284
  8
0
 10
103.57113200000001
 20
130.28053499999999
 30
0.0
 40
0.5
 50
270.0
 51
0.000000000000007
  0
LINE
  5
285
  8
0
 10
103.57113200000001
 20
129.78053499999999
 30
0.0
 11
82.571131999999963
 21
129.78053499999999
 31
0.0
  0
ARC
  5
286
  8
0
 10
103.57113200000001
 20
140.28053499999999
 30
0.0
 40
0.5
 50
0.000000000000007
 51
90.0
  0
ARC
  5
287
  8
0
 10
82.571131999999963
 20
140.28053499999999
 30
0.0
 40
0.5
 50
90.0
 51
180.0
  0
LINE
  5
288
  8
0
 10
82.571131999999963
 20
140.78053499999999
 30
0.0
 11
103.57113200000001
 21
140.78053499999999
 31
0.0
  0
LINE
  5
289
  8
0
 10
104.07113199999991
 20
140.28053499999999
 30
0.0
 11
104.07113199999991
 21
130.28053499999999
 31
0.0
  0
LINE
  5
28A
  8
0
 10
82.071131999999977
 20
140.28053499999999
 30
0.0
 11
82.071131999999977
 21
130.28053499999999
 31
0.0
  0
LINE
  5
28B
  8
2
 10
102.07113199999991
 20
127.838915
 30
0.0
 11
102.07113199999991
 21
106.280535
 31
0.0
  0
LINE
  5
28C
  8
2
 10
84.071131999999963
 20
127.838915
 30
0.0
 11
84.071131999999963
 21
106.280535
 31
0.0
  0
LINE
  5
28D
  8
2
 10
84.571131999999977
 20
105.780535
 30
0.0
 11
101.57113200000001
 21
105.780535
 31
0.0
  0
LINE
  5
28E
  8
2
 10
101.57113200000001
 20
105.780535
 30
0.0
 11
102.07113199999991
 21
106.280535
 31
0.0
  0
LINE
  5
28F
  8
2
 10
84.571131999999977
 20
105.780535
 30
0.0
 11
84.071131999999963
 21
106.280535
 31
0.0
  0
LINE
  5
290
  8
2
 10
102.07113199999991
 20
106.280535
 30
0.0
 11
84.071131999999963
 21
106.280535
 31
0.0
  0
LINE
  5
291
  8
2
 10
95.871132000000003
 20
84.780535000000015
 30
0.0
 11
90.271131999999966
 21
84.780535000000015
 31
0.0
  0
LINE
  5
292
  8
2
 10
97.071131999999963
 20
85.980535000000017
 30
0.0
 11
89.071131999999949
 21
85.980535000000017
 31
0.0
  0
LINE
  5
293
  8
2
 10
89.071131999999949
 20
85.980535000000017
 30
0.0
 11
90.271131999999966
 21
84.780535000000015
 31
0.0
  0
LINE
  5
294
  8
2
 10
97.071131999999963
 20
85.980535000000017
 30
0.0
 11
95.871132000000003
 21
84.780535000000015
 31
0.0
  0
LINE
  5
295
  8
2
 10
89.071131999999949
 20
105.780535
 30
0.0
 11
89.071131999999949
 21
85.980535000000017
 31
0.0
  0
LINE
  5
296
  8
2
 10
89.671132
 20
105.780535
 30
0.0
 11
89.671132
 21
85.380535000000009
 31
0.0
  0
LINE
  5
297
  8
2
 10
97.071131999999963
 20
105.780535
 30
0.0
 11
97.071131999999963
 21
85.980535000000017
 31
0.0
  0
LINE
  5
298
  8
2
 10
96.471131999999969
 20
105.780535
 30
0.0
 11
96.471131999999969
 21
85.380535000000009
 31
0.0
  0
LINE
  5
299
  8
2
 10
84.071131999999963
 20
127.838915
 30
0.0
 11
102.07113199999991
 21
127.838915
 31
0.0
  0
LINE
  5
29A
  8
0
 10
98.705106999999998
 20
142.78053499999999
 30
0.0
 11
99.571131999999963
 21
142.28053499999999
 31
0.0
  0
LINE
  5
29B
  8
0
 10
99.571131999999963
 20
142.28053499999999
 30
0.0
 11
99.571131999999963
 21
140.78053499999999
 31
0.0
  0
LINE
  5
29C
  8
0
 10
86.571131999999949
 20
142.28053499999999
 30
0.0
 11
86.571131999999949
 21
140.78053499999999
 31
0.0
  0
LINE
  5
29D
  8
0
 10
87.437156999999956
 20
142.78053499999999
 30
0.0
 11
86.571131999999949
 21
142.28053499999999
 31
0.0
  0
LINE
  5
29E
  8
0
 10
87.437156999999956
 20
142.78053499999999
 30
0.0
 11
98.705106999999998
 21
142.78053499999999
 31
0.0
  0
LINE
  5
29F
  8
0
 10
99.571131999999963
 20
142.28053499999999
 30
0.0
 11
86.571131999999949
 21
142.28053499999999
 31
0.0
  0
LINE
  5
2A0
  8
1
 10
93.071131999999963
 20
152.78053499999999
 30
0.0
 11
93.071131999999963
 21
44.780534999999972
 31
0.0
  0
ARC
  5
2A1
  8
0
 10
193.74180100000001
 20
130.78053499999999
 30
0.0
 40
10.0
 50
75.256436999999423
 51
90.0
  0
ARC
  5
2A2
  8
0
 10
213.53556599999999
 20
129.28053499999999
 30
0.0
 40
0.5
 50
270.0
 51
0.000000000000007
  0
LINE
  5
2A3
  8
0
 10
196.286734
 20
140.45128
 30
0.0
 11
214.03556599999999
 21
135.78053499999999
 31
0.0
  0
LINE
  5
2A4
  8
0
 10
214.03556599999999
 20
135.78053499999999
 30
0.0
 11
214.03556599999999
 21
129.28053499999999
 31
0.0
  0
LINE
  5
2A5
  8
0
 10
202.26040499999999
 20
128.78053499999999
 30
0.0
 11
201.26040499999999
 21
129.78053499999999
 31
0.0
  0
LINE
  5
2A6
  8
0
 10
213.53556599999999
 20
128.78053499999999
 30
0.0
 11
202.26040499999999
 21
128.78053499999999
 31
0.0
  0
LINE
  5
2A7
  8
0
 10
173.53556599999999
 20
140.78053499999999
 30
0.0
 11
193.74180100000001
 21
140.78053499999999
 31
0.0
  0
LINE
  5
2A8
  8
2
 10
175.03556599999999
 20
127.838915
 30
0.0
 11
175.03556599999999
 21
106.280535
 31
0.0
  0
LINE
  5
2A9
  8
2
 10
175.53556599999999
 20
105.780535
 30
0.0
 11
192.53556599999999
 21
105.780535
 31
0.0
  0
LINE
  5
2AA
  8
2
 10
192.53556599999999
 20
105.780535
 30
0.0
 11
193.03556599999999
 21
106.280535
 31
0.0
  0
LINE
  5
2AB
  8
2
 10
175.53556599999999
 20
105.780535
 30
0.0
 11
175.03556599999999
 21
106.280535
 31
0.0
  0
LINE
  5
2AC
  8
0
 10
175.53556599999999
 20
128.78053499999999
 30
0.0
 11
175.53556599999999
 21
128.980535
 31
0.0
  0
ARC
  5
2AD
  8
2
 10
174.73556600000001
 20
128.580535
 30
0.0
 40
0.8
 50
292.02431300000171
 51
0.000000000000007
  0
ARC
  5
2AE
  8
2
 10
193.335566
 20
128.580535
 30
0.0
 40
0.8
 50
180.0
 51
247.9756869999984
  0
ARC
  5
2AF
  8
0
 10
193.335566
 20
128.980535
 30
0.0
 40
0.8
 50
90.0
 51
180.0
  0
LINE
  5
2B0
  8
0
 10
192.53556599999999
 20
128.78053499999999
 30
0.0
 11
192.53556599999999
 21
128.980535
 31
0.0
  0
LINE
  5
2B1
  8
2
 10
193.03556599999999
 20
127.838915
 30
0.0
 11
193.03556599999999
 21
106.280535
 31
0.0
  0
LINE
  5
2B2
  8
2
 10
193.03556599999999
 20
127.838915
 30
0.0
 11
175.03556599999999
 21
127.838915
 31
0.0
  0
LINE
  5
2B3
  8
2
 10
193.03556599999999
 20
106.280535
 30
0.0
 11
175.03556599999999
 21
106.280535
 31
0.0
  0
LINE
  5
2B4
  8
1
 10
184.03556599999999
 20
152.78053499999999
 30
0.0
 11
184.03556599999999
 21
44.780534999999972
 31
0.0
  0
LINE
  5
2B5
  8
0
 10
189.6695409999999
 20
142.78053499999999
 30
0.0
 11
190.53556599999999
 21
142.28053499999999
 31
0.0
  0
LINE
  5
2B6
  8
0
 10
190.53556599999999
 20
142.28053499999999
 30
0.0
 11
190.53556599999999
 21
140.78053499999999
 31
0.0
  0
LINE
  5
2B7
  8
0
 10
177.53556599999999
 20
142.28053499999999
 30
0.0
 11
177.53556599999999
 21
140.78053499999999
 31
0.0
  0
LINE
  5
2B8
  8
0
 10
178.401591
 20
142.78053499999999
 30
0.0
 11
177.53556599999999
 21
142.28053499999999
 31
0.0
  0
LINE
  5
2B9
  8
0
 10
178.401591
 20
142.78053499999999
 30
0.0
 11
189.6695409999999
 21
142.78053499999999
 31
0.0
  0
LINE
  5
2BA
  8
2
 10
186.835566
 20
84.780535000000015
 30
0.0
 11
181.23556599999989
 21
84.780535000000015
 31
0.0
  0
LINE
  5
2BB
  8
2
 10
188.03556599999999
 20
85.980535000000017
 30
0.0
 11
180.03556599999999
 21
85.980535000000017
 31
0.0
  0
LINE
  5
2BC
  8
2
 10
180.03556599999999
 20
85.980535000000017
 30
0.0
 11
181.23556599999989
 21
84.780535000000015
 31
0.0
  0
LINE
  5
2BD
  8
2
 10
188.03556599999999
 20
85.980535000000017
 30
0.0
 11
186.835566
 21
84.780535000000015
 31
0.0
  0
LINE
  5
2BE
  8
0
 10
190.53556599999999
 20
142.28053499999999
 30
0.0
 11
177.53556599999999
 21
142.28053499999999
 31
0.0
  0
LINE
  5
2BF
  8
2
 10
180.03556599999999
 20
105.780535
 30
0.0
 11
180.03556599999999
 21
85.980535000000017
 31
0.0
  0
LINE
  5
2C0
  8
2
 10
180.63556600000001
 20
105.780535
 30
0.0
 11
180.63556600000001
 21
85.380535000000009
 31
0.0
  0
LINE
  5
2C1
  8
2
 10
188.03556599999999
 20
105.780535
 30
0.0
 11
188.03556599999999
 21
85.980535000000017
 31
0.0
  0
LINE
  5
2C2
  8
2
 10
187.43556599999999
 20
105.780535
 30
0.0
 11
187.43556599999999
 21
85.380535000000009
 31
0.0
  0
ARC
  5
2C4
  8
0
 10
174.73556600000001
 20
128.980535
 30
0.0
 40
0.8
 50
0.000000000000007
 51
90.0
  0
ARC
  5
2C5
  8
0
 10
173.53556599999999
 20
130.28053499999999
 30
0.0
 40
0.5
 50
180.0
 51
270.0
  0
ARC
  5
2C6
  8
0
 10
173.53556599999999
 20
140.28053499999999
 30
0.0
 40
0.5
 50
90.0
 51
180.0
  0
LINE
  5
2C7
  8
0
 10
173.03556599999999
 20
140.28053499999999
 30
0.0
 11
173.03556599999999
 21
130.28053499999999
 31
0.0
  0
LINE
  5
2C8
  8
0
 10
201.26040499999999
 20
129.78053499999999
 30
0.0
 11
173.53556599999999
 21
129.78053499999999
 31
0.0
  0
ARC
  5
2C9
  8
0
 10
212.73036099999999
 20
206.89038099999999
 30
0.0
 40
1.0
 50
8.3198619999994623
 51
75.487746999997839
  0
ARC
  5
2CA
  8
0
 10
212.73036099999999
 20
198.497827
 30
0.0
 40
1.0
 50
284.5122530000022
 51
351.68013800000062
  0
LINE
  5
2CB
  8
0
 10
212.98094800000001
 20
207.858475
 30
0.0
 11
191.792024
 21
213.34313900000001
 31
0.0
  0
LINE
  5
2CC
  8
0
 10
212.98094800000001
 20
197.52973299999999
 30
0.0
 11
191.792024
 21
192.04506900000001
 31
0.0
  0
LINE
  5
2CD
  8
0
 10
184.03556599999999
 20
213.69410400000001
 30
0.0
 11
189.03556599999999
 21
213.69410400000001
 31
0.0
  0
LINE
  5
2CE
  8
0
 10
184.03556599999999
 20
191.69410400000001
 30
0.0
 11
189.03556599999999
 21
191.69410400000001
 31
0.0
  0
ARC
  5
2CF
  8
0
 10
184.03556599999999
 20
202.69410400000001
 30
0.0
 40
30.0
 50
351.680138
 51
8.3198619999999863
  0
ARC
  5
2D2
  8
0
 10
189.03556599999999
 20
202.69410400000001
 30
0.0
 40
11.0
 50
270.0
 51
90.0
  0
CIRCLE
  5
2D3
  8
0
 10
184.03556599999999
 20
202.69410400000001
 30
0.0
 40
7.8660249999999978
  0
ARC
  5
2D4
  8
0
 10
184.03556599999999
 20
202.69410400000001
 30
0.0
 40
11.0
 50
90.0
 51
270.0
  0
LINE
  5
2D6
  8
0
 10
275.493832
 20
129.78053499999999
 30
0.0
 11
275.14953200000002
 21
128.78053499999999
 31
0.0
  0
LINE
  5
2D7
  8
0
 10
260.6484319999999
 20
129.78053499999999
 30
0.0
 11
260.99273199999999
 21
128.78053499999999
 31
0.0
  0
LINE
  5
2D8
  8
0
 10
257.57113199999998
 20
140.78053499999999
 30
0.0
 11
263.07113199999998
 21
135.78053499999999
 31
0.0
  0
LINE
  5
2D9
  8
0
 10
278.57113199999998
 20
140.78053499999999
 30
0.0
 11
273.07113199999998
 21
135.78053499999999
 31
0.0
  0
LINE
  5
2DA
  8
0
 10
263.07113199999998
 20
135.78053499999999
 30
0.0
 11
263.07113199999998
 21
128.78053499999999
 31
0.0
  0
LINE
  5
2DB
  8
0
 10
273.07113199999998
 20
135.78053499999999
 30
0.0
 11
273.07113199999998
 21
128.78053499999999
 31
0.0
  0
LINE
  5
2DC
  8
0
 10
260.6484319999999
 20
129.78053499999999
 30
0.0
 11
257.57113199999998
 21
129.78053499999999
 31
0.0
  0
LINE
  5
2DD
  8
0
 10
263.07113199999998
 20
135.78053499999999
 30
0.0
 11
273.07113199999998
 21
135.78053499999999
 31
0.0
  0
LINE
  5
2DF
  8
0
 10
274.57113199999998
 20
142.28053499999999
 30
0.0
 11
261.57113199999998
 21
142.28053499999999
 31
0.0
  0
LINE
  5
2E0
  8
0
 10
262.43715700000001
 20
142.78053499999999
 30
0.0
 11
273.705107
 21
142.78053499999999
 31
0.0
  0
LINE
  5
2E1
  8
0
 10
262.43715700000001
 20
142.78053499999999
 30
0.0
 11
261.57113199999998
 21
142.28053499999999
 31
0.0
  0
LINE
  5
2E2
  8
0
 10
261.57113199999998
 20
142.28053499999999
 30
0.0
 11
261.57113199999998
 21
140.78053499999999
 31
0.0
  0
LINE
  5
2E3
  8
0
 10
274.57113199999998
 20
142.28053499999999
 30
0.0
 11
274.57113199999998
 21
140.78053499999999
 31
0.0
  0
LINE
  5
2E4
  8
0
 10
273.705107
 20
142.78053499999999
 30
0.0
 11
274.57113199999998
 21
142.28053499999999
 31
0.0
  0
LINE
  5
2E5
  8
2
 10
259.07113199999998
 20
127.838915
 30
0.0
 11
277.07113199999998
 21
127.838915
 31
0.0
  0
LINE
  5
2E6
  8
0
 10
257.07113199999998
 20
140.28053499999999
 30
0.0
 11
257.07113199999998
 21
130.28053499999999
 31
0.0
  0
LINE
  5
2E7
  8
0
 10
279.07113199999998
 20
140.28053499999999
 30
0.0
 11
279.07113199999998
 21
130.28053499999999
 31
0.0
  0
LINE
  5
2E8
  8
0
 10
257.57113199999998
 20
140.78053499999999
 30
0.0
 11
278.57113199999998
 21
140.78053499999999
 31
0.0
  0
ARC
  5
2E9
  8
0
 10
257.57113199999998
 20
140.28053499999999
 30
0.0
 40
0.5
 50
90.0
 51
180.0
  0
ARC
  5
2EA
  8
0
 10
278.57113199999998
 20
140.28053499999999
 30
0.0
 40
0.5
 50
0.000000000000007
 51
90.0
  0
LINE
  5
2EB
  8
0
 10
278.57113199999998
 20
129.78053499999999
 30
0.0
 11
275.493832
 21
129.78053499999999
 31
0.0
  0
ARC
  5
2EC
  8
0
 10
278.57113199999998
 20
130.28053499999999
 30
0.0
 40
0.5
 50
270.0
 51
0.000000000000007
  0
ARC
  5
2ED
  8
0
 10
257.57113199999998
 20
130.28053499999999
 30
0.0
 40
0.5
 50
180.0
 51
270.0
  0
LINE
  5
2EE
  8
0
 10
259.57113199999998
 20
128.78053499999999
 30
0.0
 11
259.57113199999998
 21
128.980535
 31
0.0
  0
ARC
  5
2EF
  8
2
 10
258.77113200000002
 20
128.580535
 30
0.0
 40
0.8
 50
292.0243129999983
 51
0.000000000000007
  0
ARC
  5
2F0
  8
2
 10
277.37113199999999
 20
128.580535
 30
0.0
 40
0.8
 50
180.0
 51
247.9756870000017
  0
ARC
  5
2F1
  8
0
 10
277.37113199999999
 20
128.980535
 30
0.0
 40
0.8
 50
90.0
 51
180.0
  0
LINE
  5
2F2
  8
0
 10
276.57113199999998
 20
128.78053499999999
 30
0.0
 11
276.57113199999998
 21
128.980535
 31
0.0
  0
ARC
  5
2F3
  8
0
 10
258.77113200000002
 20
128.980535
 30
0.0
 40
0.8
 50
0.000000000000007
 51
90.0
  0
LINE
  5
2F4
  8
2
 10
271.47113200000001
 20
105.780535
 30
0.0
 11
271.47113200000001
 21
85.380535000000009
 31
0.0
  0
LINE
  5
2F5
  8
2
 10
272.07113199999998
 20
105.780535
 30
0.0
 11
272.07113199999998
 21
85.980535000000017
 31
0.0
  0
LINE
  5
2F6
  8
2
 10
264.671132
 20
105.780535
 30
0.0
 11
264.671132
 21
85.380535000000009
 31
0.0
  0
LINE
  5
2F7
  8
2
 10
264.07113199999998
 20
105.780535
 30
0.0
 11
264.07113199999998
 21
85.980535000000017
 31
0.0
  0
LINE
  5
2F8
  8
2
 10
272.07113199999998
 20
85.980535000000017
 30
0.0
 11
270.87113199999999
 21
84.780535000000015
 31
0.0
  0
LINE
  5
2F9
  8
2
 10
264.07113199999998
 20
85.980535000000017
 30
0.0
 11
265.27113200000002
 21
84.780535000000015
 31
0.0
  0
LINE
  5
2FA
  8
2
 10
272.07113199999998
 20
85.980535000000017
 30
0.0
 11
264.07113199999998
 21
85.980535000000017
 31
0.0
  0
LINE
  5
2FB
  8
2
 10
270.87113199999999
 20
84.780535000000015
 30
0.0
 11
265.27113200000002
 21
84.780535000000015
 31
0.0
  0
LINE
  5
2FC
  8
2
 10
277.07113199999998
 20
106.280535
 30
0.0
 11
259.07113199999998
 21
106.280535
 31
0.0
  0
LINE
  5
2FD
  8
2
 10
259.57113199999998
 20
105.780535
 30
0.0
 11
259.07113199999998
 21
106.280535
 31
0.0
  0
LINE
  5
2FE
  8
2
 10
276.57113199999998
 20
105.780535
 30
0.0
 11
277.07113199999998
 21
106.280535
 31
0.0
  0
LINE
  5
2FF
  8
2
 10
259.57113199999998
 20
105.780535
 30
0.0
 11
276.57113199999998
 21
105.780535
 31
0.0
  0
LINE
  5
300
  8
2
 10
259.07113199999998
 20
127.838915
 30
0.0
 11
259.07113199999998
 21
106.280535
 31
0.0
  0
LINE
  5
301
  8
2
 10
277.07113199999998
 20
127.838915
 30
0.0
 11
277.07113199999998
 21
106.280535
 31
0.0
  0
LINE
  5
302
  8
1
 10
268.07113199999998
 20
152.78053499999999
 30
0.0
 11
268.07113199999998
 21
44.780534999999972
 31
0.0
  0
ARC
  5
303
  8
0
 10
262.57113199999998
 20
98.430081999999985
 30
0.0
 40
15.226924
 50
254.17136800000031
 51
285.82863199999969
  0
ARC
  5
304
  8
0
 10
262.57113199999998
 20
82.130988000000002
 30
0.0
 40
15.226924
 50
74.171368000000285
 51
105.8286319999997
  0
LINE
  5
305
  8
0
 10
266.72444400000001
 20
96.780535
 30
0.0
 11
266.72444400000001
 21
83.780535
 31
0.0
  0
LINE
  5
306
  8
0
 10
258.41782000000001
 20
96.780535
 30
0.0
 11
258.41782000000001
 21
83.780535
 31
0.0
  0
LINE
  5
307
  8
0
 10
266.72444400000001
 20
83.780535
 30
0.0
 11
258.41782000000001
 21
83.780535
 31
0.0
  0
LINE
  5
308
  8
0
 10
266.72444400000001
 20
96.780535
 30
0.0
 11
258.41782000000001
 21
96.780535
 31
0.0
  0
ARC
  5
309
  8
0
 10
271.72113200000001
 20
73.380534999999981
 30
0.0
 40
0.4
 50
90.0
 51
180.0
  0
ARC
  5
30A
  8
0
 10
264.421132
 20
73.380534999999981
 30
0.0
 40
0.4
 50
0.000000000000007
 51
90.0
  0
LINE
  5
30B
  8
0
 10
264.07113199999998
 20
71.280535
 30
0.0
 11
264.421132
 21
71.280535
 31
0.0
  0
LINE
  5
30C
  8
0
 10
279.57113199999998
 20
73.780535
 30
0.0
 11
256.57113199999998
 21
73.780535
 31
0.0
  0
LINE
  5
30E
  8
0
 10
256.07113199999998
 20
74.280535
 30
0.0
 11
256.07113199999998
 21
83.203158000000016
 31
0.0
  0
LINE
  5
30F
  8
0
 10
256.57113199999998
 20
128.78053499999999
 30
0.0
 11
279.57113199999998
 21
128.78053499999999
 31
0.0
  0
LINE
  5
310
  8
0
 10
264.07113199999998
 20
71.280535
 30
0.0
 11
264.07113199999998
 21
55.980535000000003
 31
0.0
  0
LINE
  5
311
  8
3
 10
264.671132
 20
71.280535
 30
0.0
 11
264.671132
 21
55.380535000000002
 31
0.0
  0
LINE
  5
312
  8
3
 10
271.47113200000001
 20
71.280535
 30
0.0
 11
271.47113200000001
 21
55.380535000000002
 31
0.0
  0
LINE
  5
313
  8
0
 10
272.07113199999998
 20
71.280535
 30
0.0
 11
272.07113199999998
 21
55.980535000000003
 31
0.0
  0
LINE
  5
314
  8
0
 10
265.27113200000002
 20
54.780535
 30
0.0
 11
270.87113199999999
 21
54.780535
 31
0.0
  0
LINE
  5
315
  8
0
 10
272.07113199999998
 20
71.280535
 30
0.0
 11
264.421134
 21
71.280535
 31
0.0
  0
LINE
  5
316
  8
0
 10
271.32113199999998
 20
73.380534999999981
 30
0.0
 11
271.32113199999998
 21
71.680531999999999
 31
0.0
  0
LINE
  5
317
  8
0
 10
272.07113199999998
 20
55.980535000000003
 30
0.0
 11
270.87113199999999
 21
54.780535
 31
0.0
  0
LINE
  5
318
  8
0
 10
265.27113200000002
 20
54.780535
 30
0.0
 11
264.07113199999998
 21
55.980535000000003
 31
0.0
  0
LINE
  5
319
  8
0
 10
264.07113199999998
 20
55.980535000000003
 30
0.0
 11
272.07113199999998
 21
55.980535000000003
 31
0.0
  0
LINE
  5
31A
  8
0
 10
256.07113199999998
 20
97.357912000000013
 30
0.0
 11
256.07113199999998
 21
128.28053499999999
 31
0.0
  0
LINE
  5
31B
  8
0
 10
269.41782000000001
 20
96.780535
 30
0.0
 11
277.72444400000001
 21
96.780535
 31
0.0
  0
LINE
  5
31C
  8
0
 10
279.07108499999998
 20
96.780535
 30
0.0
 11
279.07108499999998
 21
83.780535
 31
0.0
  0
LINE
  5
31D
  8
0
 10
269.41782000000001
 20
83.780535
 30
0.0
 11
277.72444400000001
 21
83.780535
 31
0.0
  0
LINE
  5
31E
  8
0
 10
280.07113199999998
 20
97.357912000000013
 30
0.0
 11
280.07113199999998
 21
128.28053499999999
 31
0.0
  0
LINE
  5
31F
  8
0
 10
280.07113199999998
 20
74.280535
 30
0.0
 11
280.07113199999998
 21
83.203158000000016
 31
0.0
  0
ARC
  5
320
  8
0
 10
271.72113200000001
 20
71.68053500000002
 30
0.0
 40
0.4
 50
180.0
 51
270.0
  0
ARC
  5
321
  8
0
 10
264.421132
 20
71.68053500000002
 30
0.0
 40
0.4
 50
270.0
 51
0.000000000000007
  0
LINE
  5
322
  8
0
 10
264.82113199999998
 20
73.380534999999981
 30
0.0
 11
264.82113199999998
 21
71.68053500000002
 31
0.0
  0
LINE
  5
323
  8
0
 10
277.72444400000001
 20
96.780535
 30
0.0
 11
277.72444400000001
 21
83.780535
 31
0.0
  0
LINE
  5
324
  8
0
 10
269.41782000000001
 20
96.780535
 30
0.0
 11
269.41782000000001
 21
83.780535
 31
0.0
  0
LINE
  5
325
  8
0
 10
279.07108499999998
 20
96.780535
 30
0.0
 11
280.07113199999998
 21
97.357912000000013
 31
0.0
  0
LINE
  5
326
  8
0
 10
279.07108499999998
 20
83.780535
 30
0.0
 11
280.07113199999998
 21
83.203158000000016
 31
0.0
  0
ARC
  5
327
  8
0
 10
273.57113199999998
 20
82.130988000000002
 30
0.0
 40
15.226924
 50
74.171368000000285
 51
105.8286319999997
  0
ARC
  5
328
  8
0
 10
273.57113199999998
 20
98.430081999999985
 30
0.0
 40
15.226924
 50
254.17136800000031
 51
285.82863199999969
  0
LINE
  5
329
  8
0
 10
257.07117899999997
 20
83.780535
 30
0.0
 11
256.07113199999998
 21
83.203158000000016
 31
0.0
  0
LINE
  5
32A
  8
0
 10
257.07117899999997
 20
96.780535
 30
0.0
 11
256.07113199999998
 21
97.357912000000013
 31
0.0
  0
LINE
  5
32B
  8
0
 10
257.07117899999997
 20
96.780535
 30
0.0
 11
257.07117899999997
 21
83.780535
 31
0.0
  0
LINE
  5
32C
  8
0
 10
279.57113199999998
 20
73.780535
 30
0.0
 11
280.07113199999998
 21
74.280535
 31
0.0
  0
LINE
  5
32D
  8
0
 10
280.07113199999998
 20
128.28053499999999
 30
0.0
 11
279.57113199999998
 21
128.78053499999999
 31
0.0
  0
LINE
  5
32E
  8
0
 10
256.57113199999998
 20
128.78053499999999
 30
0.0
 11
256.07113199999998
 21
128.28053499999999
 31
0.0
  0
LINE
  5
32F
  8
0
 10
256.57113199999998
 20
73.780535
 30
0.0
 11
256.07113199999998
 21
74.280535
 31
0.0
  0
ARC
  5
330
  8
0
 10
87.571131999999963
 20
98.430081999999985
 30
0.0
 40
15.226924
 50
254.17136800000031
 51
285.82863199999969
  0
ARC
  5
331
  8
0
 10
87.571131999999963
 20
82.130988000000002
 30
0.0
 40
15.226924
 50
74.171368000000285
 51
105.8286319999997
  0
LINE
  5
332
  8
0
 10
91.724444000000005
 20
96.780535
 30
0.0
 11
91.724444000000005
 21
83.780535
 31
0.0
  0
LINE
  5
333
  8
0
 10
83.417819999999935
 20
96.780535
 30
0.0
 11
83.417819999999935
 21
83.780535
 31
0.0
  0
LINE
  5
334
  8
0
 10
91.724444000000005
 20
83.780535
 30
0.0
 11
83.417819999999935
 21
83.780535
 31
0.0
  0
LINE
  5
335
  8
0
 10
91.724444000000005
 20
96.780535
 30
0.0
 11
83.417819999999935
 21
96.780535
 31
0.0
  0
ARC
  5
336
  8
0
 10
96.721131999999983
 20
73.380534999999981
 30
0.0
 40
0.4
 50
90.0
 51
180.0
  0
ARC
  5
337
  8
0
 10
89.421131999999986
 20
73.380534999999981
 30
0.0
 40
0.4
 50
0.000000000000007
 51
90.0
  0
LINE
  5
338
  8
0
 10
89.071131999999949
 20
71.280535
 30
0.0
 11
89.421131999999986
 21
71.280535
 31
0.0
  0
LINE
  5
339
  8
0
 10
104.57113200000001
 20
73.780535
 30
0.0
 11
81.571131999999963
 21
73.780535
 31
0.0
  0
LINE
  5
33B
  8
0
 10
81.071131999999977
 20
74.280535
 30
0.0
 11
81.071131999999977
 21
83.203158000000016
 31
0.0
  0
LINE
  5
33C
  8
0
 10
81.571131999999963
 20
128.78053499999999
 30
0.0
 11
104.57113200000001
 21
128.78053499999999
 31
0.0
  0
LINE
  5
33D
  8
0
 10
89.071131999999949
 20
71.280535
 30
0.0
 11
89.071131999999949
 21
55.980535000000003
 31
0.0
  0
LINE
  5
33E
  8
3
 10
89.671132
 20
71.280535
 30
0.0
 11
89.671132
 21
55.380535000000002
 31
0.0
  0
LINE
  5
33F
  8
3
 10
96.471131999999969
 20
71.280535
 30
0.0
 11
96.471131999999969
 21
55.380535000000002
 31
0.0
  0
LINE
  5
340
  8
0
 10
97.071131999999963
 20
71.280535
 30
0.0
 11
97.071131999999963
 21
55.980535000000003
 31
0.0
  0
LINE
  5
341
  8
0
 10
90.271131999999966
 20
54.780535
 30
0.0
 11
95.871132000000003
 21
54.780535
 31
0.0
  0
LINE
  5
342
  8
0
 10
97.071131999999963
 20
71.280535
 30
0.0
 11
89.421133999999981
 21
71.280535
 31
0.0
  0
LINE
  5
343
  8
0
 10
96.321132000000006
 20
73.380534999999981
 30
0.0
 11
96.321132000000006
 21
71.680531999999999
 31
0.0
  0
LINE
  5
344
  8
0
 10
97.071131999999963
 20
55.980535000000003
 30
0.0
 11
95.871132000000003
 21
54.780535
 31
0.0
  0
LINE
  5
345
  8
0
 10
90.271131999999966
 20
54.780535
 30
0.0
 11
89.071131999999949
 21
55.980535000000003
 31
0.0
  0
LINE
  5
346
  8
0
 10
89.071131999999949
 20
55.980535000000003
 30
0.0
 11
97.071131999999963
 21
55.980535000000003
 31
0.0
  0
LINE
  5
347
  8
0
 10
81.071131999999977
 20
97.357912000000013
 30
0.0
 11
81.071131999999977
 21
128.28053499999999
 31
0.0
  0
LINE
  5
348
  8
0
 10
94.417819999999921
 20
96.780535
 30
0.0
 11
102.72444400000001
 21
96.780535
 31
0.0
  0
LINE
  5
349
  8
0
 10
104.0710849999999
 20
96.780535
 30
0.0
 11
104.0710849999999
 21
83.780535
 31
0.0
  0
LINE
  5
34A
  8
0
 10
94.417819999999921
 20
83.780535
 30
0.0
 11
102.72444400000001
 21
83.780535
 31
0.0
  0
LINE
  5
34B
  8
0
 10
105.07113200000001
 20
97.357912000000013
 30
0.0
 11
105.07113200000001
 21
128.28053499999999
 31
0.0
  0
LINE
  5
34C
  8
0
 10
105.07113200000001
 20
74.280535
 30
0.0
 11
105.07113200000001
 21
83.203158000000016
 31
0.0
  0
ARC
  5
34D
  8
0
 10
96.721131999999983
 20
71.68053500000002
 30
0.0
 40
0.4
 50
180.0
 51
270.0
  0
ARC
  5
34E
  8
0
 10
89.421131999999986
 20
71.68053500000002
 30
0.0
 40
0.4
 50
270.0
 51
0.000000000000007
  0
LINE
  5
34F
  8
0
 10
89.821131999999963
 20
73.380534999999981
 30
0.0
 11
89.821131999999963
 21
71.68053500000002
 31
0.0
  0
LINE
  5
350
  8
0
 10
102.72444400000001
 20
96.780535
 30
0.0
 11
102.72444400000001
 21
83.780535
 31
0.0
  0
LINE
  5
351
  8
0
 10
94.417819999999921
 20
96.780535
 30
0.0
 11
94.417819999999921
 21
83.780535
 31
0.0
  0
LINE
  5
352
  8
0
 10
104.0710849999999
 20
96.780535
 30
0.0
 11
105.07113200000001
 21
97.357912000000013
 31
0.0
  0
LINE
  5
353
  8
0
 10
104.0710849999999
 20
83.780535
 30
0.0
 11
105.07113200000001
 21
83.203158000000016
 31
0.0
  0
ARC
  5
354
  8
0
 10
98.571131999999963
 20
82.130988000000002
 30
0.0
 40
15.226924
 50
74.171368000000285
 51
105.8286319999997
  0
ARC
  5
355
  8
0
 10
98.571131999999963
 20
98.430081999999985
 30
0.0
 40
15.226924
 50
254.17136800000031
 51
285.82863199999969
  0
LINE
  5
356
  8
0
 10
82.071178999999987
 20
83.780535
 30
0.0
 11
81.071131999999977
 21
83.203158000000016
 31
0.0
  0
LINE
  5
357
  8
0
 10
82.071178999999987
 20
96.780535
 30
0.0
 11
81.071131999999977
 21
97.357912000000013
 31
0.0
  0
LINE
  5
358
  8
0
 10
82.071178999999987
 20
96.780535
 30
0.0
 11
82.071178999999987
 21
83.780535
 31
0.0
  0
LINE
  5
359
  8
0
 10
104.57113200000001
 20
73.780535
 30
0.0
 11
105.07113200000001
 21
74.280535
 31
0.0
  0
LINE
  5
35A
  8
0
 10
105.07113200000001
 20
128.28053499999999
 30
0.0
 11
104.57113200000001
 21
128.78053499999999
 31
0.0
  0
LINE
  5
35B
  8
0
 10
81.571131999999963
 20
128.78053499999999
 30
0.0
 11
81.071131999999977
 21
128.28053499999999
 31
0.0
  0
LINE
  5
35C
  8
0
 10
81.571131999999963
 20
73.780535
 30
0.0
 11
81.071131999999977
 21
74.280535
 31
0.0
  0
LINE
  5
35D
  8
0
 10
191.16383500000001
 20
96.780535
 30
0.0
 11
191.16383500000001
 21
83.780535
 31
0.0
  0
LINE
  5
35E
  8
0
 10
195.9597739999999
 20
96.780535
 30
0.0
 11
195.9597739999999
 21
83.780535
 31
0.0
  0
ARC
  5
35F
  8
0
 10
193.56180499999999
 20
92.089588000000006
 30
0.0
 40
5.268324999999999
 50
62.924293000000489
 51
117.0757069999995
  0
ARC
  5
360
  8
0
 10
193.56180499999999
 20
88.471481999999966
 30
0.0
 40
5.268324999999999
 50
242.9242930000004
 51
297.07570699999951
  0
LINE
  5
361
  8
0
 10
191.16383500000001
 20
83.780535
 30
0.0
 11
195.9597739999999
 21
83.780535
 31
0.0
  0
LINE
  5
362
  8
0
 10
191.16383500000001
 20
96.780535
 30
0.0
 11
195.9597739999999
 21
96.780535
 31
0.0
  0
LINE
  5
363
  8
0
 10
176.907297
 20
96.780535
 30
0.0
 11
172.111358
 21
96.780535
 31
0.0
  0
LINE
  5
364
  8
0
 10
176.907297
 20
83.780535
 30
0.0
 11
172.111358
 21
83.780535
 31
0.0
  0
ARC
  5
365
  8
0
 10
174.50932700000001
 20
88.471481999999966
 30
0.0
 40
5.268324999999999
 50
242.9242930000004
 51
297.07570699999951
  0
ARC
  5
366
  8
0
 10
174.50932700000001
 20
92.089588000000006
 30
0.0
 40
5.268324999999999
 50
62.924293000000489
 51
117.0757069999995
  0
ARC
  5
367
  8
0
 10
184.03556599999999
 20
103.41039000000001
 30
0.0
 40
20.207232000000001
 50
256.27053399999949
 51
283.72946600000051
  0
ARC
  5
368
  8
0
 10
184.03556599999999
 20
77.15067999999998
 30
0.0
 40
20.207232000000001
 50
76.2705339999995
 51
103.7294660000005
  0
LINE
  5
369
  8
0
 10
172.111358
 20
96.780535
 30
0.0
 11
172.111358
 21
83.780535
 31
0.0
  0
LINE
  5
36A
  8
0
 10
176.907297
 20
96.780535
 30
0.0
 11
176.907297
 21
83.780535
 31
0.0
  0
LINE
  5
36B
  8
0
 10
188.83150499999999
 20
96.780535
 30
0.0
 11
188.83150499999999
 21
83.780535
 31
0.0
  0
LINE
  5
36C
  8
0
 10
179.23962700000001
 20
96.780535
 30
0.0
 11
179.23962700000001
 21
83.780535
 31
0.0
  0
LINE
  5
36D
  8
0
 10
188.83150499999999
 20
83.780535
 30
0.0
 11
179.23962700000001
 21
83.780535
 31
0.0
  0
LINE
  5
36E
  8
0
 10
188.83150499999999
 20
96.780535
 30
0.0
 11
179.23962700000001
 21
96.780535
 31
0.0
  0
LINE
  5
36F
  8
0
 10
172.53556599999999
 20
73.780535
 30
0.0
 11
172.03556599999999
 21
74.280535
 31
0.0
  0
LINE
  5
370
  8
0
 10
172.53556599999999
 20
128.78053499999999
 30
0.0
 11
172.03556599999999
 21
128.28053499999999
 31
0.0
  0
LINE
  5
371
  8
0
 10
196.03556599999999
 20
128.28053499999999
 30
0.0
 11
195.53556599999999
 21
128.78053499999999
 31
0.0
  0
LINE
  5
372
  8
0
 10
195.53556599999999
 20
73.780535
 30
0.0
 11
196.03556599999999
 21
74.280535
 31
0.0
  0
LINE
  5
373
  8
0
 10
180.78556599999999
 20
73.380534999999981
 30
0.0
 11
180.78556599999999
 21
71.68053500000002
 31
0.0
  0
ARC
  5
374
  8
0
 10
180.38556600000001
 20
71.68053500000002
 30
0.0
 40
0.4
 50
270.0
 51
0.000000000000007
  0
ARC
  5
375
  8
0
 10
187.68556599999999
 20
71.68053500000002
 30
0.0
 40
0.4
 50
180.0
 51
270.0
  0
LINE
  5
376
  8
0
 10
196.03556599999999
 20
74.280535
 30
0.0
 11
196.03556599999999
 21
128.28053499999999
 31
0.0
  0
LINE
  5
377
  8
0
 10
172.03556599999999
 20
74.280535
 30
0.0
 11
172.03556599999999
 21
128.28053499999999
 31
0.0
  0
LINE
  5
378
  8
0
 10
180.03556599999999
 20
55.980535000000003
 30
0.0
 11
188.03556599999999
 21
55.980535000000003
 31
0.0
  0
LINE
  5
379
  8
0
 10
181.23556599999989
 20
54.780535
 30
0.0
 11
180.03556599999999
 21
55.980535000000003
 31
0.0
  0
LINE
  5
37A
  8
0
 10
188.03556599999999
 20
55.980535000000003
 30
0.0
 11
186.835566
 21
54.780535
 31
0.0
  0
LINE
  5
37B
  8
0
 10
187.28556599999999
 20
73.380534999999981
 30
0.0
 11
187.28556599999999
 21
71.680531999999999
 31
0.0
  0
LINE
  5
37C
  8
0
 10
188.03556599999999
 20
71.280535
 30
0.0
 11
180.38556800000001
 21
71.280535
 31
0.0
  0
LINE
  5
37D
  8
0
 10
181.23556599999989
 20
54.780535
 30
0.0
 11
186.835566
 21
54.780535
 31
0.0
  0
LINE
  5
37E
  8
0
 10
188.03556599999999
 20
71.280535
 30
0.0
 11
188.03556599999999
 21
55.980535000000003
 31
0.0
  0
LINE
  5
37F
  8
3
 10
187.43556599999999
 20
71.280535
 30
0.0
 11
187.43556599999999
 21
55.380535000000002
 31
0.0
  0
LINE
  5
380
  8
3
 10
180.63556600000001
 20
71.280535
 30
0.0
 11
180.63556600000001
 21
55.380535000000002
 31
0.0
  0
LINE
  5
381
  8
0
 10
180.03556599999999
 20
71.280535
 30
0.0
 11
180.03556599999999
 21
55.980535000000003
 31
0.0
  0
LINE
  5
382
  8
0
 10
172.53556599999999
 20
128.78053499999999
 30
0.0
 11
195.53556599999999
 21
128.78053499999999
 31
0.0
  0
LINE
  5
384
  8
0
 10
195.53556599999999
 20
73.780535
 30
0.0
 11
172.53556599999999
 21
73.780535
 31
0.0
  0
LINE
  5
385
  8
0
 10
180.03556599999999
 20
71.280535
 30
0.0
 11
180.38556600000001
 21
71.280535
 31
0.0
  0
ARC
  5
386
  8
0
 10
180.38556600000001
 20
73.380534999999981
 30
0.0
 40
0.4
 50
0.000000000000007
 51
90.0
  0
ARC
  5
387
  8
0
 10
187.68556599999999
 20
73.380534999999981
 30
0.0
 40
0.4
 50
90.0
 51
180.0
  0
CIRCLE
  5
3CE
  8
0
 10
184.0355659999999
 20
202.69410400000001
 30
0.0
 40
6.5
  0
LINE
  5
3CF
  8
0
 10
185.76761700000009
 20
199.69410400000001
 30
0.0
 11
187.4996679999999
 21
202.69410400000001
 31
0.0
  0
LINE
  5
3D0
  8
0
 10
187.4996679999999
 20
202.69410400000001
 30
0.0
 11
185.76761700000009
 21
205.69410400000021
 31
0.0
  0
LINE
  5
3D1
  8
0
 10
185.76761700000009
 20
205.69410400000021
 30
0.0
 11
182.30351599999989
 21
205.69410400000021
 31
0.0
  0
LINE
  5
3D2
  8
0
 10
182.30351599999989
 20
205.69410400000021
 30
0.0
 11
180.57146499999999
 21
202.69410400000001
 31
0.0
  0
LINE
  5
3D3
  8
0
 10
180.57146499999999
 20
202.69410400000001
 30
0.0
 11
182.30351599999989
 21
199.69410400000001
 31
0.0
  0
LINE
  5
3D4
  8
0
 10
182.30351599999989
 20
199.69410400000001
 30
0.0
 11
185.76761700000009
 21
199.69410400000001
 31
0.0
  0
CIRCLE
  5
3D5
  8
0
 10
184.0355659999999
 20
202.69410400000001
 30
0.0
 40
5.6339750000000004
  0
LINE
  5
3DC
  8
2
 10
276.57113199999998
 20
128.78053499999999
 30
0.0
 11
276.57113199999998
 21
128.580535
 31
0.0
  0
LINE
  5
3DD
  8
2
 10
259.57113199999998
 20
128.78053499999999
 30
0.0
 11
259.57113199999998
 21
128.580535
 31
0.0
  0
LINE
  5
3DE
  8
2
 10
192.53556599999999
 20
128.78053499999999
 30
0.0
 11
192.53556599999999
 21
128.580535
 31
0.0
  0
LINE
  5
3DF
  8
2
 10
175.53556599999999
 20
128.78053499999999
 30
0.0
 11
175.53556599999999
 21
128.580535
 31
0.0
  0
LINE
  5
3E0
  8
2
 10
101.57113200000001
 20
128.78053499999999
 30
0.0
 11
101.57113200000001
 21
128.58053499999991
 31
0.0
  0
LINE
  5
3E1
  8
2
 10
84.571131999999977
 20
128.78053499999999
 30
0.0
 11
84.571131999999977
 21
128.580535
 31
0.0
  0
TEXT
  5
580
  8
0
 62
     3
 10
0.0
 20
0.0
 30
0.0
 40
10.0
  1
BJ130-08030A1
  7
STANDARD1
  0
ENDSEC
  0
EOF
