  0
SECTION
  2
HEADER
  9
$ACADVER
  1
AC1009
  9
$INSBASE
 10
0.0
 20
0.0
 30
0.0
  9
$EXTMIN
 10
0.0
 20
-2.960436562073669
 30
0.0
  9
$EXTMAX
 10
306.0
 20
252.01273308560519
 30
0.0
  9
$LIMMIN
 10
0.0
 20
0.0
  9
$LIMMAX
 10
375.0
 20
270.0
  9
$ORTHOMODE
 70
     0
  9
$REGENMODE
 70
     1
  9
$FILLMODE
 70
     1
  9
$QTEXTMODE
 70
     0
  9
$MIRRTEXT
 70
     0
  9
$DRAGMODE
 70
     2
  9
$LTSCALE
 40
10.0
  9
$OSMODE
 70
  3071
  9
$ATTMODE
 70
     1
  9
$TEXTSIZE
 40
0.2
  9
$TRACEWID
 40
0.05
  9
$TEXTSTYLE
  7
STANDARD
  9
$CLAYER
  8
0
  9
$CELTYPE
  6
BYLAYER
  9
$CECOLOR
 62
   256
  9
$DIMSCALE
 40
1.0
  9
$DIMASZ
 40
3.0
  9
$DIMEXO
 40
2.0
  9
$DIMDLI
 40
0.38
  9
$DIMRND
 40
0.0
  9
$DIMDLE
 40
0.0
  9
$DIMEXE
 40
2.0
  9
$DIMTP
 40
0.0
  9
$DIMTM
 40
0.0
  9
$DIMTXT
 40
3.0
  9
$DIMCEN
 40
0.0
  9
$DIMTSZ
 40
0.0
  9
$DIMTOL
 70
     0
  9
$DIMLIM
 70
     0
  9
$DIMTIH
 70
     0
  9
$DIMTOH
 70
     0
  9
$DIMSE1
 70
     0
  9
$DIMSE2
 70
     0
  9
$DIMTAD
 70
     1
  9
$DIMZIN
 70
     0
  9
$DIMBLK
  1

  9
$DIMASO
 70
     0
  9
$DIMSHO
 70
     0
  9
$DIMPOST
  1

  9
$DIMAPOST
  1

  9
$DIMALT
 70
     0
  9
$DIMALTD
 70
     2
  9
$DIMALTF
 40
25.399999999999999
  9
$DIMLFAC
 40
1.0
  9
$DIMTOFL
 70
     1
  9
$DIMTVP
 40
1.6000000000000001
  9
$DIMTIX
 70
     1
  9
$DIMSOXD
 70
     0
  9
$DIMSAH
 70
     0
  9
$DIMBLK1
  1

  9
$DIMBLK2
  1

  9
$DIMSTYLE
  2
STANDARD
  9
$DIMCLRD
 70
     0
  9
$DIMCLRE
 70
     0
  9
$DIMCLRT
 70
     0
  9
$DIMTFAC
 40
1.0
  9
$DIMGAP
 40
0.09
  9
$LUNITS
 70
     2
  9
$LUPREC
 70
     4
  9
$SKETCHINC
 40
0.1
  9
$FILLETRAD
 40
0.0
  9
$AUNITS
 70
     0
  9
$AUPREC
 70
     4
  9
$MENU
  1
E:\r13\win\SUPPORT\ACAD
  9
$ELEVATION
 40
0.0
  9
$PELEVATION
 40
0.0
  9
$THICKNESS
 40
0.0
  9
$LIMCHECK
 70
     0
  9
$BLIPMODE
 70
     0
  9
$CHAMFERA
 40
0.0
  9
$CHAMFERB
 40
0.0
  9
$SKPOLY
 70
     0
  9
$TDCREATE
 40
2449840.3503819439
  9
$TDUPDATE
 40
2456597.620201644
  9
$TDINDWG
 40
0.0659325694
  9
$TDUSRTIMER
 40
2456512.1219019331
  9
$USRTIMER
 70
     1
  9
$ANGBASE
 50
0.0
  9
$ANGDIR
 70
     0
  9
$PDMODE
 70
     0
  9
$PDSIZE
 40
0.0
  9
$PLINEWID
 40
0.0
  9
$COORDS
 70
     1
  9
$SPLFRAME
 70
     0
  9
$SPLINETYPE
 70
     6
  9
$SPLINESEGS
 70
     8
  9
$ATTDIA
 70
     0
  9
$ATTREQ
 70
     1
  9
$HANDLING
 70
     1
  9
$HANDSEED
  5
D6C
  9
$SURFTAB1
 70
     6
  9
$SURFTAB2
 70
     6
  9
$SURFTYPE
 70
     6
  9
$SURFU
 70
     6
  9
$SURFV
 70
     6
  9
$UCSNAME
  2

  9
$UCSORG
 10
0.0
 20
0.0
 30
0.0
  9
$UCSXDIR
 10
1.0
 20
0.0
 30
0.0
  9
$UCSYDIR
 10
0.0
 20
1.0
 30
0.0
  9
$PUCSNAME
  2

  9
$PUCSORG
 10
0.0
 20
0.0
 30
0.0
  9
$PUCSXDIR
 10
1.0
 20
0.0
 30
0.0
  9
$PUCSYDIR
 10
0.0
 20
1.0
 30
0.0
  9
$USERI1
 70
     3
  9
$USERI2
 70
     1
  9
$USERI3
 70
     0
  9
$USERI4
 70
     0
  9
$USERI5
 70
     0
  9
$USERR1
 40
1.0
  9
$USERR2
 40
3.0
  9
$USERR3
 40
3.0
  9
$USERR4
 40
3.0
  9
$USERR5
 40
10.0
  9
$WORLDVIEW
 70
     1
  9
$SHADEDGE
 70
     3
  9
$SHADEDIF
 70
    70
  9
$TILEMODE
 70
     1
  9
$MAXACTVP
 70
    16
  9
$PLIMCHECK
 70
     0
  9
$PEXTMIN
 10
1.0000000000000000E+020
 20
1.0000000000000000E+020
 30
1.0000000000000000E+020
  9
$PEXTMAX
 10
-1.0000000000000000E+020
 20
-1.0000000000000000E+020
 30
-1.0000000000000000E+020
  9
$PLIMMIN
 10
0.0
 20
0.0
  9
$PLIMMAX
 10
12.0
 20
9.0
  9
$UNITMODE
 70
     0
  9
$VISRETAIN
 70
     0
  9
$PLINEGEN
 70
     0
  9
$PSLTSCALE
 70
     0
  0
ENDSEC
  0
SECTION
  2
TABLES
  0
TABLE
  2
VPORT
 70
     1
  0
VPORT
  2
*ACTIVE
 70
     0
 10
0.0
 20
0.0
 11
1.0
 21
1.0
 12
195.0581083320873
 22
133.5127261426681
 13
0.0
 23
0.0
 14
5.0
 24
5.0
 15
10.0
 25
10.0
 16
0.0
 26
0.0
 36
1.0
 17
0.0
 27
0.0
 37
0.0
 40
275.42274993631997
 41
1.831871345029239
 42
50.0
 43
0.0
 44
0.0
 50
0.0
 51
0.0
 71
    16
 72
   100
 73
     1
 74
     0
 75
     0
 76
     0
 77
     0
 78
     2
  0
ENDTAB
  0
TABLE
  2
LTYPE
 70
     4
  0
LTYPE
  2
CONTINUOUS
 70
     0
  3
Solid Line
 72
    65
 73
     0
 40
0.0
  0
LTYPE
  2
PHANTOM2
 70
     0
  3
___ _ _ ___ _ _ ___ _ _ ___ _ _
 72
    65
 73
     6
 40
1.25
 49
0.625
 49
-0.125
 49
0.125
 49
-0.125
 49
0.125
 49
-0.125
  0
LTYPE
  2
CENTER
 70
     0
  3
____ _ ____ _ ____ _ ____ _ ____ _ ____ _ ____
 72
    65
 73
     4
 40
2.0
 49
1.25
 49
-0.25
 49
0.25
 49
-0.25
  0
LTYPE
  2
HIDDEN
 70
     0
  3
_ _ _ _ _ _ _ _ _ _ _ _ _ _ _ _ _ _ _ _ _ _ _
 72
    65
 73
     2
 40
0.375
 49
0.25
 49
-0.125
  0
ENDTAB
  0
TABLE
  2
LAYER
 70
     4
  0
LAYER
  2
0
 70
     0
 62
     7
  6
CONTINUOUS
  0
LAYER
  2
1
 70
     0
 62
     1
  6
CENTER
  0
LAYER
  2
3
 70
     0
 62
     3
  6
CONTINUOUS
  0
LAYER
  2
2
 70
     0
 62
     2
  6
HIDDEN
  0
ENDTAB
  0
TABLE
  2
STYLE
 70
     3
  0
STYLE
  2
STANDARD
 70
     0
 40
0.0
 41
1.0
 50
0.0
 71
     0
 42
0.2
  3
TXT
  4
BIGFONT
  0
STYLE
  2
ANNOTATIVE
 70
     0
 40
0.0
 41
1.0
 50
0.0
 71
     0
 42
0.2
  3
txt
  4

  0
STYLE
  2
STANDARD1
 70
     0
 40
0.0
 41
1.0
 50
0.0
 71
     0
 42
3.0
  3
txt
  4

  0
ENDTAB
  0
TABLE
  2
VIEW
 70
     1
  0
VIEW
  2
ALL
 70
     0
 40
270.0
 10
220.99159700000001
 20
135.0
 41
0.0
 11
0.0
 21
0.0
 31
1.0
 12
0.0
 22
0.0
 32
0.0
 42
0.0
 43
0.0
 44
0.0
 50
0.0
 71
     0
  0
ENDTAB
  0
TABLE
  2
UCS
 70
     0
  0
ENDTAB
  0
TABLE
  2
APPID
 70
     6
  0
APPID
  2
ACAD
 70
     0
  0
APPID
  2
ACADANNOTATIVE
 70
     0
  0
APPID
  2
ACAD_MLEADERVER
 70
     0
  0
APPID
  2
ACAD_NAV_VCDISPLAY
 70
     0
  0
APPID
  2
ACAD_PSEXT
 70
     0
  0
APPID
  2
ACAD_EXEMPT_FROM_CAD_STANDARDS
 70
     0
  0
ENDTAB
  0
TABLE
  2
DIMSTYLE
 70
     2
  0
DIMSTYLE
  2
STANDARD
 70
     0
  3

  4

  5

  6

  7

 40
1.0
 41
0.18
 42
0.0625
 43
0.38
 44
0.18
 45
0.0
 46
0.0
 47
0.0
 48
0.0
140
0.18
141
0.09
142
0.0
143
25.399999999999999
144
1.0
145
0.0
146
1.0
147
0.09
 71
     0
 72
     0
 73
     1
 74
     1
 75
     0
 76
     0
 77
     0
 78
     0
170
     0
171
     2
172
     0
173
     0
174
     0
175
     0
176
     0
177
     0
178
     0
  0
DIMSTYLE
  2
ANNOTATIVE
 70
     0
  3

  4

  5

  6

  7

 40
1.0
 41
0.18
 42
0.0625
 43
0.38
 44
0.18
 45
0.0
 46
0.0
 47
0.0
 48
0.0
140
0.18
141
0.09
142
0.0
143
25.399999999999999
144
1.0
145
0.0
146
1.0
147
0.09
 71
     0
 72
     0
 73
     1
 74
     1
 75
     0
 76
     0
 77
     0
 78
     0
170
     0
171
     2
172
     0
173
     0
174
     0
175
     0
176
     0
177
     0
178
     0
  0
ENDTAB
  0
ENDSEC
  0
SECTION
  2
BLOCKS
  0
BLOCK
  8
0
  2
$MODEL_SPACE
 70
     0
 10
0.0
 20
0.0
 30
0.0
  3
$MODEL_SPACE
  1

  0
ENDBLK
  5
C9F
  8
0
  0
BLOCK
 67
     1
  8
0
  2
$PAPER_SPACE
 70
     0
 10
0.0
 20
0.0
 30
0.0
  3
$PAPER_SPACE
  1

  0
ENDBLK
  5
C9B
 67
     1
  8
0
  0
ENDSEC
  0
SECTION
  2
ENTITIES
  0
ARC
  5
2EF
  8
0
 10
190.0
 20
231.01273308560519
 30
0.0
 40
16.0
 50
218.2878078075988
 51
141.7121921924014
  0
LINE
  5
781
  8
0
 10
86.601872022844645
 20
160.9999999999944
 30
0.0
 11
82.999999999998153
 21
160.9999999999944
 31
0.0
  0
LINE
  5
782
  8
0
 10
88.99999999999838
 20
168.79592659691161
 30
0.0
 11
82.646446609405061
 21
174.85355339059331
 31
0.0
  0
LINE
  5
783
  8
0
 10
86.601872022843281
 20
160.9999999999998
 30
0.0
 11
86.859238240799868
 21
159.9999999999998
 31
0.0
  0
LINE
  5
784
  8
0
 10
100.9999999999982
 20
168.79592659691161
 30
0.0
 11
107.3535533905915
 21
174.85355339059331
 31
0.0
  0
LINE
  5
785
  8
0
 10
103.39812797715349
 20
160.9999999999998
 30
0.0
 11
103.14076175919691
 21
159.9999999999998
 31
0.0
  0
LINE
  5
786
  8
0
 10
88.999999999998195
 20
159.9999999999998
 30
0.0
 11
88.99999999999838
 21
168.79592659691161
 31
0.0
  0
LINE
  5
787
  8
0
 10
100.9999999999982
 20
159.9999999999998
 30
0.0
 11
100.99999999999839
 21
168.79592659691161
 31
0.0
  0
LINE
  5
789
  8
0
 10
88.999999999998195
 20
168.79592659691161
 30
0.0
 11
91.999999999998181
 21
168.79592659691161
 31
0.0
  0
ARC
  5
78A
  8
0
 10
82.999999999998153
 20
161.5
 30
0.0
 40
0.5
 50
180.0
 51
270.0
  0
ARC
  5
78B
  8
0
 10
82.999999999998153
 20
174.49999999999989
 30
0.0
 40
0.5
 50
90.0
 51
180.0
  0
LINE
  5
78C
  8
0
 10
82.499999999998181
 20
174.49999999999989
 30
0.0
 11
82.499999999998181
 21
161.5
 31
0.0
  0
LINE
  5
78D
  8
0
 10
107.4999999999981
 20
174.49999999999989
 30
0.0
 11
107.4999999999981
 21
161.4999999999998
 31
0.0
  0
LINE
  5
78E
  8
0
 10
106.9999999999982
 20
160.9999999999998
 30
0.0
 11
105.9999959539023
 21
160.9999999999998
 31
0.0
  0
LINE
  5
791
  8
0
 10
106.9999999999982
 20
175.0
 30
0.0
 11
82.999999999998153
 21
175.0
 31
0.0
  0
LINE
  5
792
  8
0
 10
87.0
 20
175.0
 30
0.0
 11
87.0
 21
183.65358983851701
 31
0.0
  0
LINE
  5
793
  8
0
 10
88.0
 20
184.0
 30
0.0
 11
102.0
 21
184.0
 31
0.0
  0
LINE
  5
794
  8
0
 10
102.9999999999999
 20
183.65358983851701
 30
0.0
 11
102.99999999999631
 21
175.0
 31
0.0
  0
LINE
  5
795
  8
0
 10
87.0
 20
183.65358983851701
 30
0.0
 11
88.0
 21
184.0
 31
0.0
  0
LINE
  5
796
  8
0
 10
102.0
 20
184.0
 30
0.0
 11
102.9999999999999
 21
183.65358983851701
 31
0.0
  0
ARC
  5
797
  8
0
 10
106.9999999999982
 20
174.49999999999989
 30
0.0
 40
0.5
 50
0.0
 51
90.0
  0
ARC
  5
798
  8
0
 10
106.9999999999982
 20
161.4999999999998
 30
0.0
 40
0.5
 50
270.0
 51
0.0
  0
LINE
  5
79D
  8
0
 10
105.9999959539023
 20
160.9999999999944
 30
0.0
 11
103.3981279771519
 21
160.9999999999944
 31
0.0
  0
LINE
  5
79F
  8
0
 10
92.398967962090865
 20
165.0000000000002
 30
0.0
 11
97.601032037905284
 21
164.9999999999998
 31
0.0
  0
LINE
  5
7A0
  8
0
 10
101.5029473812976
 20
174.2290622671409
 30
0.0
 11
97.999999999998394
 21
168.79592659691161
 31
0.0
  0
LINE
  5
7A1
  8
0
 10
88.497052618698945
 20
174.2290622671409
 30
0.0
 11
91.999999999998394
 21
168.79592659691161
 31
0.0
  0
LINE
  5
7A2
  8
0
 10
97.999999999998394
 20
168.79592659691161
 30
0.0
 11
100.99999999999839
 21
168.79592659691161
 31
0.0
  0
LINE
  5
7A3
  8
0
 10
97.999999999998394
 20
168.79592659691161
 30
0.0
 11
97.601032037905284
 21
164.9999999999998
 31
0.0
  0
LINE
  5
7A4
  8
0
 10
91.999999999997954
 20
168.79592659691161
 30
0.0
 11
92.398967962091064
 21
164.9999999999998
 31
0.0
  0
ARC
  5
7A5
  8
0
 10
101.0827179857133
 20
174.49999999999989
 30
0.0
 40
0.5
 50
327.18859858924083
 51
90.0
  0
ARC
  5
7A6
  8
0
 10
88.917282014283259
 20
174.49999999999989
 30
0.0
 40
0.5
 50
90.0
 51
212.81140141075949
  0
LINE
  5
7A8
  8
0
 10
301.99999999999818
 20
160.9999999999944
 30
0.0
 11
277.99999999999818
 21
160.9999999999944
 31
0.0
  0
ARC
  5
7AD
  8
0
 10
301.99999999999818
 20
161.5
 30
0.0
 40
0.5
 50
270.0
 51
0.0
  0
ARC
  5
7AE
  8
0
 10
301.99999999999818
 20
174.49999999999989
 30
0.0
 40
0.5
 50
0.0
 51
90.0
  0
LINE
  5
7AF
  8
0
 10
297.0
 20
184.0
 30
0.0
 11
297.99999999999949
 21
183.65358983851701
 31
0.0
  0
LINE
  5
7B0
  8
0
 10
282.0
 20
183.65358983851701
 30
0.0
 11
283.0
 21
184.0
 31
0.0
  0
LINE
  5
7B1
  8
0
 10
297.99999999999972
 20
183.65358983851701
 30
0.0
 11
297.99999999999642
 21
175.0
 31
0.0
  0
LINE
  5
7B2
  8
0
 10
283.0
 20
184.0
 30
0.0
 11
297.0
 21
184.0
 31
0.0
  0
LINE
  5
7B3
  8
0
 10
282.0
 20
175.0
 30
0.0
 11
282.0
 21
183.65358983851701
 31
0.0
  0
LINE
  5
7B4
  8
0
 10
301.99999999999818
 20
175.0
 30
0.0
 11
277.99999999999818
 21
175.0
 31
0.0
  0
LINE
  5
7B7
  8
0
 10
302.49999999999818
 20
174.49999999999989
 30
0.0
 11
302.49999999999818
 21
161.5
 31
0.0
  0
LINE
  5
7B8
  8
0
 10
277.49999999999818
 20
174.49999999999989
 30
0.0
 11
277.49999999999818
 21
161.5
 31
0.0
  0
ARC
  5
7B9
  8
0
 10
277.99999999999818
 20
174.49999999999989
 30
0.0
 40
0.5
 50
90.0
 51
180.0
  0
ARC
  5
7BA
  8
0
 10
277.99999999999818
 20
161.5
 30
0.0
 40
0.5
 50
180.0
 51
270.0
  0
CIRCLE
  5
7BB
  8
0
 10
190.0
 20
231.01273308560519
 30
0.0
 40
8.0
  0
LINE
  5
7BC
  8
0
 10
185.381197846482
 20
231.01273308560519
 30
0.0
 11
187.690598923241
 21
227.01273308560451
 31
0.0
  0
LINE
  5
7BD
  8
0
 10
187.690598923241
 20
235.01273308560599
 30
0.0
 11
185.381197846482
 21
231.0127330856053
 31
0.0
  0
LINE
  5
7BE
  8
0
 10
192.30940107675889
 20
235.01273308560599
 30
0.0
 11
187.690598923241
 21
235.01273308560599
 31
0.0
  0
LINE
  5
7BF
  8
0
 10
194.61880215351781
 20
231.01273308560519
 30
0.0
 11
192.30940107675889
 21
235.01273308560599
 31
0.0
  0
LINE
  5
7C0
  8
0
 10
192.309401076759
 20
227.01273308560451
 30
0.0
 11
194.61880215351781
 21
231.01273308560519
 31
0.0
  0
LINE
  5
7C1
  8
0
 10
187.690598923241
 20
227.01273308560451
 30
0.0
 11
192.30940107675889
 21
227.01273308560451
 31
0.0
  0
CIRCLE
  5
7C2
  8
0
 10
190.0
 20
231.01273308560519
 30
0.0
 40
9.0
  0
LINE
  5
7C3
  8
1
 10
190.0
 20
252.01273308560519
 30
0.0
 11
190.0
 21
210.01273308560519
 31
0.0
  0
LINE
  5
7C4
  8
1
 10
155.0
 20
231.01273308560519
 30
0.0
 11
211.0
 21
231.0127330856053
 31
0.0
  0
LINE
  5
7C5
  8
0
 10
160.36734618693521
 20
227.9682116433074
 30
0.0
 11
176.58510166979059
 21
224.6403774083135
 31
0.0
  0
LINE
  5
7C6
  8
0
 10
160.36734618693521
 20
234.05725452790301
 30
0.0
 11
176.58510166979059
 21
237.385088762897
 31
0.0
  0
ARC
  5
7C7
  8
0
 10
190.0
 20
231.01273308560519
 30
0.0
 40
12.5
 50
256.91264068064788
 51
103.087359319352
  0
ARC
  5
7C8
  8
0
 10
190.0
 20
231.01273308560519
 30
0.0
 40
12.5
 50
207.37992343370499
 51
250.03301514562099
  0
ARC
  5
7C9
  8
0
 10
190.0
 20
231.01273308560519
 30
0.0
 40
12.5
 50
159.49970210132329
 51
200.50029789867671
  0
ARC
  5
7CA
  8
0
 10
190.0
 20
231.01273308560519
 30
0.0
 40
12.5
 50
109.96698485437901
 51
152.6200765662951
  0
ARC
  5
7CB
  8
0
 10
176.88661484242749
 20
226.10976156731559
 30
0.0
 40
1.5
 50
258.40404396337863
 51
20.50029789867672
  0
ARC
  5
7CC
  8
0
 10
176.88661484242749
 20
235.9157046038948
 30
0.0
 40
1.5
 50
339.49970210132432
 51
101.5959560366214
  0
ARC
  5
7CD
  8
0
 10
190.0
 20
231.01273308560511
 30
0.0
 40
30.0
 50
170.38370305290121
 51
189.6162969470987
  0
ARC
  5
7CE
  8
0
 10
161.90046597578311
 20
226.25183110994161
 30
0.0
 40
1.5
 50
189.6162969470972
 51
256.91264068065459
  0
ARC
  5
7CF
  8
0
 10
161.90046597578311
 20
235.77363506126889
 30
0.0
 40
1.5
 50
103.087359319352
 51
170.38370305290039
  0
ARC
  5
7D0
  8
0
 10
160.42764882146261
 20
228.26208847510799
 30
0.0
 40
0.3
 50
185.3140236226445
 51
258.40404396338522
  0
ARC
  5
7D1
  8
0
 10
160.4276488214627
 20
233.76337769610251
 30
0.0
 40
0.3
 50
101.59595603661469
 51
174.68597637734931
  0
LINE
  5
7D2
  8
0
 10
161.56081134295309
 20
237.2346739828576
 30
0.0
 11
187.16954472641751
 21
243.18805743217811
 31
0.0
  0
LINE
  5
7D3
  8
0
 10
161.56081134295309
 20
224.79079218835281
 30
0.0
 11
187.16954472641751
 21
218.83740873903241
 31
0.0
  0
LINE
  5
7DB
  8
0
 10
182.0
 20
175.0
 30
0.0
 11
182.0
 21
183.65358983848591
 31
0.0
  0
LINE
  5
7DC
  8
0
 10
198.0
 20
175.0
 30
0.0
 11
198.0
 21
183.65358983848591
 31
0.0
  0
LINE
  5
7DD
  8
0
 10
197.39999999999949
 20
184.0
 30
0.0
 11
198.0
 21
183.65358983848591
 31
0.0
  0
LINE
  5
7DE
  8
0
 10
181.99999999999989
 20
183.65358983848591
 30
0.0
 11
198.0
 21
183.65358983848591
 31
0.0
  0
LINE
  5
7DF
  8
0
 10
182.60000000000031
 20
184.0
 30
0.0
 11
182.0
 21
183.65358983848591
 31
0.0
  0
LINE
  5
7E0
  8
0
 10
182.60000000000031
 20
184.0
 30
0.0
 11
197.39999999999949
 21
184.0
 31
0.0
  0
ARC
  5
7E5
  8
0
 10
201.24999999999281
 20
159.5000000000006
 30
0.0
 40
1.5
 50
90.0
 51
160.5287793655335
  0
ARC
  5
7E6
  8
0
 10
178.75000000000711
 20
159.5000000000006
 30
0.0
 40
1.5
 50
19.471220634466519
 51
90.0
  0
LINE
  5
828
  8
0
 10
161.08791830815389
 20
170.31083380232971
 30
0.0
 11
176.15333816742881
 21
174.61523947640819
 31
0.0
  0
ARC
  5
829
  8
0
 10
178.90054944640261
 20
164.9999999999998
 30
0.0
 40
10.0
 50
90.0
 51
105.9453959009212
  0
LINE
  5
82A
  8
0
 10
178.90054944640261
 20
175.0
 30
0.0
 11
202.0
 21
175.0
 31
0.0
  0
LINE
  5
82B
  8
0
 10
202.5
 20
174.5
 30
0.0
 11
202.5
 21
161.5
 31
0.0
  0
LINE
  5
82C
  8
0
 10
160.38196601125
 20
160.0
 30
0.0
 11
170.962569491577
 21
159.9999999999998
 31
0.0
  0
ARC
  5
82D
  8
0
 10
161.5
 20
160.9999999999998
 30
0.0
 40
1.5
 50
180.0
 51
221.81031489577461
  0
LINE
  5
82E
  8
0
 10
171.9625694915772
 20
160.9999999999998
 30
0.0
 11
202.00000000000011
 21
161.00000000000281
 31
0.0
  0
LINE
  5
82F
  8
0
 10
170.9625694915764
 20
159.9999999999992
 30
0.0
 11
171.9625694915772
 21
160.9999999999998
 31
0.0
  0
LINE
  5
830
  8
0
 10
160.0
 20
160.9999999999998
 30
0.0
 11
160.0
 21
168.86854788086839
 31
0.0
  0
ARC
  5
831
  8
0
 10
161.5
 20
168.86854788086839
 30
0.0
 40
1.5
 50
105.9453959009212
 51
180.0
  0
ARC
  5
832
  8
0
 10
202.0
 20
161.5
 30
0.0
 40
0.5
 50
270.0
 51
0.0
  0
ARC
  5
833
  8
0
 10
202.0
 20
174.5
 30
0.0
 40
0.5
 50
0.0
 51
90.0
  0
LINE
  5
834
  8
0
 10
282.0
 20
183.65358983851701
 30
0.0
 11
297.99999999999972
 21
183.65358983851701
 31
0.0
  0
LINE
  5
835
  8
0
 10
87.0
 20
183.65358983851701
 30
0.0
 11
102.9999999999999
 21
183.65358983851701
 31
0.0
  0
ARC
  5
8BE
  8
0
 10
106.249999999991
 20
159.500000000032
 30
0.0
 40
1.5
 50
90.0
 51
160.52877936680599
  0
ARC
  5
8BF
  8
0
 10
83.750000000005457
 20
159.500000000032
 30
0.0
 40
1.5
 50
19.471220633194012
 51
90.0
  0
ARC
  5
8C1
  8
0
 10
301.24999999999091
 20
159.5000000000318
 30
0.0
 40
1.5
 50
90.0
 51
160.52877936680389
  0
ARC
  5
8C2
  8
0
 10
278.75000000000551
 20
159.5000000000318
 30
0.0
 40
1.5
 50
19.471220633196051
 51
90.0
  0
LINE
  5
8D5
  8
0
 10
184.4322359999999
 20
104.42265
 30
0.0
 11
195.56776400000001
 21
104.42265
 31
0.0
  0
LINE
  5
8D6
  8
0
 10
184.4322359999999
 20
90.577349999999996
 30
0.0
 11
195.56776400000001
 21
90.577349999999996
 31
0.0
  0
LINE
  5
8D7
  8
0
 10
184.4322359999999
 20
104.42265
 30
0.0
 11
184.4322359999999
 21
90.577349999999996
 31
0.0
  0
LINE
  5
8D8
  8
0
 10
195.56776400000001
 20
104.42265
 30
0.0
 11
195.56776400000001
 21
90.577349999999996
 31
0.0
  0
LINE
  5
8D9
  8
0
 10
200.20649900000001
 20
104.42265
 30
0.0
 11
200.20649900000001
 21
90.577349999999996
 31
0.0
  0
LINE
  5
8DA
  8
0
 10
205.77426299999999
 20
104.42265
 30
0.0
 11
205.77426299999999
 21
90.577349999999996
 31
0.0
  0
ARC
  5
8DB
  8
0
 10
190.0
 20
77.864536999999999
 30
0.0
 40
27.135463000000001
 50
78.15972599999985
 51
101.84027400000009
  0
ARC
  5
8DC
  8
0
 10
190.0
 20
117.135463
 30
0.0
 40
27.135463000000001
 50
258.15972599999992
 51
281.84027400000008
  0
ARC
  5
8DD
  8
0
 10
202.99038100000001
 20
97.000372000000013
 30
0.0
 40
7.0003719999999987
 50
246.56700599999951
 51
293.43299400000052
  0
ARC
  5
8DE
  8
0
 10
202.99038100000001
 20
97.999628000000016
 30
0.0
 40
7.0003719999999987
 50
66.567005999999452
 51
113.43299400000051
  0
LINE
  5
8DF
  8
0
 10
200.20649900000001
 20
90.577349999999996
 30
0.0
 11
205.77426299999999
 21
90.577349999999996
 31
0.0
  0
LINE
  5
8E0
  8
0
 10
200.20649900000001
 20
104.42265
 30
0.0
 11
205.77426299999999
 21
104.42265
 31
0.0
  0
LINE
  5
8E1
  8
0
 10
179.79350099999999
 20
104.42265
 30
0.0
 11
174.22573700000001
 21
104.42265
 31
0.0
  0
LINE
  5
8E2
  8
0
 10
179.79350099999999
 20
90.577349999999996
 30
0.0
 11
174.22573700000001
 21
90.577349999999996
 31
0.0
  0
ARC
  5
8E3
  8
0
 10
177.00961899999999
 20
97.999628000000016
 30
0.0
 40
7.0003719999999987
 50
66.567005999999452
 51
113.43299400000051
  0
ARC
  5
8E4
  8
0
 10
177.00961899999999
 20
97.000372000000013
 30
0.0
 40
7.0003719999999987
 50
246.56700599999951
 51
293.43299400000052
  0
LINE
  5
8E5
  8
0
 10
174.22573700000001
 20
104.42265
 30
0.0
 11
174.22573700000001
 21
90.577349999999996
 31
0.0
  0
LINE
  5
8E6
  8
0
 10
179.79350099999999
 20
104.42265
 30
0.0
 11
179.79350099999999
 21
90.577349999999996
 31
0.0
  0
LINE
  5
8E7
  8
1
 10
190.0
 20
45.0
 30
0.0
 11
190.0
 21
188.9999999999998
 31
0.0
  0
LINE
  5
8E8
  8
0
 10
174.0
 20
81.0
 30
0.0
 11
174.0
 21
159.0
 31
0.0
  0
LINE
  5
8E9
  8
0
 10
206.0
 20
81.0
 30
0.0
 11
206.0
 21
159.0
 31
0.0
  0
LINE
  5
8EA
  8
0
 10
205.0
 20
160.0
 30
0.0
 11
175.0
 21
160.0
 31
0.0
  0
LINE
  5
8EB
  8
0
 10
206.0
 20
159.0
 30
0.0
 11
205.0
 21
160.0
 31
0.0
  0
LINE
  5
8EC
  8
0
 10
174.0
 20
159.0
 30
0.0
 11
175.0
 21
160.0
 31
0.0
  0
LINE
  5
8ED
  8
0
 10
175.0
 20
80.0
 30
0.0
 11
174.0
 21
81.0
 31
0.0
  0
LINE
  5
8EE
  8
0
 10
205.0
 20
80.0
 30
0.0
 11
206.0
 21
81.0
 31
0.0
  0
LINE
  5
8EF
  8
0
 10
205.0
 20
80.0
 30
0.0
 11
175.0
 21
80.0
 31
0.0
  0
LINE
  5
8F0
  8
0
 10
184.0
 20
76.5
 30
0.0
 11
184.0
 21
51.5
 31
0.0
  0
LINE
  5
8F1
  8
3
 10
184.947
 20
76.5
 30
0.0
 11
184.947
 21
50.55299999999999
 31
0.0
  0
LINE
  5
8F2
  8
0
 10
185.5
 20
50.0
 30
0.0
 11
184.0
 21
51.5
 31
0.0
  0
LINE
  5
8F3
  8
0
 10
185.30000000000001
 20
79.200000000000003
 30
0.0
 11
185.30000000000001
 21
77.299999999999983
 31
0.0
  0
ARC
  5
8F4
  8
0
 10
184.5
 20
79.200000000000003
 30
0.0
 40
0.8
 50
0.0
 51
90.0
  0
ARC
  5
8F5
  8
0
 10
184.5
 20
77.299999999999983
 30
0.0
 40
0.8
 50
270.0
 51
0.0
  0
ARC
  5
8F6
  8
0
 10
195.5
 20
77.299999999999983
 30
0.0
 40
0.8
 50
180.0
 51
270.0
  0
ARC
  5
8F7
  8
0
 10
195.5
 20
79.200000000000003
 30
0.0
 40
0.8
 50
90.0
 51
180.0
  0
LINE
  5
8F8
  8
0
 10
194.69999999999999
 20
79.200000000000003
 30
0.0
 11
194.69999999999999
 21
77.299999999999983
 31
0.0
  0
LINE
  5
8F9
  8
0
 10
196.0
 20
76.5
 30
0.0
 11
184.0
 21
76.5
 31
0.0
  0
LINE
  5
8FA
  8
0
 10
196.0
 20
51.5
 30
0.0
 11
184.0
 21
51.5
 31
0.0
  0
LINE
  5
8FB
  8
0
 10
194.5
 20
50.0
 30
0.0
 11
196.0
 21
51.5
 31
0.0
  0
LINE
  5
8FC
  8
0
 10
194.5
 20
50.0
 30
0.0
 11
185.5
 21
50.0
 31
0.0
  0
LINE
  5
8FD
  8
3
 10
195.053
 20
76.5
 30
0.0
 11
195.053
 21
50.55299999999999
 31
0.0
  0
LINE
  5
8FE
  8
0
 10
196.0
 20
76.5
 30
0.0
 11
196.0
 21
51.5
 31
0.0
  0
LINE
  5
8FF
  8
0
 10
101.0
 20
76.5
 30
0.0
 11
101.0
 21
51.5
 31
0.0
  0
LINE
  5
900
  8
3
 10
100.053
 20
76.5
 30
0.0
 11
100.053
 21
50.55299999999999
 31
0.0
  0
LINE
  5
901
  8
0
 10
99.500000000000014
 20
50.0
 30
0.0
 11
90.5
 21
50.0
 31
0.0
  0
LINE
  5
902
  8
0
 10
99.500000000000014
 20
50.0
 30
0.0
 11
101.0
 21
51.5
 31
0.0
  0
LINE
  5
903
  8
0
 10
101.0
 20
51.5
 30
0.0
 11
89.0
 21
51.5
 31
0.0
  0
LINE
  5
904
  8
0
 10
101.0
 20
76.5
 30
0.0
 11
89.0
 21
76.5
 31
0.0
  0
LINE
  5
905
  8
0
 10
99.700000000000003
 20
79.200000000000003
 30
0.0
 11
99.700000000000003
 21
77.299999999999983
 31
0.0
  0
ARC
  5
906
  8
0
 10
100.5
 20
79.200000000000003
 30
0.0
 40
0.8
 50
90.0
 51
180.0
  0
ARC
  5
907
  8
0
 10
100.5
 20
77.299999999999983
 30
0.0
 40
0.8
 50
180.0
 51
270.0
  0
ARC
  5
908
  8
0
 10
89.500000000000014
 20
77.299999999999983
 30
0.0
 40
0.8
 50
270.0
 51
0.0
  0
ARC
  5
909
  8
0
 10
89.500000000000014
 20
79.200000000000003
 30
0.0
 40
0.8
 50
0.0
 51
90.0
  0
LINE
  5
90A
  8
0
 10
90.299999999999983
 20
79.200000000000003
 30
0.0
 11
90.299999999999983
 21
77.299999999999983
 31
0.0
  0
LINE
  5
90B
  8
0
 10
90.5
 20
50.0
 30
0.0
 11
89.0
 21
51.5
 31
0.0
  0
LINE
  5
90C
  8
3
 10
89.946999999999989
 20
76.5
 30
0.0
 11
89.946999999999989
 21
50.55299999999999
 31
0.0
  0
LINE
  5
90D
  8
0
 10
89.0
 20
76.5
 30
0.0
 11
89.0
 21
51.5
 31
0.0
  0
LINE
  5
90E
  8
0
 10
111.0
 20
81.0
 30
0.0
 11
111.0
 21
90.0
 31
0.0
  0
LINE
  5
90F
  8
0
 10
110.0
 20
80.0
 30
0.0
 11
80.0
 21
80.0
 31
0.0
  0
LINE
  5
910
  8
0
 10
110.0
 20
80.0
 30
0.0
 11
111.0
 21
81.0
 31
0.0
  0
LINE
  5
911
  8
0
 10
111.0
 20
90.0
 30
0.0
 11
110.0
 21
90.577349999999996
 31
0.0
  0
LINE
  5
912
  8
0
 10
111.0
 20
105.0
 30
0.0
 11
110.0
 21
104.42265
 31
0.0
  0
LINE
  5
913
  8
0
 10
110.0
 20
90.577349999999996
 30
0.0
 11
110.0
 21
104.42265
 31
0.0
  0
LINE
  5
914
  8
0
 10
97.678174999999996
 20
90.577349999999996
 30
0.0
 11
107.321825
 21
90.577349999999996
 31
0.0
  0
LINE
  5
915
  8
0
 10
107.321825
 20
90.577349999999996
 30
0.0
 11
107.321825
 21
104.42265
 31
0.0
  0
LINE
  5
916
  8
0
 10
107.321825
 20
104.42265
 30
0.0
 11
97.678174999999996
 21
104.42265
 31
0.0
  0
LINE
  5
917
  8
0
 10
97.678174999999996
 20
104.42265
 30
0.0
 11
97.678174999999996
 21
90.577349999999996
 31
0.0
  0
ARC
  5
918
  8
0
 10
102.5
 20
110.423766
 30
0.0
 40
20.423766000000001
 50
256.34417900000051
 51
283.65582099999961
  0
ARC
  5
919
  8
0
 10
102.5
 20
84.576234000000014
 30
0.0
 40
20.423766000000001
 50
76.344179000000452
 51
103.65582099999951
  0
ARC
  5
91A
  8
0
 10
87.5
 20
84.576234000000014
 30
0.0
 40
20.423766000000001
 50
76.344179000000452
 51
103.65582099999951
  0
ARC
  5
91B
  8
0
 10
87.5
 20
110.423766
 30
0.0
 40
20.423766000000001
 50
256.34417900000051
 51
283.65582099999961
  0
LINE
  5
91C
  8
0
 10
92.321825000000004
 20
104.42265
 30
0.0
 11
92.321825000000004
 21
90.577349999999996
 31
0.0
  0
LINE
  5
91D
  8
0
 10
82.678174999999968
 20
104.42265
 30
0.0
 11
92.321825000000004
 21
104.42265
 31
0.0
  0
LINE
  5
91E
  8
0
 10
82.678174999999968
 20
90.577349999999996
 30
0.0
 11
82.678174999999968
 21
104.42265
 31
0.0
  0
LINE
  5
91F
  8
0
 10
92.321825000000004
 20
90.577349999999996
 30
0.0
 11
82.678174999999968
 21
90.577349999999996
 31
0.0
  0
LINE
  5
920
  8
0
 10
80.0
 20
90.577349999999996
 30
0.0
 11
80.0
 21
104.42265
 31
0.0
  0
LINE
  5
921
  8
0
 10
79.0
 20
105.0
 30
0.0
 11
80.0
 21
104.42265
 31
0.0
  0
LINE
  5
922
  8
0
 10
79.0
 20
90.0
 30
0.0
 11
80.0
 21
90.577349999999996
 31
0.0
  0
LINE
  5
923
  8
0
 10
80.0
 20
80.0
 30
0.0
 11
79.0
 21
81.0
 31
0.0
  0
LINE
  5
924
  8
0
 10
79.0
 20
81.0
 30
0.0
 11
79.0
 21
90.0
 31
0.0
  0
LINE
  5
925
  8
0
 10
79.0
 20
159.0
 30
0.0
 11
80.0
 21
160.0
 31
0.0
  0
LINE
  5
926
  8
0
 10
111.0
 20
159.0
 30
0.0
 11
110.0
 21
160.0
 31
0.0
  0
LINE
  5
927
  8
0
 10
110.0
 20
160.0
 30
0.0
 11
80.0
 21
160.0
 31
0.0
  0
LINE
  5
928
  8
0
 10
111.0
 20
105.0
 30
0.0
 11
111.0
 21
159.0
 31
0.0
  0
LINE
  5
929
  8
0
 10
79.0
 20
105.0
 30
0.0
 11
79.0
 21
159.0
 31
0.0
  0
LINE
  5
92A
  8
1
 10
95.0
 20
45.0
 30
0.0
 11
95.0
 21
188.9999999999998
 31
0.0
  0
LINE
  5
92B
  8
0
 10
296.0
 20
76.5
 30
0.0
 11
296.0
 21
51.5
 31
0.0
  0
LINE
  5
92C
  8
3
 10
295.053
 20
76.5
 30
0.0
 11
295.053
 21
50.55299999999999
 31
0.0
  0
LINE
  5
92D
  8
0
 10
294.5
 20
50.0
 30
0.0
 11
285.5
 21
50.0
 31
0.0
  0
LINE
  5
92E
  8
0
 10
294.5
 20
50.0
 30
0.0
 11
296.0
 21
51.5
 31
0.0
  0
LINE
  5
92F
  8
0
 10
296.0
 20
51.5
 30
0.0
 11
284.0
 21
51.5
 31
0.0
  0
LINE
  5
930
  8
0
 10
296.0
 20
76.5
 30
0.0
 11
284.0
 21
76.5
 31
0.0
  0
LINE
  5
931
  8
0
 10
294.69999999999999
 20
79.200000000000003
 30
0.0
 11
294.69999999999999
 21
77.299999999999983
 31
0.0
  0
ARC
  5
932
  8
0
 10
295.5
 20
79.200000000000003
 30
0.0
 40
0.8
 50
90.0
 51
180.0
  0
ARC
  5
933
  8
0
 10
295.5
 20
77.299999999999983
 30
0.0
 40
0.8
 50
180.0
 51
270.0
  0
ARC
  5
934
  8
0
 10
284.5
 20
77.299999999999983
 30
0.0
 40
0.8
 50
270.0
 51
0.0
  0
ARC
  5
935
  8
0
 10
284.5
 20
79.200000000000003
 30
0.0
 40
0.8
 50
0.0
 51
90.0
  0
LINE
  5
936
  8
0
 10
285.30000000000001
 20
79.200000000000003
 30
0.0
 11
285.30000000000001
 21
77.299999999999983
 31
0.0
  0
LINE
  5
937
  8
0
 10
285.5
 20
50.0
 30
0.0
 11
284.0
 21
51.5
 31
0.0
  0
LINE
  5
938
  8
3
 10
284.947
 20
76.5
 30
0.0
 11
284.947
 21
50.55299999999999
 31
0.0
  0
LINE
  5
939
  8
0
 10
284.0
 20
76.5
 30
0.0
 11
284.0
 21
51.5
 31
0.0
  0
LINE
  5
93A
  8
0
 10
306.0
 20
81.0
 30
0.0
 11
306.0
 21
90.0
 31
0.0
  0
LINE
  5
93B
  8
0
 10
305.0
 20
80.0
 30
0.0
 11
275.0
 21
80.0
 31
0.0
  0
LINE
  5
93C
  8
0
 10
305.0
 20
80.0
 30
0.0
 11
306.0
 21
81.0
 31
0.0
  0
LINE
  5
93D
  8
0
 10
306.0
 20
90.0
 30
0.0
 11
305.0
 21
90.577349999999996
 31
0.0
  0
LINE
  5
93E
  8
0
 10
306.0
 20
105.0
 30
0.0
 11
305.0
 21
104.42265
 31
0.0
  0
LINE
  5
93F
  8
0
 10
305.0
 20
90.577349999999996
 30
0.0
 11
305.0
 21
104.42265
 31
0.0
  0
LINE
  5
940
  8
0
 10
292.67817500000001
 20
90.577349999999996
 30
0.0
 11
302.32182499999999
 21
90.577349999999996
 31
0.0
  0
LINE
  5
941
  8
0
 10
302.32182499999999
 20
90.577349999999996
 30
0.0
 11
302.32182499999999
 21
104.42265
 31
0.0
  0
LINE
  5
942
  8
0
 10
302.32182499999999
 20
104.42265
 30
0.0
 11
292.67817500000001
 21
104.42265
 31
0.0
  0
LINE
  5
943
  8
0
 10
292.67817500000001
 20
104.42265
 30
0.0
 11
292.67817500000001
 21
90.577349999999996
 31
0.0
  0
ARC
  5
944
  8
0
 10
297.5
 20
110.423766
 30
0.0
 40
20.423766000000001
 50
256.34417900000119
 51
283.65582099999881
  0
ARC
  5
945
  8
0
 10
297.5
 20
84.576234000000014
 30
0.0
 40
20.423766000000001
 50
76.344179000001247
 51
103.6558209999987
  0
ARC
  5
946
  8
0
 10
282.5
 20
84.576234000000014
 30
0.0
 40
20.423766000000001
 50
76.344179000001247
 51
103.6558209999987
  0
ARC
  5
947
  8
0
 10
282.5
 20
110.423766
 30
0.0
 40
20.423766000000001
 50
256.34417900000119
 51
283.65582099999881
  0
LINE
  5
948
  8
0
 10
287.32182499999999
 20
104.42265
 30
0.0
 11
287.32182499999999
 21
90.577349999999996
 31
0.0
  0
LINE
  5
949
  8
0
 10
277.67817500000001
 20
104.42265
 30
0.0
 11
287.32182499999999
 21
104.42265
 31
0.0
  0
LINE
  5
94A
  8
0
 10
277.67817500000001
 20
90.577349999999996
 30
0.0
 11
277.67817500000001
 21
104.42265
 31
0.0
  0
LINE
  5
94B
  8
0
 10
287.32182499999999
 20
90.577349999999996
 30
0.0
 11
277.67817500000001
 21
90.577349999999996
 31
0.0
  0
LINE
  5
94C
  8
0
 10
275.0
 20
90.577349999999996
 30
0.0
 11
275.0
 21
104.42265
 31
0.0
  0
LINE
  5
94D
  8
0
 10
274.0
 20
105.0
 30
0.0
 11
275.0
 21
104.42265
 31
0.0
  0
LINE
  5
94E
  8
0
 10
274.0
 20
90.0
 30
0.0
 11
275.0
 21
90.577349999999996
 31
0.0
  0
LINE
  5
94F
  8
0
 10
275.0
 20
80.0
 30
0.0
 11
274.0
 21
81.0
 31
0.0
  0
LINE
  5
950
  8
0
 10
274.0
 20
81.0
 30
0.0
 11
274.0
 21
90.0
 31
0.0
  0
LINE
  5
951
  8
0
 10
274.0
 20
159.0
 30
0.0
 11
275.0
 21
160.0
 31
0.0
  0
LINE
  5
952
  8
0
 10
306.0
 20
159.0
 30
0.0
 11
305.0
 21
160.0
 31
0.0
  0
LINE
  5
953
  8
0
 10
305.0
 20
160.0
 30
0.0
 11
275.0
 21
160.0
 31
0.0
  0
LINE
  5
954
  8
0
 10
306.0
 20
105.0
 30
0.0
 11
306.0
 21
159.0
 31
0.0
  0
LINE
  5
955
  8
0
 10
274.0
 20
105.0
 30
0.0
 11
274.0
 21
159.0
 31
0.0
  0
LINE
  5
956
  8
1
 10
290.0
 20
45.0
 30
0.0
 11
290.0
 21
188.9999999999998
 31
0.0
  0
LINE
  5
B9C
  8
2
 10
285.00000000000011
 20
110.4999999999999
 30
0.0
 11
286.50000000000011
 21
108.9999999999999
 31
0.0
  0
LINE
  5
B9D
  8
2
 10
293.5
 20
108.9999999999999
 30
0.0
 11
286.50000000000011
 21
108.9999999999999
 31
0.0
  0
LINE
  5
B9E
  8
2
 10
295.00000000000011
 20
110.4999999999999
 30
0.0
 11
295.00000000000011
 21
129.9999999999998
 31
0.0
  0
LINE
  5
B9F
  8
2
 10
285.00000000000011
 20
110.4999999999999
 30
0.0
 11
285.00000000000011
 21
130.0
 31
0.0
  0
LINE
  5
BA0
  8
2
 10
299.99999999999989
 20
131.0
 30
0.0
 11
298.99999999999989
 21
130.0
 31
0.0
  0
LINE
  5
BA1
  8
2
 10
280.0
 20
131.0
 30
0.0
 11
281.0
 21
130.0
 31
0.0
  0
LINE
  5
BA2
  8
2
 10
281.0
 20
130.0
 30
0.0
 11
298.99999999999989
 21
130.0
 31
0.0
  0
LINE
  5
BA3
  8
2
 10
300.0
 20
158.67084380240081
 30
0.0
 11
299.99999999999989
 21
131.0
 31
0.0
  0
ARC
  5
BA4
  8
2
 10
301.24999999999278
 20
159.5000000000006
 30
0.0
 40
1.5
 50
160.52877936553381
 51
213.5573097623882
  0
ARC
  5
BA5
  8
2
 10
278.75000000000722
 20
159.5000000000006
 30
0.0
 40
1.5
 50
326.44269023761188
 51
19.47122063446616
  0
LINE
  5
BA6
  8
2
 10
280.0
 20
158.67084380240081
 30
0.0
 11
280.0
 21
131.0
 31
0.0
  0
LINE
  5
BA7
  8
2
 10
280.0
 20
158.67084380240291
 30
0.0
 11
300.0
 21
158.67084380240181
 31
0.0
  0
LINE
  5
BA8
  8
2
 10
294.99999999999989
 20
110.4999999999999
 30
0.0
 11
293.5
 21
108.9999999999999
 31
0.0
  0
LINE
  5
BA9
  8
2
 10
285.00000000000028
 20
110.4999999999999
 30
0.0
 11
295.00000000000011
 21
110.4999999999999
 31
0.0
  0
LINE
  5
BAA
  8
2
 10
294.24999999999829
 20
130.0
 30
0.0
 11
294.25000000000011
 21
110.2596989073478
 31
0.0
  0
LINE
  5
BAB
  8
2
 10
285.75000000000011
 20
130.0
 30
0.0
 11
285.75000000000011
 21
109.7499999999999
 31
0.0
  0
LINE
  5
BAC
  8
2
 10
280.0
 20
131.0
 30
0.0
 11
299.99999999999989
 21
131.0
 31
0.0
  0
LINE
  5
BAD
  8
2
 10
185.00000000000011
 20
110.4999999999999
 30
0.0
 11
186.50000000000011
 21
108.9999999999999
 31
0.0
  0
LINE
  5
BAE
  8
2
 10
193.50000000000011
 20
108.9999999999999
 30
0.0
 11
186.50000000000011
 21
108.9999999999999
 31
0.0
  0
LINE
  5
BAF
  8
2
 10
195.00000000000011
 20
110.4999999999999
 30
0.0
 11
195.00000000000011
 21
129.9999999999998
 31
0.0
  0
LINE
  5
BB0
  8
2
 10
185.00000000000011
 20
110.4999999999999
 30
0.0
 11
185.00000000000011
 21
130.0
 31
0.0
  0
LINE
  5
BB1
  8
2
 10
199.99999999999989
 20
131.0
 30
0.0
 11
198.99999999999989
 21
130.0
 31
0.0
  0
LINE
  5
BB2
  8
2
 10
180.0
 20
131.0
 30
0.0
 11
181.0
 21
130.0
 31
0.0
  0
LINE
  5
BB3
  8
2
 10
181.0
 20
130.0
 30
0.0
 11
198.99999999999989
 21
130.0
 31
0.0
  0
LINE
  5
BB4
  8
2
 10
200.0
 20
158.67084380240081
 30
0.0
 11
199.99999999999989
 21
131.0
 31
0.0
  0
ARC
  5
BB5
  8
2
 10
201.24999999999281
 20
159.5000000000006
 30
0.0
 40
1.5
 50
90.0
 51
213.55730976238809
  0
ARC
  5
BB6
  8
2
 10
178.75000000000711
 20
159.5000000000006
 30
0.0
 40
1.5
 50
326.44269023761188
 51
90.0
  0
LINE
  5
BB7
  8
2
 10
180.0
 20
158.67084380240081
 30
0.0
 11
180.0
 21
131.0
 31
0.0
  0
LINE
  5
BB8
  8
2
 10
180.0
 20
158.67084380240291
 30
0.0
 11
200.0
 21
158.67084380240181
 31
0.0
  0
LINE
  5
BB9
  8
2
 10
194.99999999999989
 20
110.4999999999999
 30
0.0
 11
193.50000000000011
 21
108.9999999999999
 31
0.0
  0
LINE
  5
BBA
  8
2
 10
185.0000000000002
 20
110.4999999999999
 30
0.0
 11
195.00000000000011
 21
110.4999999999999
 31
0.0
  0
LINE
  5
BBB
  8
2
 10
194.24999999999841
 20
130.0
 30
0.0
 11
194.25000000000011
 21
110.2596989073478
 31
0.0
  0
LINE
  5
BBC
  8
2
 10
185.75
 20
130.0
 30
0.0
 11
185.75
 21
109.7499999999999
 31
0.0
  0
LINE
  5
BBD
  8
2
 10
180.0
 20
131.0
 30
0.0
 11
199.99999999999989
 21
131.0
 31
0.0
  0
LINE
  5
BBE
  8
2
 10
90.000000000000114
 20
110.4999999999999
 30
0.0
 11
91.500000000000114
 21
108.9999999999999
 31
0.0
  0
LINE
  5
BBF
  8
2
 10
98.500000000000128
 20
108.9999999999999
 30
0.0
 11
91.500000000000114
 21
108.9999999999999
 31
0.0
  0
LINE
  5
BC0
  8
2
 10
100.0000000000001
 20
110.4999999999999
 30
0.0
 11
100.0000000000001
 21
129.9999999999998
 31
0.0
  0
LINE
  5
BC1
  8
2
 10
90.000000000000114
 20
110.4999999999999
 30
0.0
 11
90.000000000000114
 21
130.0
 31
0.0
  0
LINE
  5
BC2
  8
2
 10
104.9999999999999
 20
131.0
 30
0.0
 11
103.9999999999999
 21
130.0
 31
0.0
  0
LINE
  5
BC3
  8
2
 10
85.0
 20
131.0
 30
0.0
 11
86.0
 21
130.0
 31
0.0
  0
LINE
  5
BC4
  8
2
 10
86.0
 20
130.0
 30
0.0
 11
103.9999999999999
 21
130.0
 31
0.0
  0
LINE
  5
BC5
  8
2
 10
105.0
 20
158.67084380240081
 30
0.0
 11
104.9999999999999
 21
131.0
 31
0.0
  0
ARC
  5
BC6
  8
2
 10
106.2499999999928
 20
159.5000000000006
 30
0.0
 40
1.5
 50
160.5287793655335
 51
213.5573097623882
  0
ARC
  5
BC7
  8
2
 10
83.750000000007148
 20
159.5000000000006
 30
0.0
 40
1.5
 50
326.44269023761188
 51
19.471220634466519
  0
LINE
  5
BC8
  8
2
 10
85.0
 20
158.67084380240081
 30
0.0
 11
85.0
 21
131.0
 31
0.0
  0
LINE
  5
BC9
  8
2
 10
85.0
 20
158.67084380240291
 30
0.0
 11
105.0
 21
158.67084380240181
 31
0.0
  0
LINE
  5
BCA
  8
2
 10
99.999999999999872
 20
110.4999999999999
 30
0.0
 11
98.500000000000128
 21
108.9999999999999
 31
0.0
  0
LINE
  5
BCB
  8
2
 10
90.000000000000213
 20
110.4999999999999
 30
0.0
 11
100.0000000000001
 21
110.4999999999999
 31
0.0
  0
LINE
  5
BCC
  8
2
 10
99.249999999998394
 20
130.0
 30
0.0
 11
99.250000000000128
 21
110.2596989073478
 31
0.0
  0
LINE
  5
BCD
  8
2
 10
90.750000000000128
 20
130.0
 30
0.0
 11
90.750000000000128
 21
109.7499999999999
 31
0.0
  0
LINE
  5
BCE
  8
2
 10
85.0
 20
131.0
 30
0.0
 11
104.9999999999999
 21
131.0
 31
0.0
  0
TEXT
  5
D0D
  8
0
 62
     3
 10
0.0
 20
0.0
 30
0.0
 40
10.0
  1
BJ130-10030A2
  7
STANDARD1
  0
ENDSEC
  0
EOF
