  0
SECTION
  2
HEADER
  9
$ACADVER
  1
AC1009
  9
$INSBASE
 10
0.0
 20
0.0
 30
0.0
  9
$EXTMIN
 10
0.0
 20
-2.960436562073669
 30
0.0
  9
$EXTMAX
 10
540.0
 20
445.0
 30
0.0
  9
$LIMMIN
 10
0.0
 20
0.0
  9
$LIMMAX
 10
780.0
 20
540.0
  9
$ORTHOMODE
 70
     1
  9
$REGENMODE
 70
     1
  9
$FILLMODE
 70
     1
  9
$QTEXTMODE
 70
     0
  9
$MIRRTEXT
 70
     0
  9
$DRAGMODE
 70
     2
  9
$LTSCALE
 40
20.0
  9
$OSMODE
 70
  3071
  9
$ATTMODE
 70
     1
  9
$TEXTSIZE
 40
0.2
  9
$TRACEWID
 40
0.05
  9
$TEXTSTYLE
  7
STANDARD
  9
$CLAYER
  8
0
  9
$CELTYPE
  6
BYLAYER
  9
$CECOLOR
 62
   256
  9
$DIMSCALE
 40
2.0
  9
$DIMASZ
 40
3.0
  9
$DIMEXO
 40
2.0
  9
$DIMDLI
 40
0.38
  9
$DIMRND
 40
0.0
  9
$DIMDLE
 40
0.0
  9
$DIMEXE
 40
2.0
  9
$DIMTP
 40
0.0
  9
$DIMTM
 40
0.0
  9
$DIMTXT
 40
3.0
  9
$DIMCEN
 40
0.0
  9
$DIMTSZ
 40
0.0
  9
$DIMTOL
 70
     0
  9
$DIMLIM
 70
     0
  9
$DIMTIH
 70
     0
  9
$DIMTOH
 70
     0
  9
$DIMSE1
 70
     0
  9
$DIMSE2
 70
     0
  9
$DIMTAD
 70
     1
  9
$DIMZIN
 70
     0
  9
$DIMBLK
  1

  9
$DIMASO
 70
     0
  9
$DIMSHO
 70
     0
  9
$DIMPOST
  1

  9
$DIMAPOST
  1

  9
$DIMALT
 70
     0
  9
$DIMALTD
 70
     2
  9
$DIMALTF
 40
25.399999999999999
  9
$DIMLFAC
 40
1.0
  9
$DIMTOFL
 70
     1
  9
$DIMTVP
 40
1.6000000000000001
  9
$DIMTIX
 70
     1
  9
$DIMSOXD
 70
     0
  9
$DIMSAH
 70
     0
  9
$DIMBLK1
  1

  9
$DIMBLK2
  1

  9
$DIMSTYLE
  2
STANDARD
  9
$DIMCLRD
 70
     0
  9
$DIMCLRE
 70
     0
  9
$DIMCLRT
 70
     0
  9
$DIMTFAC
 40
1.0
  9
$DIMGAP
 40
0.09
  9
$LUNITS
 70
     2
  9
$LUPREC
 70
     4
  9
$SKETCHINC
 40
0.1
  9
$FILLETRAD
 40
0.0
  9
$AUNITS
 70
     0
  9
$AUPREC
 70
     4
  9
$MENU
  1
E:\r13\win\SUPPORT\ACAD
  9
$ELEVATION
 40
0.0
  9
$PELEVATION
 40
0.0
  9
$THICKNESS
 40
0.0
  9
$LIMCHECK
 70
     0
  9
$BLIPMODE
 70
     0
  9
$CHAMFERA
 40
0.0
  9
$CHAMFERB
 40
0.0
  9
$SKPOLY
 70
     0
  9
$TDCREATE
 40
2449840.3504629629
  9
$TDUPDATE
 40
2456597.6204698258
  9
$TDINDWG
 40
0.0001071528
  9
$TDUSRTIMER
 40
0.0001071528
  9
$USRTIMER
 70
     1
  9
$ANGBASE
 50
0.0
  9
$ANGDIR
 70
     0
  9
$PDMODE
 70
     0
  9
$PDSIZE
 40
0.0
  9
$PLINEWID
 40
0.0
  9
$COORDS
 70
     1
  9
$SPLFRAME
 70
     0
  9
$SPLINETYPE
 70
     6
  9
$SPLINESEGS
 70
     8
  9
$ATTDIA
 70
     0
  9
$ATTREQ
 70
     1
  9
$HANDLING
 70
     1
  9
$HANDSEED
  5
311
  9
$SURFTAB1
 70
     6
  9
$SURFTAB2
 70
     6
  9
$SURFTYPE
 70
     6
  9
$SURFU
 70
     6
  9
$SURFV
 70
     6
  9
$UCSNAME
  2

  9
$UCSORG
 10
0.0
 20
0.0
 30
0.0
  9
$UCSXDIR
 10
1.0
 20
0.0
 30
0.0
  9
$UCSYDIR
 10
0.0
 20
1.0
 30
0.0
  9
$PUCSNAME
  2

  9
$PUCSORG
 10
0.0
 20
0.0
 30
0.0
  9
$PUCSXDIR
 10
1.0
 20
0.0
 30
0.0
  9
$PUCSYDIR
 10
0.0
 20
1.0
 30
0.0
  9
$USERI1
 70
     3
  9
$USERI2
 70
     1
  9
$USERI3
 70
     0
  9
$USERI4
 70
     0
  9
$USERI5
 70
     0
  9
$USERR1
 40
2.0
  9
$USERR2
 40
3.0
  9
$USERR3
 40
3.0
  9
$USERR4
 40
3.0
  9
$USERR5
 40
10.0
  9
$WORLDVIEW
 70
     1
  9
$SHADEDGE
 70
     3
  9
$SHADEDIF
 70
    70
  9
$TILEMODE
 70
     1
  9
$MAXACTVP
 70
    16
  9
$PLIMCHECK
 70
     0
  9
$PEXTMIN
 10
1.0000000000000000E+020
 20
1.0000000000000000E+020
 30
1.0000000000000000E+020
  9
$PEXTMAX
 10
-1.0000000000000000E+020
 20
-1.0000000000000000E+020
 30
-1.0000000000000000E+020
  9
$PLIMMIN
 10
0.0
 20
0.0
  9
$PLIMMAX
 10
12.0
 20
9.0
  9
$UNITMODE
 70
     0
  9
$VISRETAIN
 70
     0
  9
$PLINEGEN
 70
     0
  9
$PSLTSCALE
 70
     0
  0
ENDSEC
  0
SECTION
  2
TABLES
  0
TABLE
  2
VPORT
 70
     1
  0
VPORT
  2
*ACTIVE
 70
     0
 10
0.0
 20
0.0
 11
1.0
 21
1.0
 12
405.033565727412
 22
268.50860658393782
 13
0.0
 23
0.0
 14
5.0
 24
5.0
 15
10.0
 25
10.0
 16
0.0
 26
0.0
 36
1.0
 17
0.0
 27
0.0
 37
0.0
 40
547.85258761088789
 41
1.831871345029239
 42
50.0
 43
0.0
 44
0.0
 50
0.0
 51
0.0
 71
     0
 72
   100
 73
     1
 74
     0
 75
     0
 76
     0
 77
     0
 78
     2
  0
ENDTAB
  0
TABLE
  2
LTYPE
 70
     3
  0
LTYPE
  2
CONTINUOUS
 70
     0
  3
Solid Line
 72
    65
 73
     0
 40
0.0
  0
LTYPE
  2
CENTER
 70
     0
  3
____ _ ____ _ ____ _ ____ _ ____ _ ____ _ ____
 72
    65
 73
     4
 40
2.0
 49
1.25
 49
-0.25
 49
0.25
 49
-0.25
  0
LTYPE
  2
PHANTOM2
 70
     0
  3
___ _ _ ___ _ _ ___ _ _ ___ _ _
 72
    65
 73
     6
 40
1.25
 49
0.625
 49
-0.125
 49
0.125
 49
-0.125
 49
0.125
 49
-0.125
  0
ENDTAB
  0
TABLE
  2
LAYER
 70
     3
  0
LAYER
  2
0
 70
     0
 62
     7
  6
CONTINUOUS
  0
LAYER
  2
1
 70
     0
 62
     1
  6
CENTER
  0
LAYER
  2
3
 70
     0
 62
     3
  6
CONTINUOUS
  0
ENDTAB
  0
TABLE
  2
STYLE
 70
     2
  0
STYLE
  2
STANDARD
 70
     0
 40
0.0
 41
1.0
 50
0.0
 71
     0
 42
0.2
  3
TXT
  4
BIGFONT
  0
STYLE
  2
STANDARD1
 70
     0
 40
0.0
 41
1.0
 50
0.0
 71
     0
 42
3.0
  3
txt
  4

  0
ENDTAB
  0
TABLE
  2
VIEW
 70
     1
  0
VIEW
  2
ALL
 70
     0
 40
270.0
 10
220.99159700000001
 20
135.0
 41
0.0
 11
0.0
 21
0.0
 31
1.0
 12
0.0
 22
0.0
 32
0.0
 42
0.0
 43
0.0
 44
0.0
 50
0.0
 71
     0
  0
ENDTAB
  0
TABLE
  2
UCS
 70
     0
  0
ENDTAB
  0
TABLE
  2
APPID
 70
     3
  0
APPID
  2
ACAD
 70
     0
  0
APPID
  2
ACAD_MLEADERVER
 70
     0
  0
APPID
  2
ACAD_NAV_VCDISPLAY
 70
     0
  0
ENDTAB
  0
TABLE
  2
DIMSTYLE
 70
     1
  0
DIMSTYLE
  2
STANDARD
 70
     0
  3

  4

  5

  6

  7

 40
1.0
 41
0.18
 42
0.0625
 43
0.38
 44
0.18
 45
0.0
 46
0.0
 47
0.0
 48
0.0
140
0.18
141
0.09
142
0.0
143
25.399999999999999
144
1.0
145
0.0
146
1.0
147
0.09
 71
     0
 72
     0
 73
     1
 74
     1
 75
     0
 76
     0
 77
     0
 78
     0
170
     0
171
     2
172
     0
173
     0
174
     0
175
     0
176
     0
177
     0
178
     0
  0
ENDTAB
  0
ENDSEC
  0
SECTION
  2
BLOCKS
  0
BLOCK
  8
0
  2
$MODEL_SPACE
 70
     0
 10
0.0
 20
0.0
 30
0.0
  3
$MODEL_SPACE
  1

  0
ENDBLK
  5
1C7
  8
0
  0
BLOCK
 67
     1
  8
0
  2
$PAPER_SPACE
 70
     0
 10
0.0
 20
0.0
 30
0.0
  3
$PAPER_SPACE
  1

  0
ENDBLK
  5
1C5
 67
     1
  8
0
  0
BLOCK
  8
0
  2
STDGX5
 70
     0
 10
0.0
 20
0.0
 30
0.0
  3
STDGX5
  1

  0
ENDBLK
  5
3D
  8
0
  0
BLOCK
  8
0
  2
B130118A
 70
     0
 10
0.0
 20
0.0
 30
0.0
  3
B130118A
  1

  0
LINE
  5
3F
  8
1
 10
25.0
 20
0.0
 30
0.0
 11
-50.0
 21
0.0
 31
0.0
  0
LINE
  5
40
  8
1
 10
0.0
 20
25.0
 30
0.0
 11
0.0
 21
-25.0
 31
0.0
  0
LINE
  5
41
  8
0
 10
-5.7735029999999989
 20
0.0
 30
0.0
 11
-2.886750999999999
 21
5.0
 31
0.0
  0
LINE
  5
42
  8
0
 10
-2.886750999999999
 20
-5.0
 30
0.0
 11
-5.7735029999999989
 21
0.0
 31
0.0
  0
LINE
  5
43
  8
0
 10
2.886750999999999
 20
-5.0
 30
0.0
 11
-2.886750999999999
 21
-5.0
 31
0.0
  0
LINE
  5
44
  8
0
 10
5.7735029999999989
 20
0.0
 30
0.0
 11
2.886750999999999
 21
-5.0
 31
0.0
  0
LINE
  5
45
  8
0
 10
2.886750999999999
 20
5.0
 30
0.0
 11
5.7735029999999989
 21
0.0
 31
0.0
  0
LINE
  5
46
  8
0
 10
-2.886750999999999
 20
5.0
 30
0.0
 11
2.886750999999999
 21
5.0
 31
0.0
  0
ARC
  5
47
  8
0
 10
0.0
 20
0.0
 30
0.0
 40
16.0
 50
128.329195
 51
231.663444
  0
ARC
  5
48
  8
0
 10
0.0
 20
0.0
 30
0.0
 40
16.0
 50
259.34072099999997
 51
100.659279
  0
ARC
  5
49
  8
0
 10
-0.039555
 20
-0.200205
 30
0.0
 40
40.0
 50
168.23960700000001
 51
168.677583
  0
ARC
  5
4A
  8
0
 10
-0.039555
 20
0.200205
 30
0.0
 40
40.0
 50
191.322417
 51
191.76039299999999
  0
LINE
  5
4B
  8
0
 10
-38.010106999999998
 20
-9.1261119999999991
 30
0.0
 11
-37.591481999999999
 21
-9.2056179999999994
 31
0.0
  0
ARC
  5
4C
  8
0
 10
0.0
 20
0.0
 30
0.0
 40
40.0
 50
180.0
 51
191.030101
  0
ARC
  5
4D
  8
0
 10
-37.730226000000002
 20
-7.6524539999999988
 30
0.0
 40
1.5
 50
191.541405
 51
259.24630000000002
  0
LINE
  5
4E
  8
0
 10
-37.591481999999999
 20
-9.2056179999999994
 30
0.0
 11
-2.959490999999999
 21
-15.723912
 31
0.0
  0
ARC
  5
4F
  8
0
 10
0.0
 20
0.0
 30
0.0
 40
40.0
 50
168.969899
 51
180.0
  0
ARC
  5
50
  8
0
 10
-37.730226000000002
 20
7.6524539999999988
 30
0.0
 40
1.5
 50
100.75369999999999
 51
168.458595
  0
LINE
  5
51
  8
0
 10
-37.591481999999999
 20
9.2056179999999994
 30
0.0
 11
-38.010106999999998
 21
9.1261119999999991
 31
0.0
  0
LINE
  5
52
  8
0
 10
-37.591481999999999
 20
9.2056179999999994
 30
0.0
 11
-2.959490999999999
 21
15.723912
 31
0.0
  0
CIRCLE
  5
53
  8
0
 10
0.0
 20
0.0
 30
0.0
 40
9.0
  0
CIRCLE
  5
54
  8
0
 10
0.0
 20
0.0
 30
0.0
 40
10.0
  0
CIRCLE
  5
55
  8
0
 10
0.0
 20
0.0
 30
0.0
 40
12.0
  0
ENDBLK
  5
56
  8
0
  0
BLOCK
  8
0
  2
B130118B
 70
     0
 10
0.0
 20
0.0
 30
0.0
  3
B130118B
  1

  0
LINE
  5
58
  8
0
 10
-21.800287999999998
 20
40.0
 30
0.0
 11
15.199999999999999
 21
40.0
 31
0.0
  0
LINE
  5
59
  8
1
 10
0.0
 20
76.0
 30
0.0
 11
0.0
 21
-36.0
 31
0.0
  0
ARC
  5
5A
  8
0
 10
12.4
 20
39.600000000000001
 30
0.0
 40
0.4
 50
90.0
 51
180.0
  0
ARC
  5
5B
  8
0
 10
-12.4
 20
39.600000000000001
 30
0.0
 40
0.4
 50
0.0
 51
90.0
  0
LINE
  5
5C
  8
0
 10
-11.5
 20
0.0
 30
0.0
 11
11.5
 21
0.0
 31
0.0
  0
LINE
  5
5D
  8
0
 10
-7.6143589999999994
 20
66.0
 30
0.0
 11
7.6143589999999994
 21
66.0
 31
0.0
  0
LINE
  5
5E
  8
0
 10
-9.0
 20
65.200000000000003
 30
0.0
 11
9.0
 21
65.200000000000003
 31
0.0
  0
LINE
  5
5F
  8
0
 10
-14.683475
 20
55.0
 30
0.0
 11
9.0
 21
55.0
 31
0.0
  0
LINE
  5
60
  8
0
 10
-12.5
 20
38.0
 30
0.0
 11
12.5
 21
38.0
 31
0.0
  0
LINE
  5
61
  8
0
 10
-12.5
 20
1.0
 30
0.0
 11
12.5
 21
1.0
 31
0.0
  0
LINE
  5
62
  8
0
 10
-6.0
 20
-24.0
 30
0.0
 11
6.0
 21
-24.0
 31
0.0
  0
LINE
  5
63
  8
0
 10
-4.0
 20
-26.0
 30
0.0
 11
4.0
 21
-26.0
 31
0.0
  0
ARC
  5
64
  8
0
 10
-14.683475
 20
45.0
 30
0.0
 40
10.0
 50
90.0
 51
105.0
  0
LINE
  5
65
  8
0
 10
-4.0
 20
-26.0
 30
0.0
 11
-6.0
 21
-24.0
 31
0.0
  0
LINE
  5
66
  8
3
 10
-5.177999999999999
 20
0.0
 30
0.0
 11
-5.177999999999999
 21
-24.821999999999999
 31
0.0
  0
LINE
  5
67
  8
0
 10
-6.0
 20
-24.0
 30
0.0
 11
-6.0
 21
0.0
 31
0.0
  0
LINE
  5
68
  8
3
 10
5.177999999999999
 20
0.0
 30
0.0
 11
5.177999999999999
 21
-24.821999999999999
 31
0.0
  0
LINE
  5
69
  8
0
 10
4.0
 20
-26.0
 30
0.0
 11
6.0
 21
-24.0
 31
0.0
  0
LINE
  5
6A
  8
0
 10
6.0
 20
-24.0
 30
0.0
 11
6.0
 21
0.0
 31
0.0
  0
LINE
  5
6B
  8
0
 10
11.5
 20
0.0
 30
0.0
 11
12.5
 21
1.0
 31
0.0
  0
LINE
  5
6C
  8
0
 10
-12.5
 20
1.0
 30
0.0
 11
-11.5
 21
0.0
 31
0.0
  0
ARC
  5
6D
  8
0
 10
-38.5
 20
40.200528000000013
 30
0.0
 40
1.5
 50
180.0
 51
270.0
  0
ARC
  5
6E
  8
0
 10
-38.5
 20
47.41822899999999
 30
0.0
 40
1.5
 50
105.0
 51
180.0
  0
LINE
  5
6F
  8
0
 10
-40.0
 20
47.41822899999999
 30
0.0
 11
-40.0
 21
40.200528000000013
 31
0.0
  0
ARC
  5
70
  8
0
 10
15.199999999999999
 20
40.799999999999997
 30
0.0
 40
0.8
 50
270.0
 51
0.0
  0
ARC
  5
71
  8
0
 10
15.199999999999999
 20
54.200000000000003
 30
0.0
 40
0.8
 50
0.0
 51
90.0
  0
LINE
  5
72
  8
0
 10
-17.271664999999999
 20
54.659257999999987
 30
0.0
 11
-38.888229000000003
 21
48.867117999999998
 31
0.0
  0
LINE
  5
73
  8
0
 10
-21.800287999999998
 20
40.0
 30
0.0
 11
-23.09976
 21
38.700528000000013
 31
0.0
  0
LINE
  5
74
  8
0
 10
-23.09976
 20
38.700528000000013
 30
0.0
 11
-38.5
 21
38.700528000000013
 31
0.0
  0
LINE
  5
75
  8
0
 10
-12.0
 20
38.0
 30
0.0
 11
-12.0
 21
39.600000000000001
 31
0.0
  0
LINE
  5
76
  8
0
 10
-12.5
 20
1.0
 30
0.0
 11
-12.5
 21
38.0
 31
0.0
  0
LINE
  5
77
  8
0
 10
12.5
 20
38.0
 30
0.0
 11
12.5
 21
1.0
 31
0.0
  0
LINE
  5
78
  8
0
 10
12.0
 20
39.600000000000001
 30
0.0
 11
12.0
 21
38.0
 31
0.0
  0
LINE
  5
79
  8
0
 10
16.0
 20
54.200000000000003
 30
0.0
 11
16.0
 21
40.799999999999997
 31
0.0
  0
LINE
  5
7A
  8
0
 10
9.0
 20
55.0
 30
0.0
 11
15.199999999999999
 21
55.0
 31
0.0
  0
LINE
  5
7B
  8
0
 10
-9.0
 20
55.0
 30
0.0
 11
-9.0
 21
65.200000000000003
 31
0.0
  0
LINE
  5
7C
  8
0
 10
-9.0
 20
65.200000000000003
 30
0.0
 11
-7.6143589999999994
 21
66.0
 31
0.0
  0
LINE
  5
7D
  8
0
 10
9.0
 20
65.200000000000003
 30
0.0
 11
7.6143589999999994
 21
66.0
 31
0.0
  0
LINE
  5
7E
  8
0
 10
9.0
 20
55.0
 30
0.0
 11
9.0
 21
65.200000000000003
 31
0.0
  0
ENDBLK
  5
7F
  8
0
  0
BLOCK
  8
0
  2
B130118C
 70
     0
 10
0.0
 20
0.0
 30
0.0
  3
B130118C
  1

  0
ARC
  5
81
  8
0
 10
12.4
 20
39.600000000000001
 30
0.0
 40
0.4
 50
90.0
 51
180.0
  0
LINE
  5
82
  8
0
 10
12.0
 20
38.0
 30
0.0
 11
12.0
 21
39.600000000000001
 31
0.0
  0
ARC
  5
83
  8
0
 10
12.4
 20
39.600000000000001
 30
0.0
 40
0.4
 50
90.0
 51
127.672504
  0
LINE
  5
84
  8
0
 10
12.0
 20
39.065916999999999
 30
0.0
 11
12.0
 21
38.0
 31
0.0
  0
LINE
  5
85
  8
0
 10
12.155540999999999
 20
39.916606999999999
 30
0.0
 11
12.0
 21
39.065916999999999
 31
0.0
  0
LINE
  5
86
  8
0
 10
-12.155540999999999
 20
39.916606999999999
 30
0.0
 11
-12.0
 21
39.065916999999999
 31
0.0
  0
LINE
  5
87
  8
0
 10
-12.0
 20
39.065916999999999
 30
0.0
 11
-12.0
 21
38.0
 31
0.0
  0
ARC
  5
88
  8
0
 10
-12.4
 20
39.600000000000001
 30
0.0
 40
0.4
 50
52.327495999999996
 51
90.0
  0
LINE
  5
89
  8
0
 10
-15.199999999999999
 20
40.0
 30
0.0
 11
15.199999999999999
 21
40.0
 31
0.0
  0
ARC
  5
8A
  8
0
 10
-15.199999999999999
 20
40.799999999999997
 30
0.0
 40
0.8
 50
180.0
 51
270.0
  0
ARC
  5
8B
  8
0
 10
-15.199999999999999
 20
54.200000000000003
 30
0.0
 40
0.8
 50
90.0
 51
180.0
  0
LINE
  5
8C
  8
0
 10
-16.0
 20
54.200000000000003
 30
0.0
 11
-16.0
 21
40.799999999999997
 31
0.0
  0
LINE
  5
8D
  8
0
 10
9.0
 20
55.0
 30
0.0
 11
9.0
 21
65.200000000000003
 31
0.0
  0
LINE
  5
8E
  8
0
 10
9.0
 20
65.200000000000003
 30
0.0
 11
7.6143589999999994
 21
66.0
 31
0.0
  0
LINE
  5
8F
  8
0
 10
-9.0
 20
65.200000000000003
 30
0.0
 11
-7.6143589999999994
 21
66.0
 31
0.0
  0
LINE
  5
90
  8
0
 10
-9.0
 20
55.0
 30
0.0
 11
-9.0
 21
65.200000000000003
 31
0.0
  0
LINE
  5
91
  8
0
 10
9.0
 20
55.0
 30
0.0
 11
15.199999999999999
 21
55.0
 31
0.0
  0
LINE
  5
92
  8
0
 10
16.0
 20
54.200000000000003
 30
0.0
 11
16.0
 21
40.799999999999997
 31
0.0
  0
LINE
  5
93
  8
0
 10
12.5
 20
38.0
 30
0.0
 11
12.5
 21
1.0
 31
0.0
  0
LINE
  5
94
  8
0
 10
-12.5
 20
1.0
 30
0.0
 11
-12.5
 21
38.0
 31
0.0
  0
LINE
  5
95
  8
0
 10
-12.0
 20
38.0
 30
0.0
 11
-12.0
 21
39.600000000000001
 31
0.0
  0
ARC
  5
96
  8
0
 10
15.199999999999999
 20
54.200000000000003
 30
0.0
 40
0.8
 50
0.0
 51
90.0
  0
ARC
  5
97
  8
0
 10
15.199999999999999
 20
40.799999999999997
 30
0.0
 40
0.8
 50
270.0
 51
0.0
  0
LINE
  5
98
  8
0
 10
-12.5
 20
1.0
 30
0.0
 11
-11.5
 21
0.0
 31
0.0
  0
LINE
  5
99
  8
0
 10
11.5
 20
0.0
 30
0.0
 11
12.5
 21
1.0
 31
0.0
  0
LINE
  5
9A
  8
0
 10
6.0
 20
-24.0
 30
0.0
 11
6.0
 21
0.0
 31
0.0
  0
LINE
  5
9B
  8
0
 10
4.0
 20
-26.0
 30
0.0
 11
6.0
 21
-24.0
 31
0.0
  0
LINE
  5
9C
  8
3
 10
5.177999999999999
 20
0.0
 30
0.0
 11
5.177999999999999
 21
-24.821999999999999
 31
0.0
  0
LINE
  5
9D
  8
0
 10
-6.0
 20
-24.0
 30
0.0
 11
-6.0
 21
0.0
 31
0.0
  0
LINE
  5
9E
  8
3
 10
-5.177999999999999
 20
0.0
 30
0.0
 11
-5.177999999999999
 21
-24.821999999999999
 31
0.0
  0
LINE
  5
9F
  8
0
 10
-4.0
 20
-26.0
 30
0.0
 11
-6.0
 21
-24.0
 31
0.0
  0
LINE
  5
A0
  8
0
 10
-4.0
 20
-26.0
 30
0.0
 11
4.0
 21
-26.0
 31
0.0
  0
LINE
  5
A1
  8
0
 10
-6.0
 20
-24.0
 30
0.0
 11
6.0
 21
-24.0
 31
0.0
  0
LINE
  5
A2
  8
0
 10
-12.5
 20
1.0
 30
0.0
 11
12.5
 21
1.0
 31
0.0
  0
LINE
  5
A3
  8
0
 10
-12.5
 20
38.0
 30
0.0
 11
12.5
 21
38.0
 31
0.0
  0
LINE
  5
A4
  8
0
 10
-14.683475
 20
55.0
 30
0.0
 11
9.0
 21
55.0
 31
0.0
  0
LINE
  5
A5
  8
0
 10
-9.0
 20
65.200000000000003
 30
0.0
 11
9.0
 21
65.200000000000003
 31
0.0
  0
LINE
  5
A6
  8
0
 10
-7.6143589999999994
 20
66.0
 30
0.0
 11
7.6143589999999994
 21
66.0
 31
0.0
  0
LINE
  5
A7
  8
0
 10
-11.5
 20
0.0
 30
0.0
 11
11.5
 21
0.0
 31
0.0
  0
ARC
  5
A8
  8
0
 10
-12.4
 20
39.600000000000001
 30
0.0
 40
0.4
 50
0.0
 51
90.0
  0
LINE
  5
A9
  8
1
 10
0.0
 20
76.0
 30
0.0
 11
0.0
 21
-36.0
 31
0.0
  0
ENDBLK
  5
AA
  8
0
  0
BLOCK
  8
0
  2
B130118D
 70
     0
 10
0.0
 20
0.0
 30
0.0
  3
B130118D
  1

  0
LINE
  5
AC
  8
1
 10
0.0
 20
76.0
 30
0.0
 11
0.0
 21
-36.0
 31
0.0
  0
LINE
  5
AD
  8
0
 10
-8.9428660000000004
 20
48.56921899999999
 30
0.0
 11
-15.199999999999999
 21
54.200000000000003
 31
0.0
  0
LINE
  5
AE
  8
0
 10
8.9428660000000004
 20
48.56921899999999
 30
0.0
 11
15.199999999999999
 21
54.200000000000003
 31
0.0
  0
ARC
  5
AF
  8
0
 10
8.1428659999999997
 20
47.769219
 30
0.0
 40
0.8
 50
0.0
 51
90.0
  0
ARC
  5
B0
  8
0
 10
-8.1428659999999997
 20
47.769219
 30
0.0
 40
0.8
 50
90.0
 51
180.0
  0
ARC
  5
B1
  8
0
 10
-8.1428659999999997
 20
39.500528000000003
 30
0.0
 40
0.8
 50
180.0
 51
270.0
  0
ARC
  5
B2
  8
0
 10
8.1428659999999997
 20
39.500528000000003
 30
0.0
 40
0.8
 50
270.0
 51
0.0
  0
LINE
  5
B3
  8
0
 10
-8.1428659999999997
 20
48.56921899999999
 30
0.0
 11
8.1428659999999997
 21
48.56921899999999
 31
0.0
  0
LINE
  5
B4
  8
0
 10
-8.9428660000000004
 20
39.500528000000003
 30
0.0
 11
-8.9428660000000004
 21
47.769219
 31
0.0
  0
LINE
  5
B5
  8
0
 10
8.9428660000000004
 20
47.769219
 30
0.0
 11
8.9428660000000004
 21
39.500528000000003
 31
0.0
  0
LINE
  5
B6
  8
0
 10
-12.170788999999999
 20
40.0
 30
0.0
 11
-15.199999999999999
 21
40.0
 31
0.0
  0
LINE
  5
B7
  8
0
 10
11.933192
 20
38.700528000000013
 30
0.0
 11
-11.933192
 21
38.700528000000013
 31
0.0
  0
ARC
  5
B8
  8
0
 10
12.4
 20
39.600000000000001
 30
0.0
 40
0.4
 50
90.0
 51
127.672504
  0
LINE
  5
B9
  8
0
 10
12.0
 20
39.065916999999999
 30
0.0
 11
12.0
 21
38.0
 31
0.0
  0
LINE
  5
BA
  8
0
 10
12.170788999999999
 20
40.0
 30
0.0
 11
11.933192
 21
38.700528000000013
 31
0.0
  0
LINE
  5
BB
  8
0
 10
-12.170788999999999
 20
40.0
 30
0.0
 11
-11.933192
 21
38.700528000000013
 31
0.0
  0
LINE
  5
BC
  8
0
 10
15.199999999999999
 20
40.0
 30
0.0
 11
12.170788999999999
 21
40.0
 31
0.0
  0
ARC
  5
BD
  8
0
 10
15.199999999999999
 20
40.799999999999997
 30
0.0
 40
0.8
 50
270.0
 51
0.0
  0
ARC
  5
BE
  8
0
 10
15.199999999999999
 20
54.200000000000003
 30
0.0
 40
0.8
 50
0.0
 51
90.0
  0
LINE
  5
BF
  8
0
 10
16.0
 20
54.200000000000003
 30
0.0
 11
16.0
 21
40.799999999999997
 31
0.0
  0
LINE
  5
C0
  8
0
 10
-9.0
 20
55.0
 30
0.0
 11
-9.0
 21
65.200000000000003
 31
0.0
  0
LINE
  5
C1
  8
0
 10
-9.0
 20
65.200000000000003
 30
0.0
 11
-7.6143589999999994
 21
66.0
 31
0.0
  0
LINE
  5
C2
  8
0
 10
9.0
 20
65.200000000000003
 30
0.0
 11
7.6143589999999994
 21
66.0
 31
0.0
  0
LINE
  5
C3
  8
0
 10
9.0
 20
55.0
 30
0.0
 11
9.0
 21
65.200000000000003
 31
0.0
  0
LINE
  5
C4
  8
0
 10
-9.0
 20
55.0
 30
0.0
 11
-15.199999999999999
 21
55.0
 31
0.0
  0
LINE
  5
C5
  8
0
 10
-16.0
 20
54.200000000000003
 30
0.0
 11
-16.0
 21
40.799999999999997
 31
0.0
  0
LINE
  5
C6
  8
0
 10
-12.0
 20
39.065916999999999
 30
0.0
 11
-12.0
 21
38.0
 31
0.0
  0
LINE
  5
C7
  8
0
 10
-12.5
 20
38.0
 30
0.0
 11
-12.5
 21
1.0
 31
0.0
  0
LINE
  5
C8
  8
0
 10
12.5
 20
1.0
 30
0.0
 11
12.5
 21
38.0
 31
0.0
  0
ARC
  5
C9
  8
0
 10
-15.199999999999999
 20
54.200000000000003
 30
0.0
 40
0.8
 50
90.0
 51
180.0
  0
ARC
  5
CA
  8
0
 10
-15.199999999999999
 20
40.799999999999997
 30
0.0
 40
0.8
 50
180.0
 51
270.0
  0
LINE
  5
CB
  8
0
 10
12.5
 20
1.0
 30
0.0
 11
11.5
 21
0.0
 31
0.0
  0
LINE
  5
CC
  8
0
 10
-11.5
 20
0.0
 30
0.0
 11
-12.5
 21
1.0
 31
0.0
  0
LINE
  5
CD
  8
0
 10
-6.0
 20
-24.0
 30
0.0
 11
-6.0
 21
0.0
 31
0.0
  0
LINE
  5
CE
  8
0
 10
-4.0
 20
-26.0
 30
0.0
 11
-6.0
 21
-24.0
 31
0.0
  0
LINE
  5
CF
  8
3
 10
-5.177999999999999
 20
0.0
 30
0.0
 11
-5.177999999999999
 21
-24.821999999999999
 31
0.0
  0
LINE
  5
D0
  8
0
 10
6.0
 20
-24.0
 30
0.0
 11
6.0
 21
0.0
 31
0.0
  0
LINE
  5
D1
  8
3
 10
5.177999999999999
 20
0.0
 30
0.0
 11
5.177999999999999
 21
-24.821999999999999
 31
0.0
  0
LINE
  5
D2
  8
0
 10
4.0
 20
-26.0
 30
0.0
 11
6.0
 21
-24.0
 31
0.0
  0
LINE
  5
D3
  8
0
 10
4.0
 20
-26.0
 30
0.0
 11
-4.0
 21
-26.0
 31
0.0
  0
LINE
  5
D4
  8
0
 10
6.0
 20
-24.0
 30
0.0
 11
-6.0
 21
-24.0
 31
0.0
  0
LINE
  5
D5
  8
0
 10
12.5
 20
1.0
 30
0.0
 11
-12.5
 21
1.0
 31
0.0
  0
LINE
  5
D6
  8
0
 10
12.5
 20
38.0
 30
0.0
 11
-12.5
 21
38.0
 31
0.0
  0
LINE
  5
D7
  8
0
 10
15.199999999999999
 20
55.0
 30
0.0
 11
-9.0
 21
55.0
 31
0.0
  0
LINE
  5
D8
  8
0
 10
9.0
 20
65.200000000000003
 30
0.0
 11
-9.0
 21
65.200000000000003
 31
0.0
  0
LINE
  5
D9
  8
0
 10
7.6143589999999994
 20
66.0
 30
0.0
 11
-7.6143589999999994
 21
66.0
 31
0.0
  0
LINE
  5
DA
  8
0
 10
11.5
 20
0.0
 30
0.0
 11
-11.5
 21
0.0
 31
0.0
  0
ARC
  5
DB
  8
0
 10
-12.4
 20
39.600000000000001
 30
0.0
 40
0.4
 50
52.327495999999996
 51
90.0
  0
ENDBLK
  5
DC
  8
0
  0
BLOCK
  8
0
  2
B530118A
 70
     0
 10
0.0
 20
0.0
 30
0.0
  3
B530118A
  1

  0
LINE
  5
DE
  8
1
 10
0.0
 20
-35.0
 30
0.0
 11
0.0
 21
35.0
 31
0.0
  0
LINE
  5
DF
  8
1
 10
-35.0
 20
0.0
 30
0.0
 11
35.0
 21
0.0
 31
0.0
  0
CIRCLE
  5
E0
  8
0
 10
0.0
 20
0.0
 30
0.0
 40
5.1784999999999988
  0
CIRCLE
  5
E1
  8
3
 10
0.0
 20
0.0
 30
0.0
 40
6.0
  0
CIRCLE
  5
E2
  8
0
 10
0.0
 20
0.0
 30
0.0
 40
12.5
  0
CIRCLE
  5
E3
  8
0
 10
0.0
 20
0.0
 30
0.0
 40
20.0
  0
ENDBLK
  5
E4
  8
0
  0
BLOCK
  8
0
  2
B530128B
 70
     0
 10
0.0
 20
0.0
 30
0.0
  3
B530128B
  1

  0
LINE
  5
E6
  8
1
 10
0.0
 20
110.0
 30
0.0
 11
0.0
 21
-40.0
 31
0.0
  0
LINE
  5
E7
  8
0
 10
-19.0
 20
100.0
 30
0.0
 11
19.0
 21
100.0
 31
0.0
  0
LINE
  5
E8
  8
0
 10
20.0
 20
99.0
 30
0.0
 11
20.0
 21
31.154700999999999
 31
0.0
  0
LINE
  5
E9
  8
0
 10
18.0
 20
30.0
 30
0.0
 11
18.0
 21
10.0
 31
0.0
  0
LINE
  5
EA
  8
0
 10
19.0
 20
0.0
 30
0.0
 11
-19.0
 21
0.0
 31
0.0
  0
LINE
  5
EB
  8
0
 10
4.7000000000000002
 20
-0.4
 30
0.0
 11
4.7000000000000002
 21
-3.1000000000000001
 31
0.0
  0
LINE
  5
EC
  8
0
 10
6.0
 20
-3.5
 30
0.0
 11
6.0
 21
-28.0
 31
0.0
  0
LINE
  5
ED
  8
0
 10
19.0
 20
100.0
 30
0.0
 11
20.0
 21
99.0
 31
0.0
  0
LINE
  5
EE
  8
0
 10
19.0
 20
0.0
 30
0.0
 11
20.0
 21
1.0
 31
0.0
  0
LINE
  5
EF
  8
0
 10
6.0
 20
-28.0
 30
0.0
 11
4.0
 21
-30.0
 31
0.0
  0
ARC
  5
F0
  8
0
 10
5.0999999999999988
 20
-3.1000000000000001
 30
0.0
 40
0.4
 50
180.0
 51
270.0
  0
LINE
  5
F1
  8
0
 10
18.0
 20
10.0
 30
0.0
 11
20.0
 21
8.8452990000000007
 31
0.0
  0
LINE
  5
F2
  8
0
 10
20.0
 20
8.8452990000000007
 30
0.0
 11
20.0
 21
1.0
 31
0.0
  0
LINE
  5
F3
  8
0
 10
18.0
 20
30.0
 30
0.0
 11
20.0
 21
31.154700999999999
 31
0.0
  0
LINE
  5
F4
  8
0
 10
-18.0
 20
30.0
 30
0.0
 11
-20.0
 21
31.154700999999999
 31
0.0
  0
LINE
  5
F5
  8
0
 10
-20.0
 20
8.8452990000000007
 30
0.0
 11
-20.0
 21
1.0
 31
0.0
  0
LINE
  5
F6
  8
0
 10
-18.0
 20
10.0
 30
0.0
 11
-20.0
 21
8.8452990000000007
 31
0.0
  0
LINE
  5
F7
  8
0
 10
-19.0
 20
0.0
 30
0.0
 11
-20.0
 21
1.0
 31
0.0
  0
LINE
  5
F8
  8
0
 10
-19.0
 20
100.0
 30
0.0
 11
-20.0
 21
99.0
 31
0.0
  0
LINE
  5
F9
  8
0
 10
-18.0
 20
30.0
 30
0.0
 11
-18.0
 21
10.0
 31
0.0
  0
LINE
  5
FA
  8
0
 10
-20.0
 20
99.0
 30
0.0
 11
-20.0
 21
31.154700999999999
 31
0.0
  0
LINE
  5
FB
  8
0
 10
-1.4501660000000001
 20
30.0
 30
0.0
 11
-1.4501660000000001
 21
10.0
 31
0.0
  0
LINE
  5
FC
  8
0
 10
-1.4501660000000001
 20
10.0
 30
0.0
 11
-16.549834000000001
 21
10.0
 31
0.0
  0
LINE
  5
FD
  8
0
 10
-16.549834000000001
 20
10.0
 30
0.0
 11
-16.549834000000001
 21
30.0
 31
0.0
  0
LINE
  5
FE
  8
0
 10
-16.549834000000001
 20
30.0
 30
0.0
 11
-1.4501660000000001
 21
30.0
 31
0.0
  0
ARC
  5
FF
  8
0
 10
-9.0
 20
5.895626
 30
0.0
 40
25.259073999999998
 50
72.608698000000004
 51
107.391302
  0
ARC
  5
100
  8
0
 10
-9.0
 20
34.104374
 30
0.0
 40
25.259073999999998
 50
252.608698
 51
287.391302
  0
ARC
  5
101
  8
0
 10
9.0
 20
34.104374
 30
0.0
 40
25.259073999999998
 50
252.608698
 51
287.391302
  0
ARC
  5
102
  8
0
 10
9.0
 20
5.895626
 30
0.0
 40
25.259073999999998
 50
72.608698000000004
 51
107.391302
  0
LINE
  5
103
  8
0
 10
16.549834000000001
 20
30.0
 30
0.0
 11
1.4501660000000001
 21
30.0
 31
0.0
  0
LINE
  5
104
  8
0
 10
16.549834000000001
 20
10.0
 30
0.0
 11
16.549834000000001
 21
30.0
 31
0.0
  0
LINE
  5
105
  8
0
 10
1.4501660000000001
 20
10.0
 30
0.0
 11
16.549834000000001
 21
10.0
 31
0.0
  0
LINE
  5
106
  8
0
 10
1.4501660000000001
 20
30.0
 30
0.0
 11
1.4501660000000001
 21
10.0
 31
0.0
  0
LINE
  5
107
  8
0
 10
6.0
 20
-3.5
 30
0.0
 11
-6.0
 21
-3.5
 31
0.0
  0
LINE
  5
108
  8
0
 10
6.0
 20
-28.0
 30
0.0
 11
-6.0
 21
-28.0
 31
0.0
  0
LINE
  5
109
  8
0
 10
4.0
 20
-30.0
 30
0.0
 11
-4.0
 21
-30.0
 31
0.0
  0
LINE
  5
10A
  8
0
 10
-6.0
 20
-3.5
 30
0.0
 11
-5.6875
 21
-3.5
 31
0.0
  0
ARC
  5
10B
  8
0
 10
-5.0999999999999988
 20
-3.1000000000000001
 30
0.0
 40
0.4
 50
270.0
 51
0.0
  0
ARC
  5
10C
  8
0
 10
-5.0999999999999988
 20
-0.4
 30
0.0
 40
0.4
 50
0.0
 51
90.0
  0
LINE
  5
10D
  8
0
 10
-6.0
 20
-28.0
 30
0.0
 11
-4.0
 21
-30.0
 31
0.0
  0
LINE
  5
10E
  8
0
 10
-6.0
 20
-3.5
 30
0.0
 11
-6.0
 21
-28.0
 31
0.0
  0
LINE
  5
10F
  8
0
 10
-4.7000000000000002
 20
-0.4
 30
0.0
 11
-4.7000000000000002
 21
-3.1000000000000001
 31
0.0
  0
LINE
  5
110
  8
3
 10
5.052999999999999
 20
-3.497228999999999
 30
0.0
 11
5.052999999999999
 21
-28.946999999999999
 31
0.0
  0
LINE
  5
111
  8
3
 10
-5.052999999999999
 20
-3.497228999999999
 30
0.0
 11
-5.052999999999999
 21
-28.946999999999999
 31
0.0
  0
ARC
  5
112
  8
0
 10
5.0999999999999988
 20
-0.4
 30
0.0
 40
0.4
 50
90.0
 51
180.0
  0
ENDBLK
  5
113
  8
0
  0
BLOCK
  8
0
  2
B530128C
 70
     0
 10
0.0
 20
0.0
 30
0.0
  3
B530128C
  1

  0
ARC
  5
115
  8
0
 10
-5.0999999999999988
 20
-0.4
 30
0.0
 40
0.4
 50
0.0
 51
90.0
  0
LINE
  5
116
  8
0
 10
-19.0
 20
0.0
 30
0.0
 11
-20.0
 21
1.0
 31
0.0
  0
ARC
  5
117
  8
0
 10
5.0999999999999988
 20
-0.4
 30
0.0
 40
0.4
 50
90.0
 51
180.0
  0
LINE
  5
118
  8
0
 10
19.0
 20
0.0
 30
0.0
 11
20.0
 21
1.0
 31
0.0
  0
LINE
  5
119
  8
0
 10
19.0
 20
0.0
 30
0.0
 11
-19.0
 21
0.0
 31
0.0
  0
LINE
  5
11A
  8
0
 10
19.947355999999999
 20
30.0
 30
0.0
 11
19.947355999999999
 21
10.0
 31
0.0
  0
LINE
  5
11B
  8
0
 10
11.229558000000001
 20
30.0
 30
0.0
 11
11.229558000000001
 21
10.0
 31
0.0
  0
LINE
  5
11C
  8
0
 10
8.7177980000000002
 20
30.0
 30
0.0
 11
8.7177980000000002
 21
10.0
 31
0.0
  0
LINE
  5
11D
  8
0
 10
-8.7177980000000002
 20
30.0
 30
0.0
 11
-8.7177980000000002
 21
10.0
 31
0.0
  0
LINE
  5
11E
  8
0
 10
-8.7177980000000002
 20
30.0
 30
0.0
 11
8.7177980000000002
 21
30.0
 31
0.0
  0
LINE
  5
11F
  8
0
 10
-8.7177980000000002
 20
10.0
 30
0.0
 11
8.7177980000000002
 21
10.0
 31
0.0
  0
ARC
  5
120
  8
0
 10
0.0
 20
-2.3316150000000002
 30
0.0
 40
33.486316000000002
 50
74.909815000000009
 51
105.09018500000001
  0
ARC
  5
121
  8
0
 10
0.0
 20
42.331614999999999
 30
0.0
 40
33.486316000000002
 50
254.90981500000001
 51
285.09018500000002
  0
ARC
  5
122
  8
0
 10
15.588457
 20
17.649891
 30
0.0
 40
8.8045919999999995
 50
240.32556
 51
299.67444
  0
ARC
  5
123
  8
0
 10
15.588457
 20
22.350109
 30
0.0
 40
8.8045919999999995
 50
60.325560000000003
 51
119.67444
  0
LINE
  5
124
  8
0
 10
11.229558000000001
 20
10.0
 30
0.0
 11
19.947355999999999
 21
10.0
 31
0.0
  0
LINE
  5
125
  8
0
 10
11.229558000000001
 20
30.0
 30
0.0
 11
19.947355999999999
 21
30.0
 31
0.0
  0
LINE
  5
126
  8
0
 10
-11.229558000000001
 20
30.0
 30
0.0
 11
-19.947355999999999
 21
30.0
 31
0.0
  0
LINE
  5
127
  8
0
 10
-11.229558000000001
 20
10.0
 30
0.0
 11
-19.947355999999999
 21
10.0
 31
0.0
  0
ARC
  5
128
  8
0
 10
-15.588457
 20
22.350109
 30
0.0
 40
8.8045919999999995
 50
60.325560000000003
 51
119.67444
  0
ARC
  5
129
  8
0
 10
-15.588457
 20
17.649891
 30
0.0
 40
8.8045919999999995
 50
240.32556
 51
299.67444
  0
LINE
  5
12A
  8
0
 10
-11.229558000000001
 20
30.0
 30
0.0
 11
-11.229558000000001
 21
10.0
 31
0.0
  0
LINE
  5
12B
  8
0
 10
-19.947355999999999
 20
30.0
 30
0.0
 11
-19.947355999999999
 21
10.0
 31
0.0
  0
LINE
  5
12C
  8
3
 10
-5.052999999999999
 20
-3.497228999999999
 30
0.0
 11
-5.052999999999999
 21
-28.946999999999999
 31
0.0
  0
LINE
  5
12D
  8
3
 10
5.052999999999999
 20
-3.497228999999999
 30
0.0
 11
5.052999999999999
 21
-28.946999999999999
 31
0.0
  0
LINE
  5
12E
  8
0
 10
-4.7000000000000002
 20
-0.4
 30
0.0
 11
-4.7000000000000002
 21
-3.1000000000000001
 31
0.0
  0
LINE
  5
12F
  8
0
 10
-6.0
 20
-3.5
 30
0.0
 11
-6.0
 21
-28.0
 31
0.0
  0
LINE
  5
130
  8
0
 10
-6.0
 20
-28.0
 30
0.0
 11
-4.0
 21
-30.0
 31
0.0
  0
ARC
  5
131
  8
0
 10
-5.0999999999999988
 20
-3.1000000000000001
 30
0.0
 40
0.4
 50
270.0
 51
0.0
  0
LINE
  5
132
  8
0
 10
-6.0
 20
-3.5
 30
0.0
 11
-5.6875
 21
-3.5
 31
0.0
  0
LINE
  5
133
  8
0
 10
4.0
 20
-30.0
 30
0.0
 11
-4.0
 21
-30.0
 31
0.0
  0
LINE
  5
134
  8
0
 10
6.0
 20
-28.0
 30
0.0
 11
-6.0
 21
-28.0
 31
0.0
  0
LINE
  5
135
  8
0
 10
6.0
 20
-3.5
 30
0.0
 11
-6.0
 21
-3.5
 31
0.0
  0
LINE
  5
136
  8
0
 10
-20.0
 20
99.0
 30
0.0
 11
-20.0
 21
1.0
 31
0.0
  0
LINE
  5
137
  8
0
 10
-19.0
 20
100.0
 30
0.0
 11
-20.0
 21
99.0
 31
0.0
  0
ARC
  5
138
  8
0
 10
5.0999999999999988
 20
-3.1000000000000001
 30
0.0
 40
0.4
 50
180.0
 51
270.0
  0
LINE
  5
139
  8
0
 10
6.0
 20
-28.0
 30
0.0
 11
4.0
 21
-30.0
 31
0.0
  0
LINE
  5
13A
  8
0
 10
19.0
 20
100.0
 30
0.0
 11
20.0
 21
99.0
 31
0.0
  0
LINE
  5
13B
  8
0
 10
6.0
 20
-3.5
 30
0.0
 11
6.0
 21
-28.0
 31
0.0
  0
LINE
  5
13C
  8
0
 10
4.7000000000000002
 20
-0.4
 30
0.0
 11
4.7000000000000002
 21
-3.1000000000000001
 31
0.0
  0
LINE
  5
13D
  8
0
 10
20.0
 20
99.0
 30
0.0
 11
20.0
 21
1.0
 31
0.0
  0
LINE
  5
13E
  8
0
 10
-19.0
 20
100.0
 30
0.0
 11
19.0
 21
100.0
 31
0.0
  0
LINE
  5
13F
  8
1
 10
0.0
 20
110.0
 30
0.0
 11
0.0
 21
-40.0
 31
0.0
  0
ENDBLK
  5
140
  8
0
  0
ENDSEC
  0
SECTION
  2
ENTITIES
  0
INSERT
  5
149
  8
0
  2
STDGX5
 10
0.0
 20
0.0
 30
0.0
  0
INSERT
  5
150
  8
0
  2
STDGX5
 10
0.0
 20
0.0
 30
0.0
  0
INSERT
  5
151
  8
0
  2
STDGX5
 10
0.0
 20
0.0
 30
0.0
  0
INSERT
  5
152
  8
0
  2
STDGX5
 10
0.0
 20
0.0
 30
0.0
  0
INSERT
  5
153
  8
0
  2
B530118A
 10
385.0
 20
410.0
 30
0.0
  0
INSERT
  5
154
  8
0
  2
B130118A
 10
385.0
 20
410.0
 30
0.0
  0
INSERT
  5
155
  8
0
  2
B130118B
 10
385.0
 20
251.29947200000001
 30
0.0
  0
INSERT
  5
156
  8
0
  2
B130118C
 10
520.0
 20
251.29947200000001
 30
0.0
  0
INSERT
  5
157
  8
0
  2
B130118D
 10
245.0
 20
251.29947200000001
 30
0.0
  0
INSERT
  5
158
  8
0
  2
B530128B
 10
520.0
 20
190.0
 30
0.0
  0
INSERT
  5
159
  8
0
  2
B530128B
 10
245.0
 20
190.0
 30
0.0
  0
INSERT
  5
15A
  8
0
  2
B530128C
 10
385.0
 20
190.0
 30
0.0
  0
TEXT
  5
280
  8
0
 62
     3
 10
0.0
 20
0.0
 30
0.0
 40
10.0
  1
BJ130-12040A2
  7
STANDARD1
  0
ENDSEC
  0
EOF
