  0
SECTION
  2
HEADER
  9
$ACADVER
  1
AC1009
  9
$INSBASE
 10
0.0
 20
0.0
 30
0.0
  9
$EXTMIN
 10
0.0
 20
-2.960436562073669
 30
0.0
  9
$EXTMAX
 10
296.0
 20
231.0
 30
0.0
  9
$LIMMIN
 10
0.0
 20
0.0
  9
$LIMMAX
 10
375.0
 20
270.0
  9
$ORTHOMODE
 70
     1
  9
$REGENMODE
 70
     1
  9
$FILLMODE
 70
     1
  9
$QTEXTMODE
 70
     0
  9
$MIRRTEXT
 70
     0
  9
$DRAGMODE
 70
     2
  9
$LTSCALE
 40
10.0
  9
$OSMODE
 70
  3071
  9
$ATTMODE
 70
     1
  9
$TEXTSIZE
 40
0.2
  9
$TRACEWID
 40
0.05
  9
$TEXTSTYLE
  7
STANDARD
  9
$CLAYER
  8
0
  9
$CELTYPE
  6
BYLAYER
  9
$CECOLOR
 62
   256
  9
$DIMSCALE
 40
1.0
  9
$DIMASZ
 40
3.0
  9
$DIMEXO
 40
2.0
  9
$DIMDLI
 40
0.38
  9
$DIMRND
 40
0.0
  9
$DIMDLE
 40
0.0
  9
$DIMEXE
 40
2.0
  9
$DIMTP
 40
0.0
  9
$DIMTM
 40
0.0
  9
$DIMTXT
 40
3.2000000000000002
  9
$DIMCEN
 40
0.0
  9
$DIMTSZ
 40
0.0
  9
$DIMTOL
 70
     0
  9
$DIMLIM
 70
     0
  9
$DIMTIH
 70
     0
  9
$DIMTOH
 70
     0
  9
$DIMSE1
 70
     0
  9
$DIMSE2
 70
     0
  9
$DIMTAD
 70
     1
  9
$DIMZIN
 70
     0
  9
$DIMBLK
  1

  9
$DIMASO
 70
     0
  9
$DIMSHO
 70
     0
  9
$DIMPOST
  1

  9
$DIMAPOST
  1

  9
$DIMALT
 70
     0
  9
$DIMALTD
 70
     2
  9
$DIMALTF
 40
25.399999999999999
  9
$DIMLFAC
 40
1.0
  9
$DIMTOFL
 70
     1
  9
$DIMTVP
 40
1.6000000000000001
  9
$DIMTIX
 70
     1
  9
$DIMSOXD
 70
     0
  9
$DIMSAH
 70
     0
  9
$DIMBLK1
  1

  9
$DIMBLK2
  1

  9
$DIMSTYLE
  2
STANDARD
  9
$DIMCLRD
 70
     0
  9
$DIMCLRE
 70
     0
  9
$DIMCLRT
 70
     0
  9
$DIMTFAC
 40
1.0
  9
$DIMGAP
 40
0.09
  9
$LUNITS
 70
     2
  9
$LUPREC
 70
     4
  9
$SKETCHINC
 40
0.1
  9
$FILLETRAD
 40
0.0
  9
$AUNITS
 70
     0
  9
$AUPREC
 70
     4
  9
$MENU
  1
E:\r13\win\SUPPORT\ACAD
  9
$ELEVATION
 40
0.0
  9
$PELEVATION
 40
0.0
  9
$THICKNESS
 40
0.0
  9
$LIMCHECK
 70
     0
  9
$BLIPMODE
 70
     0
  9
$CHAMFERA
 40
0.0
  9
$CHAMFERB
 40
0.0
  9
$SKPOLY
 70
     0
  9
$TDCREATE
 40
2449839.6333912038
  9
$TDUPDATE
 40
2456597.6206873148
  9
$TDINDWG
 40
0.0644191204
  9
$TDUSRTIMER
 40
2456514.142401204
  9
$USRTIMER
 70
     1
  9
$ANGBASE
 50
0.0
  9
$ANGDIR
 70
     0
  9
$PDMODE
 70
     0
  9
$PDSIZE
 40
0.0
  9
$PLINEWID
 40
0.0
  9
$COORDS
 70
     1
  9
$SPLFRAME
 70
     0
  9
$SPLINETYPE
 70
     6
  9
$SPLINESEGS
 70
     8
  9
$ATTDIA
 70
     0
  9
$ATTREQ
 70
     1
  9
$HANDLING
 70
     1
  9
$HANDSEED
  5
8A0
  9
$SURFTAB1
 70
     6
  9
$SURFTAB2
 70
     6
  9
$SURFTYPE
 70
     6
  9
$SURFU
 70
     6
  9
$SURFV
 70
     6
  9
$UCSNAME
  2

  9
$UCSORG
 10
0.0
 20
0.0
 30
0.0
  9
$UCSXDIR
 10
1.0
 20
0.0
 30
0.0
  9
$UCSYDIR
 10
0.0
 20
1.0
 30
0.0
  9
$PUCSNAME
  2

  9
$PUCSORG
 10
0.0
 20
0.0
 30
0.0
  9
$PUCSXDIR
 10
1.0
 20
0.0
 30
0.0
  9
$PUCSYDIR
 10
0.0
 20
1.0
 30
0.0
  9
$USERI1
 70
     0
  9
$USERI2
 70
     1
  9
$USERI3
 70
     0
  9
$USERI4
 70
     0
  9
$USERI5
 70
     0
  9
$USERR1
 40
0.0
  9
$USERR2
 40
0.0
  9
$USERR3
 40
0.0
  9
$USERR4
 40
0.0
  9
$USERR5
 40
0.0
  9
$WORLDVIEW
 70
     1
  9
$SHADEDGE
 70
     3
  9
$SHADEDIF
 70
    70
  9
$TILEMODE
 70
     1
  9
$MAXACTVP
 70
    16
  9
$PLIMCHECK
 70
     0
  9
$PEXTMIN
 10
1.0000000000000000E+020
 20
1.0000000000000000E+020
 30
1.0000000000000000E+020
  9
$PEXTMAX
 10
-1.0000000000000000E+020
 20
-1.0000000000000000E+020
 30
-1.0000000000000000E+020
  9
$PLIMMIN
 10
0.0
 20
0.0
  9
$PLIMMAX
 10
12.0
 20
9.0
  9
$UNITMODE
 70
     0
  9
$VISRETAIN
 70
     0
  9
$PLINEGEN
 70
     0
  9
$PSLTSCALE
 70
     0
  0
ENDSEC
  0
SECTION
  2
TABLES
  0
TABLE
  2
VPORT
 70
     1
  0
VPORT
  2
*ACTIVE
 70
     0
 10
0.0
 20
0.0
 11
1.0
 21
1.0
 12
187.49427839065231
 22
191.41710799499691
 13
0.0
 23
0.0
 14
10.0
 24
10.0
 15
10.0
 25
10.0
 16
0.0
 26
0.0
 36
1.0
 17
0.0
 27
0.0
 37
0.0
 40
392.30556364789771
 41
1.831871345029239
 42
50.0
 43
0.0
 44
0.0
 50
0.0
 51
0.0
 71
    16
 72
   500
 73
     1
 74
     0
 75
     0
 76
     0
 77
     0
 78
     2
  0
ENDTAB
  0
TABLE
  2
LTYPE
 70
     3
  0
LTYPE
  2
CONTINUOUS
 70
     0
  3
Solid Line
 72
    65
 73
     0
 40
0.0
  0
LTYPE
  2
PHANTOM2
 70
     0
  3
___ _ _ ___ _ _ ___ _ _ ___ _ _
 72
    65
 73
     6
 40
1.25
 49
0.625
 49
-0.125
 49
0.125
 49
-0.125
 49
0.125
 49
-0.125
  0
LTYPE
  2
CENTER
 70
     0
  3
____ _ ____ _ ____ _ ____ _ ____ _ ____ _ ____
 72
    65
 73
     4
 40
2.0
 49
1.25
 49
-0.25
 49
0.25
 49
-0.25
  0
ENDTAB
  0
TABLE
  2
LAYER
 70
     3
  0
LAYER
  2
0
 70
     0
 62
     7
  6
CONTINUOUS
  0
LAYER
  2
1
 70
     0
 62
     1
  6
CENTER
  0
LAYER
  2
3
 70
     0
 62
     3
  6
CONTINUOUS
  0
ENDTAB
  0
TABLE
  2
STYLE
 70
     3
  0
STYLE
  2
STANDARD
 70
     0
 40
0.0
 41
1.0
 50
0.0
 71
     0
 42
0.2
  3
TXT
  4
BIGFONT
  0
STYLE
  2
ANNOTATIVE
 70
     0
 40
0.0
 41
1.0
 50
0.0
 71
     0
 42
0.2
  3
txt
  4

  0
STYLE
  2
STANDARD1
 70
     0
 40
0.0
 41
1.0
 50
0.0
 71
     0
 42
3.0
  3
txt
  4

  0
ENDTAB
  0
TABLE
  2
VIEW
 70
     1
  0
VIEW
  2
ALL
 70
     0
 40
270.0
 10
220.99159663865549
 20
135.0
 41
0.0
 11
0.0
 21
0.0
 31
1.0
 12
0.0
 22
0.0
 32
0.0
 42
0.0
 43
0.0
 44
0.0
 50
0.0
 71
     0
  0
ENDTAB
  0
TABLE
  2
UCS
 70
     0
  0
ENDTAB
  0
TABLE
  2
APPID
 70
     5
  0
APPID
  2
ACAD
 70
     0
  0
APPID
  2
ACADANNOTATIVE
 70
     0
  0
APPID
  2
ACAD_MLEADERVER
 70
     0
  0
APPID
  2
ACAD_EXEMPT_FROM_CAD_STANDARDS
 70
     0
  0
APPID
  2
ACAD_NAV_VCDISPLAY
 70
     0
  0
ENDTAB
  0
TABLE
  2
DIMSTYLE
 70
     2
  0
DIMSTYLE
  2
STANDARD
 70
     0
  3

  4

  5

  6

  7

 40
1.0
 41
0.18
 42
0.0625
 43
0.38
 44
0.18
 45
0.0
 46
0.0
 47
0.0
 48
0.0
140
0.18
141
0.09
142
0.0
143
25.399999999999999
144
1.0
145
0.0
146
1.0
147
0.09
 71
     0
 72
     0
 73
     1
 74
     1
 75
     0
 76
     0
 77
     0
 78
     0
170
     0
171
     2
172
     0
173
     0
174
     0
175
     0
176
     0
177
     0
178
     0
  0
DIMSTYLE
  2
ANNOTATIVE
 70
     0
  3

  4

  5

  6

  7

 40
1.0
 41
0.18
 42
0.0625
 43
0.38
 44
0.18
 45
0.0
 46
0.0
 47
0.0
 48
0.0
140
0.18
141
0.09
142
0.0
143
25.399999999999999
144
1.0
145
0.0
146
1.0
147
0.09
 71
     0
 72
     0
 73
     1
 74
     1
 75
     0
 76
     0
 77
     0
 78
     0
170
     0
171
     2
172
     0
173
     0
174
     0
175
     0
176
     0
177
     0
178
     0
  0
ENDTAB
  0
ENDSEC
  0
SECTION
  2
BLOCKS
  0
BLOCK
  8
0
  2
$MODEL_SPACE
 70
     0
 10
0.0
 20
0.0
 30
0.0
  3
$MODEL_SPACE
  1

  0
ENDBLK
  5
7D8
  8
0
  0
BLOCK
 67
     1
  8
0
  2
$PAPER_SPACE
 70
     0
 10
0.0
 20
0.0
 30
0.0
  3
$PAPER_SPACE
  1

  0
ENDBLK
  5
7D4
 67
     1
  8
0
  0
ENDSEC
  0
SECTION
  2
ENTITIES
  0
LINE
  5
43
  8
1
 10
170.0
 20
231.0
 30
0.0
 11
170.0
 21
189.0
 31
0.0
  0
CIRCLE
  5
44
  8
0
 10
170.0
 20
210.0
 30
0.0
 40
10.0
  0
ARC
  5
45
  8
0
 10
170.0
 20
210.0
 30
0.0
 40
16.0
 50
90.0
 51
270.0
  0
LINE
  5
46
  8
0
 10
170.0
 20
226.0
 30
0.0
 11
180.0
 21
226.0
 31
0.0
  0
LINE
  5
47
  8
0
 10
170.0
 20
194.0
 30
0.0
 11
180.0
 21
194.0
 31
0.0
  0
ARC
  5
48
  8
0
 10
180.0
 20
210.0
 30
0.0
 40
16.0
 50
270.0
 51
90.0
  0
ARC
  5
49
  8
0
 10
227.9940679675594
 20
217.67711407848569
 30
0.0
 40
1.5
 50
7.5408322473195151
 51
81.730809647124957
  0
LINE
  5
4A
  8
0
 10
228.2098040915607
 20
219.16151898443189
 30
0.0
 11
182.30118532268119
 21
225.8336523301061
 31
0.0
  0
ARC
  5
4B
  8
0
 10
170.0
 20
210.0
 30
0.0
 40
60.0
 50
352.46985807247512
 51
7.5408322473196643
  0
ARC
  5
4C
  8
0
 10
227.9940679675594
 20
202.32288592151431
 30
0.0
 40
1.5
 50
278.26919035287511
 51
352.4591677526804
  0
LINE
  5
4D
  8
0
 10
228.2098040915607
 20
200.83848101556811
 30
0.0
 11
182.30118532268119
 21
194.1663476698937
 31
0.0
  0
LINE
  5
4E
  8
1
 10
235.0
 20
210.00000000000011
 30
0.0
 11
149.0
 21
210.00000000000011
 31
0.0
  0
LINE
  5
4F
  8
0
 10
175.773502691896
 20
210.0
 30
0.0
 11
172.88675134594811
 21
214.99999999999989
 31
0.0
  0
LINE
  5
50
  8
0
 10
172.88675134594811
 20
205.00000000000011
 30
0.0
 11
175.773502691896
 21
209.99999999999989
 31
0.0
  0
LINE
  5
51
  8
0
 10
167.1132486540518
 20
205.00000000000011
 30
0.0
 11
172.88675134594791
 21
205.00000000000011
 31
0.0
  0
LINE
  5
52
  8
0
 10
164.22649730810369
 20
210.0
 30
0.0
 11
167.1132486540518
 21
205.00000000000011
 31
0.0
  0
LINE
  5
53
  8
0
 10
167.1132486540518
 20
214.99999999999989
 30
0.0
 11
164.22649730810369
 21
210.0
 31
0.0
  0
LINE
  5
54
  8
0
 10
172.88675134594811
 20
214.99999999999989
 30
0.0
 11
167.1132486540518
 21
214.99999999999989
 31
0.0
  0
CIRCLE
  5
56
  8
0
 10
170.0
 20
210.0
 30
0.0
 40
9.0
  0
LINE
  5
5B
  8
0
 10
182.5
 20
128.0
 30
0.0
 11
157.5
 21
128.0
 31
0.0
  0
LINE
  5
5C
  8
0
 10
158.5
 20
90.0
 30
0.0
 11
157.5
 21
91.0
 31
0.0
  0
LINE
  5
5D
  8
0
 10
182.5
 20
91.0
 30
0.0
 11
181.5
 21
90.0
 31
0.0
  0
ARC
  5
5E
  8
0
 10
182.40000000000001
 20
129.60000000000011
 30
0.0
 40
0.4
 50
90.0
 51
179.99999999999989
  0
ARC
  5
5F
  8
0
 10
157.59999999999991
 20
129.60000000000011
 30
0.0
 40
0.4
 50
0.000000000000007
 51
90.0
  0
ARC
  5
60
  8
0
 10
154.7999999999999
 20
130.7999999999999
 30
0.0
 40
0.8
 50
180.0
 51
270.0
  0
ARC
  5
61
  8
0
 10
154.7999999999999
 20
146.19999999999999
 30
0.0
 40
0.8
 50
90.0
 51
179.99999999999989
  0
LINE
  5
62
  8
0
 10
182.0
 20
128.0
 30
0.0
 11
182.0
 21
129.60000000000011
 31
0.0
  0
LINE
  5
64
  8
0
 10
182.5
 20
91.0
 30
0.0
 11
182.5
 21
128.0
 31
0.0
  0
LINE
  5
65
  8
0
 10
157.5
 20
128.0
 30
0.0
 11
157.5
 21
91.0
 31
0.0
  0
LINE
  5
67
  8
0
 10
158.0
 20
129.60000000000011
 30
0.0
 11
158.0
 21
128.0
 31
0.0
  0
LINE
  5
68
  8
0
 10
153.9999999999998
 20
146.19999999999999
 30
0.0
 11
154.0
 21
130.7999999999999
 31
0.0
  0
LINE
  5
69
  8
0
 10
179.0
 20
147.0
 30
0.0
 11
179.0
 21
157.19999999999999
 31
0.0
  0
LINE
  5
6A
  8
0
 10
179.0
 20
157.19999999999999
 30
0.0
 11
177.61435935394499
 21
158.0
 31
0.0
  0
LINE
  5
6B
  8
0
 10
161.0
 20
157.19999999999999
 30
0.0
 11
162.38564064605521
 21
158.0
 31
0.0
  0
LINE
  5
6C
  8
0
 10
161.0
 20
147.0
 30
0.0
 11
161.0
 21
157.19999999999999
 31
0.0
  0
LINE
  5
6D
  8
0
 10
191.5776984709089
 20
129.0
 30
0.0
 11
228.5
 21
129.0
 31
0.0
  0
LINE
  5
73
  8
0
 10
182.5
 20
91.0
 30
0.0
 11
157.5
 21
91.0
 31
0.0
  0
LINE
  5
74
  8
0
 10
181.5
 20
90.0
 30
0.0
 11
158.5
 21
90.0
 31
0.0
  0
LINE
  5
75
  8
0
 10
190.5275720098445
 20
130.0
 30
0.0
 11
154.7999999999999
 21
130.0
 31
0.0
  0
LINE
  5
76
  8
0
 10
195.02720345150641
 20
147.0
 30
0.0
 11
154.7999999999999
 21
147.0
 31
0.0
  0
LINE
  5
77
  8
0
 10
179.0
 20
157.19999999999999
 30
0.0
 11
161.0
 21
157.19999999999999
 31
0.0
  0
LINE
  5
78
  8
0
 10
177.61435935394499
 20
158.0
 30
0.0
 11
162.38564064605521
 21
158.0
 31
0.0
  0
LINE
  5
79
  8
1
 10
170.0
 20
162.9999999999998
 30
0.0
 11
170.0
 21
60.999999999999943
 31
0.0
  0
LINE
  5
7A
  8
0
 10
230.0
 20
130.5
 30
0.0
 11
230.0
 21
139.74088871805421
 31
0.0
  0
LINE
  5
7B
  8
0
 10
228.7599385330989
 20
141.21819435975809
 30
0.0
 11
196.7601270054995
 21
146.84870427802639
 31
0.0
  0
LINE
  5
7C
  8
0
 10
190.5275720098445
 20
130.0
 30
0.0
 11
191.5776984709089
 21
129.0
 31
0.0
  0
ARC
  5
7D
  8
0
 10
228.5
 20
130.5
 30
0.0
 40
1.5
 50
270.0
 51
0.000000000000007
  0
ARC
  5
7E
  8
0
 10
228.5
 20
139.74088871805421
 30
0.0
 40
1.5
 50
0.000000000000007
 51
80.020700959341795
  0
ARC
  5
7F
  8
0
 10
195.02720345150641
 20
137.0
 30
0.0
 40
10.0
 50
80.020700959341795
 51
90.0
  0
LINE
  5
80
  8
0
 10
289.14172859694889
 20
140.30338506579821
 30
0.0
 11
295.19999999999999
 21
146.19999999999999
 31
0.0
  0
LINE
  5
81
  8
0
 10
270.85827140305088
 20
140.30338506579821
 30
0.0
 11
264.80000000000013
 21
146.19999999999999
 31
0.0
  0
ARC
  5
82
  8
0
 10
271.65827140305117
 20
139.5033850657982
 30
0.0
 40
0.8
 50
90.0
 51
180.0
  0
ARC
  5
83
  8
0
 10
288.34172859694888
 20
139.5033850657982
 30
0.0
 40
0.8
 50
0.0
 51
90.0
  0
ARC
  5
84
  8
0
 10
288.34172859694888
 20
129.1921586770892
 30
0.0
 40
0.8
 50
270.0
 51
0.0
  0
ARC
  5
85
  8
0
 10
271.65827140305117
 20
129.1921586770892
 30
0.0
 40
0.8
 50
180.0
 51
270.0
  0
LINE
  5
86
  8
0
 10
288.34172859694888
 20
140.30338506579821
 30
0.0
 11
271.65827140305117
 21
140.30338506579821
 31
0.0
  0
LINE
  5
87
  8
0
 10
289.14172859694889
 20
129.1921586770892
 30
0.0
 11
289.14172859694889
 21
139.5033850657982
 31
0.0
  0
LINE
  5
88
  8
0
 10
270.85827140305088
 20
139.5033850657982
 30
0.0
 11
270.85827140305088
 21
129.1921586770892
 31
0.0
  0
LINE
  5
89
  8
0
 10
291.99999999999989
 20
128.3921586770893
 30
0.0
 11
291.99999999999989
 21
127.9999999999999
 31
0.0
  0
LINE
  5
8A
  8
0
 10
294.13982434374333
 20
129.9999999999998
 30
0.0
 11
295.19999999999999
 21
129.9999999999998
 31
0.0
  0
LINE
  5
8B
  8
0
 10
266.11690449364448
 20
128.3921586770893
 30
0.0
 11
293.88309550635518
 21
128.3921586770893
 31
0.0
  0
LINE
  5
8C
  8
0
 10
265.8601756562565
 20
129.9999999999998
 30
0.0
 11
266.11690449364448
 21
128.3921586770893
 31
0.0
  0
LINE
  5
8D
  8
0
 10
294.13982434374333
 20
129.9999999999998
 30
0.0
 11
293.88309550635518
 21
128.3921586770893
 31
0.0
  0
LINE
  5
8E
  8
1
 10
279.99999999999989
 20
162.9999999999998
 30
0.0
 11
279.99999999999989
 21
60.999999999999943
 31
0.0
  0
LINE
  5
8F
  8
0
 10
272.38564064605509
 20
157.9999999999998
 30
0.0
 11
287.61435935394491
 21
157.9999999999998
 31
0.0
  0
LINE
  5
90
  8
0
 10
270.99999999999989
 20
157.19999999999999
 30
0.0
 11
289.0
 21
157.19999999999999
 31
0.0
  0
LINE
  5
91
  8
0
 10
268.49999999999989
 20
89.999999999999943
 30
0.0
 11
291.49999999999989
 21
89.999999999999943
 31
0.0
  0
LINE
  5
92
  8
0
 10
267.49999999999989
 20
90.999999999999943
 30
0.0
 11
292.49999999999989
 21
90.999999999999943
 31
0.0
  0
LINE
  5
98
  8
0
 10
289.0
 20
146.9999999999998
 30
0.0
 11
289.0
 21
157.19999999999999
 31
0.0
  0
LINE
  5
99
  8
0
 10
289.0
 20
157.19999999999999
 30
0.0
 11
287.61435935394491
 21
157.9999999999998
 31
0.0
  0
LINE
  5
9A
  8
0
 10
270.99999999999989
 20
157.19999999999999
 30
0.0
 11
272.38564064605509
 21
157.9999999999998
 31
0.0
  0
LINE
  5
9B
  8
0
 10
270.99999999999989
 20
146.9999999999998
 30
0.0
 11
270.99999999999989
 21
157.19999999999999
 31
0.0
  0
LINE
  5
9C
  8
0
 10
296.0
 20
146.1999999999999
 30
0.0
 11
295.99999999999989
 21
130.7999999999999
 31
0.0
  0
LINE
  5
9E
  8
0
 10
292.49999999999989
 20
127.9999999999999
 30
0.0
 11
292.49999999999989
 21
90.999999999999943
 31
0.0
  0
LINE
  5
9F
  8
0
 10
267.49999999999989
 20
90.999999999999943
 30
0.0
 11
267.49999999999989
 21
127.9999999999999
 31
0.0
  0
LINE
  5
A1
  8
0
 10
267.99999999999989
 20
127.9999999999999
 30
0.0
 11
267.99999999999989
 21
128.3921586770893
 31
0.0
  0
ARC
  5
A2
  8
0
 10
295.19999999999999
 20
146.19999999999999
 30
0.0
 40
0.8
 50
0.0000000000000325
 51
90.0
  0
ARC
  5
A3
  8
0
 10
295.19999999999999
 20
130.7999999999999
 30
0.0
 40
0.8
 50
270.0
 51
0.0
  0
LINE
  5
A4
  8
0
 10
267.49999999999989
 20
90.999999999999943
 30
0.0
 11
268.49999999999989
 21
89.999999999999943
 31
0.0
  0
LINE
  5
A5
  8
0
 10
291.49999999999989
 20
89.999999999999943
 30
0.0
 11
292.49999999999989
 21
90.999999999999943
 31
0.0
  0
LINE
  5
A6
  8
0
 10
267.49999999999989
 20
127.9999999999999
 30
0.0
 11
292.49999999999989
 21
127.9999999999999
 31
0.0
  0
LINE
  5
AC
  8
0
 10
264.00000000000011
 20
146.19999999999999
 30
0.0
 11
264.0
 21
130.7999999999999
 31
0.0
  0
ARC
  5
AD
  8
0
 10
264.80000000000013
 20
146.19999999999999
 30
0.0
 40
0.8
 50
90.0
 51
180.0
  0
ARC
  5
AE
  8
0
 10
264.80000000000013
 20
130.7999999999999
 30
0.0
 40
0.8
 50
180.0
 51
270.0
  0
LINE
  5
AF
  8
0
 10
264.80000000000013
 20
146.9999999999998
 30
0.0
 11
295.19999999999999
 21
146.9999999999998
 31
0.0
  0
LINE
  5
B0
  8
0
 10
264.80000000000013
 20
129.9999999999998
 30
0.0
 11
265.8601756562565
 21
129.9999999999998
 31
0.0
  0
LINE
  5
B1
  8
0
 10
76.116904493644711
 20
128.39215867708941
 30
0.0
 11
78.000000000000099
 21
128.39215867708941
 31
0.0
  0
LINE
  5
B2
  8
0
 10
75.860175656256729
 20
130.00000000000011
 30
0.0
 11
76.116904493644711
 21
128.39215867708941
 31
0.0
  0
LINE
  5
B3
  8
0
 10
103.8830955063555
 20
128.39215867708941
 30
0.0
 11
102.0000000000001
 21
128.39215867708941
 31
0.0
  0
LINE
  5
B4
  8
0
 10
105.2000000000001
 20
130.00000000000011
 30
0.0
 11
104.1398243437434
 21
130.00000000000011
 31
0.0
  0
ARC
  5
B5
  8
0
 10
105.2000000000001
 20
130.80000000000001
 30
0.0
 40
0.8
 50
270.0
 51
0.0
  0
LINE
  5
B6
  8
0
 10
102.0000000000001
 20
128.00000000000011
 30
0.0
 11
102.0000000000001
 21
128.39215867708941
 31
0.0
  0
LINE
  5
B8
  8
0
 10
104.1398243437434
 20
130.00000000000011
 30
0.0
 11
103.8830955063555
 21
128.39215867708941
 31
0.0
  0
LINE
  5
B9
  8
0
 10
105.2000000000001
 20
130.00000000000011
 30
0.0
 11
74.800000000000068
 21
130.00000000000011
 31
0.0
  0
LINE
  5
BA
  8
0
 10
105.2000000000001
 20
147.00000000000011
 30
0.0
 11
74.800000000000068
 21
147.00000000000011
 31
0.0
  0
ARC
  5
BB
  8
0
 10
105.2000000000001
 20
130.80000000000001
 30
0.0
 40
0.8
 50
270.0
 51
0.0
  0
ARC
  5
BC
  8
0
 10
105.2000000000001
 20
146.2000000000001
 30
0.0
 40
0.8
 50
0.0000000000000325
 51
90.0
  0
LINE
  5
BD
  8
0
 10
106.0000000000001
 20
146.2000000000001
 30
0.0
 11
106.0000000000001
 21
130.80000000000001
 31
0.0
  0
LINE
  5
C3
  8
0
 10
102.5000000000001
 20
128.00000000000011
 30
0.0
 11
77.500000000000099
 21
128.00000000000011
 31
0.0
  0
LINE
  5
C4
  8
0
 10
78.500000000000099
 20
90.000000000000114
 30
0.0
 11
77.500000000000099
 21
91.000000000000099
 31
0.0
  0
LINE
  5
C5
  8
0
 10
102.5000000000001
 20
91.000000000000099
 30
0.0
 11
101.5000000000001
 21
90.000000000000114
 31
0.0
  0
ARC
  5
C6
  8
0
 10
102.4000000000002
 20
129.59999999999999
 30
0.0
 40
0.4
 50
90.0
 51
179.99999999999989
  0
ARC
  5
C7
  8
0
 10
77.600000000000023
 20
129.59999999999999
 30
0.0
 40
0.4
 50
0.0
 51
90.0
  0
ARC
  5
C8
  8
0
 10
74.800000000000068
 20
130.80000000000001
 30
0.0
 40
0.8
 50
180.0
 51
270.0
  0
ARC
  5
C9
  8
0
 10
74.800000000000068
 20
146.2000000000001
 30
0.0
 40
0.8
 50
90.0
 51
179.99999999999989
  0
LINE
  5
CA
  8
0
 10
102.0000000000001
 20
128.00000000000011
 30
0.0
 11
102.0000000000001
 21
129.59999999999999
 31
0.0
  0
LINE
  5
CC
  8
0
 10
102.5000000000001
 20
91.000000000000099
 30
0.0
 11
102.5000000000001
 21
128.00000000000011
 31
0.0
  0
LINE
  5
CD
  8
0
 10
77.500000000000099
 20
128.00000000000011
 30
0.0
 11
77.500000000000099
 21
91.000000000000099
 31
0.0
  0
LINE
  5
CF
  8
0
 10
78.000000000000099
 20
129.59999999999999
 30
0.0
 11
78.000000000000099
 21
128.00000000000011
 31
0.0
  0
LINE
  5
D0
  8
0
 10
74.000000000000043
 20
146.2000000000001
 30
0.0
 11
74.000000000000099
 21
130.80000000000001
 31
0.0
  0
LINE
  5
D1
  8
0
 10
99.000000000000071
 20
147.00000000000011
 30
0.0
 11
99.000000000000071
 21
157.2000000000001
 31
0.0
  0
LINE
  5
D2
  8
0
 10
99.000000000000071
 20
157.2000000000001
 30
0.0
 11
97.614359353944849
 21
158.00000000000011
 31
0.0
  0
LINE
  5
D3
  8
0
 10
81.000000000000099
 20
157.2000000000001
 30
0.0
 11
82.385640646055293
 21
158.00000000000011
 31
0.0
  0
LINE
  5
D4
  8
0
 10
81.000000000000099
 20
147.00000000000011
 30
0.0
 11
81.000000000000099
 21
157.2000000000001
 31
0.0
  0
LINE
  5
DA
  8
0
 10
102.5000000000001
 20
91.000000000000099
 30
0.0
 11
77.500000000000099
 21
91.000000000000099
 31
0.0
  0
LINE
  5
DB
  8
0
 10
101.5000000000001
 20
90.000000000000114
 30
0.0
 11
78.500000000000099
 21
90.000000000000114
 31
0.0
  0
LINE
  5
DC
  8
0
 10
99.000000000000071
 20
157.2000000000001
 30
0.0
 11
81.000000000000099
 21
157.2000000000001
 31
0.0
  0
LINE
  5
DD
  8
0
 10
97.614359353944849
 20
158.00000000000011
 30
0.0
 11
82.385640646055293
 21
158.00000000000011
 31
0.0
  0
LINE
  5
DE
  8
1
 10
90.000000000000071
 20
162.9999999999998
 30
0.0
 11
90.000000000000071
 21
60.999999999999943
 31
0.0
  0
LINE
  5
4FD
  8
0
 10
84.000000000000071
 20
68.000000000000099
 30
0.0
 11
96.000000000000085
 21
68.000000000000099
 31
0.0
  0
LINE
  5
4FE
  8
0
 10
86.000000000000057
 20
66.000000000000099
 30
0.0
 11
94.000000000000071
 21
66.000000000000099
 31
0.0
  0
LINE
  5
4FF
  8
0
 10
94.000000000000071
 20
66.000000000000099
 30
0.0
 11
96.000000000000085
 21
68.000000000000099
 31
0.0
  0
LINE
  5
500
  8
0
 10
86.000000000000057
 20
66.000000000000099
 30
0.0
 11
84.000000000000071
 21
68.000000000000099
 31
0.0
  0
LINE
  5
51E
  8
3
 10
95.178000000000196
 20
90.000000000000114
 30
0.0
 11
95.178000000000196
 21
67.177999999999997
 31
0.0
  0
LINE
  5
51F
  8
0
 10
96.000000000000085
 20
68.000000000000099
 30
0.0
 11
96.000000000000085
 21
90.000000000000114
 31
0.0
  0
LINE
  5
521
  8
3
 10
84.822000000000202
 20
90.000000000000114
 30
0.0
 11
84.822000000000173
 21
67.177999999999997
 31
0.0
  0
LINE
  5
522
  8
0
 10
84.000000000000071
 20
68.000000000000099
 30
0.0
 11
84.000000000000114
 21
90.000000000000114
 31
0.0
  0
CIRCLE
  5
6D2
  8
0
 10
82.400000000000077
 20
65.000008925672404
 30
0.0
 40
0.6
  0
LINE
  5
6D3
  8
3
 10
81.800000000000097
 20
90.000000000000114
 30
0.0
 11
81.800000000000054
 21
65.000008925672404
 31
0.0
  0
LINE
  5
6D4
  8
3
 10
83.000000000000071
 20
90.000000000000114
 30
0.0
 11
83.000000000000071
 21
65.000008925672404
 31
0.0
  0
CIRCLE
  5
6D5
  8
0
 10
97.600000000000136
 20
65.000008925672404
 30
0.0
 40
0.6
  0
LINE
  5
6D6
  8
3
 10
98.200000000000074
 20
90.000000000000114
 30
0.0
 11
98.200000000000145
 21
65.000008925672404
 31
0.0
  0
LINE
  5
6D7
  8
3
 10
97.000000000000085
 20
90.000000000000114
 30
0.0
 11
97.000000000000085
 21
65.000008925672404
 31
0.0
  0
LINE
  5
6EC
  8
0
 10
164.0
 20
68.000000000000014
 30
0.0
 11
176.0
 21
68.000000000000014
 31
0.0
  0
LINE
  5
6ED
  8
0
 10
166.0
 20
66.000000000000014
 30
0.0
 11
174.0
 21
66.000000000000014
 31
0.0
  0
LINE
  5
6EE
  8
0
 10
174.0
 20
66.000000000000014
 30
0.0
 11
176.0
 21
68.000000000000014
 31
0.0
  0
LINE
  5
6EF
  8
0
 10
166.0
 20
66.000000000000014
 30
0.0
 11
164.0
 21
68.000000000000014
 31
0.0
  0
LINE
  5
6F0
  8
3
 10
175.17800000000011
 20
90.0
 30
0.0
 11
175.17800000000011
 21
67.177999999999884
 31
0.0
  0
LINE
  5
6F1
  8
0
 10
176.0
 20
68.000000000000014
 30
0.0
 11
176.0
 21
90.0
 31
0.0
  0
LINE
  5
6F2
  8
3
 10
164.82200000000009
 20
90.0
 30
0.0
 11
164.82200000000009
 21
67.177999999999884
 31
0.0
  0
LINE
  5
6F3
  8
0
 10
164.0
 20
68.000000000000014
 30
0.0
 11
164.0
 21
90.0
 31
0.0
  0
CIRCLE
  5
6F4
  8
0
 10
162.40000000000001
 20
65.00000892567229
 30
0.0
 40
0.6
  0
LINE
  5
6F5
  8
3
 10
161.80000000000001
 20
90.000000000000014
 30
0.0
 11
161.7999999999999
 21
65.00000892567229
 31
0.0
  0
LINE
  5
6F6
  8
3
 10
163.0
 20
90.000000000000014
 30
0.0
 11
163.0
 21
65.00000892567229
 31
0.0
  0
CIRCLE
  5
6F7
  8
0
 10
177.59999999999999
 20
65.00000892567229
 30
0.0
 40
0.6
  0
LINE
  5
6F8
  8
3
 10
178.19999999999999
 20
90.000000000000014
 30
0.0
 11
178.19999999999999
 21
65.00000892567229
 31
0.0
  0
LINE
  5
6F9
  8
3
 10
177.0
 20
90.000000000000014
 30
0.0
 11
177.0
 21
65.00000892567229
 31
0.0
  0
LINE
  5
6FA
  8
0
 10
273.99999999999989
 20
67.999999999999957
 30
0.0
 11
285.99999999999989
 21
67.999999999999957
 31
0.0
  0
LINE
  5
6FB
  8
0
 10
275.99999999999989
 20
65.999999999999957
 30
0.0
 11
283.99999999999989
 21
65.999999999999957
 31
0.0
  0
LINE
  5
6FC
  8
0
 10
283.99999999999989
 20
65.999999999999957
 30
0.0
 11
285.99999999999989
 21
67.999999999999957
 31
0.0
  0
LINE
  5
6FD
  8
0
 10
275.99999999999989
 20
65.999999999999957
 30
0.0
 11
273.99999999999989
 21
67.999999999999957
 31
0.0
  0
LINE
  5
6FE
  8
3
 10
285.178
 20
89.999999999999943
 30
0.0
 11
285.178
 21
67.177999999999841
 31
0.0
  0
LINE
  5
6FF
  8
0
 10
285.99999999999989
 20
67.999999999999957
 30
0.0
 11
285.99999999999989
 21
89.999999999999943
 31
0.0
  0
LINE
  5
700
  8
3
 10
274.822
 20
89.999999999999943
 30
0.0
 11
274.822
 21
67.177999999999841
 31
0.0
  0
LINE
  5
701
  8
0
 10
273.99999999999989
 20
67.999999999999957
 30
0.0
 11
273.99999999999989
 21
89.999999999999943
 31
0.0
  0
CIRCLE
  5
702
  8
0
 10
272.39999999999992
 20
65.000008925672248
 30
0.0
 40
0.6
  0
LINE
  5
703
  8
3
 10
271.7999999999999
 20
89.999999999999957
 30
0.0
 11
271.7999999999999
 21
65.000008925672248
 31
0.0
  0
LINE
  5
704
  8
3
 10
272.99999999999989
 20
89.999999999999957
 30
0.0
 11
272.99999999999989
 21
65.000008925672248
 31
0.0
  0
CIRCLE
  5
705
  8
0
 10
287.59999999999991
 20
65.000008925672248
 30
0.0
 40
0.6
  0
LINE
  5
706
  8
3
 10
288.19999999999982
 20
89.999999999999957
 30
0.0
 11
288.19999999999987
 21
65.000008925672248
 31
0.0
  0
LINE
  5
707
  8
3
 10
286.99999999999989
 20
89.999999999999957
 30
0.0
 11
286.99999999999989
 21
65.000008925672248
 31
0.0
  0
TEXT
  5
841
  8
0
 62
     3
 10
0.0
 20
0.0
 30
0.0
 40
10.0
  1
BJ130-12060
  7
STANDARD1
  0
ENDSEC
  0
EOF
