  0
SECTION
  2
HEADER
  9
$ACADVER
  1
AC1009
  9
$INSBASE
 10
0.0
 20
0.0
 30
0.0
  9
$EXTMIN
 10
0.0
 20
-2.960436562073669
 30
0.0
  9
$EXTMAX
 10
407.94475790858451
 20
345.75861865580418
 30
0.0
  9
$LIMMIN
 10
0.0
 20
0.0
  9
$LIMMAX
 10
780.0
 20
540.0
  9
$ORTHOMODE
 70
     0
  9
$REGENMODE
 70
     1
  9
$FILLMODE
 70
     1
  9
$QTEXTMODE
 70
     0
  9
$MIRRTEXT
 70
     0
  9
$DRAGMODE
 70
     2
  9
$LTSCALE
 40
20.0
  9
$OSMODE
 70
  3071
  9
$ATTMODE
 70
     1
  9
$TEXTSIZE
 40
0.2
  9
$TRACEWID
 40
0.05
  9
$TEXTSTYLE
  7
STANDARD
  9
$CLAYER
  8
0
  9
$CELTYPE
  6
BYLAYER
  9
$CECOLOR
 62
   256
  9
$DIMSCALE
 40
2.0
  9
$DIMASZ
 40
3.0
  9
$DIMEXO
 40
2.0
  9
$DIMDLI
 40
0.38
  9
$DIMRND
 40
0.0
  9
$DIMDLE
 40
0.0
  9
$DIMEXE
 40
2.0
  9
$DIMTP
 40
0.0
  9
$DIMTM
 40
0.0
  9
$DIMTXT
 40
3.0
  9
$DIMCEN
 40
0.0
  9
$DIMTSZ
 40
0.0
  9
$DIMTOL
 70
     0
  9
$DIMLIM
 70
     0
  9
$DIMTIH
 70
     0
  9
$DIMTOH
 70
     0
  9
$DIMSE1
 70
     0
  9
$DIMSE2
 70
     0
  9
$DIMTAD
 70
     1
  9
$DIMZIN
 70
     0
  9
$DIMBLK
  1

  9
$DIMASO
 70
     0
  9
$DIMSHO
 70
     0
  9
$DIMPOST
  1

  9
$DIMAPOST
  1

  9
$DIMALT
 70
     0
  9
$DIMALTD
 70
     2
  9
$DIMALTF
 40
25.399999999999999
  9
$DIMLFAC
 40
1.0
  9
$DIMTOFL
 70
     1
  9
$DIMTVP
 40
1.6000000000000001
  9
$DIMTIX
 70
     1
  9
$DIMSOXD
 70
     0
  9
$DIMSAH
 70
     0
  9
$DIMBLK1
  1

  9
$DIMBLK2
  1

  9
$DIMSTYLE
  2
STANDARD
  9
$DIMCLRD
 70
     0
  9
$DIMCLRE
 70
     0
  9
$DIMCLRT
 70
     0
  9
$DIMTFAC
 40
1.0
  9
$DIMGAP
 40
0.09
  9
$LUNITS
 70
     2
  9
$LUPREC
 70
     4
  9
$SKETCHINC
 40
0.1
  9
$FILLETRAD
 40
0.0
  9
$AUNITS
 70
     0
  9
$AUPREC
 70
     4
  9
$MENU
  1
E:\r13\win\SUPPORT\ACAD
  9
$ELEVATION
 40
0.0
  9
$PELEVATION
 40
0.0
  9
$THICKNESS
 40
0.0
  9
$LIMCHECK
 70
     0
  9
$BLIPMODE
 70
     0
  9
$CHAMFERA
 40
0.0
  9
$CHAMFERB
 40
0.0
  9
$SKPOLY
 70
     0
  9
$TDCREATE
 40
2449840.3505439819
  9
$TDUPDATE
 40
2456597.6207467592
  9
$TDINDWG
 40
0.0219113542
  9
$TDUSRTIMER
 40
2456517.1232998152
  9
$USRTIMER
 70
     1
  9
$ANGBASE
 50
0.0
  9
$ANGDIR
 70
     0
  9
$PDMODE
 70
     0
  9
$PDSIZE
 40
0.0
  9
$PLINEWID
 40
0.0
  9
$COORDS
 70
     1
  9
$SPLFRAME
 70
     0
  9
$SPLINETYPE
 70
     6
  9
$SPLINESEGS
 70
     8
  9
$ATTDIA
 70
     0
  9
$ATTREQ
 70
     1
  9
$HANDLING
 70
     1
  9
$HANDSEED
  5
618
  9
$SURFTAB1
 70
     6
  9
$SURFTAB2
 70
     6
  9
$SURFTYPE
 70
     6
  9
$SURFU
 70
     6
  9
$SURFV
 70
     6
  9
$UCSNAME
  2

  9
$UCSORG
 10
0.0
 20
0.0
 30
0.0
  9
$UCSXDIR
 10
1.0
 20
0.0
 30
0.0
  9
$UCSYDIR
 10
0.0
 20
1.0
 30
0.0
  9
$PUCSNAME
  2

  9
$PUCSORG
 10
0.0
 20
0.0
 30
0.0
  9
$PUCSXDIR
 10
1.0
 20
0.0
 30
0.0
  9
$PUCSYDIR
 10
0.0
 20
1.0
 30
0.0
  9
$USERI1
 70
     3
  9
$USERI2
 70
     1
  9
$USERI3
 70
     0
  9
$USERI4
 70
     0
  9
$USERI5
 70
     0
  9
$USERR1
 40
2.0
  9
$USERR2
 40
3.0
  9
$USERR3
 40
3.0
  9
$USERR4
 40
3.0
  9
$USERR5
 40
10.0
  9
$WORLDVIEW
 70
     1
  9
$SHADEDGE
 70
     3
  9
$SHADEDIF
 70
    70
  9
$TILEMODE
 70
     1
  9
$MAXACTVP
 70
    16
  9
$PLIMCHECK
 70
     0
  9
$PEXTMIN
 10
1.0000000000000000E+020
 20
1.0000000000000000E+020
 30
1.0000000000000000E+020
  9
$PEXTMAX
 10
-1.0000000000000000E+020
 20
-1.0000000000000000E+020
 30
-1.0000000000000000E+020
  9
$PLIMMIN
 10
0.0
 20
0.0
  9
$PLIMMAX
 10
12.0
 20
9.0
  9
$UNITMODE
 70
     0
  9
$VISRETAIN
 70
     0
  9
$PLINEGEN
 70
     0
  9
$PSLTSCALE
 70
     0
  0
ENDSEC
  0
SECTION
  2
TABLES
  0
TABLE
  2
VPORT
 70
     1
  0
VPORT
  2
*ACTIVE
 70
     0
 10
0.0
 20
0.0
 11
1.0
 21
1.0
 12
389.988099052557
 22
383.6881458164155
 13
0.0
 23
0.0
 14
5.0
 24
5.0
 15
10.0
 25
10.0
 16
0.0
 26
0.0
 36
1.0
 17
0.0
 27
0.0
 37
0.0
 40
780.34809480459126
 41
1.831871345029239
 42
50.0
 43
0.0
 44
0.0
 50
0.0
 51
0.0
 71
    16
 72
   100
 73
     1
 74
     0
 75
     0
 76
     0
 77
     0
 78
     2
  0
ENDTAB
  0
TABLE
  2
LTYPE
 70
     4
  0
LTYPE
  2
CONTINUOUS
 70
     0
  3
Solid Line
 72
    65
 73
     0
 40
0.0
  0
LTYPE
  2
PHANTOM2
 70
     0
  3
___ _ _ ___ _ _ ___ _ _ ___ _ _
 72
    65
 73
     6
 40
1.25
 49
0.625
 49
-0.125
 49
0.125
 49
-0.125
 49
0.125
 49
-0.125
  0
LTYPE
  2
CENTER
 70
     0
  3
____ _ ____ _ ____ _ ____ _ ____ _ ____ _ ____
 72
    65
 73
     4
 40
2.0
 49
1.25
 49
-0.25
 49
0.25
 49
-0.25
  0
LTYPE
  2
HIDDEN
 70
     0
  3
_ _ _ _ _ _ _ _ _ _ _ _ _ _ _ _ _ _ _ _ _ _ _
 72
    65
 73
     2
 40
0.375
 49
0.25
 49
-0.125
  0
ENDTAB
  0
TABLE
  2
LAYER
 70
     4
  0
LAYER
  2
0
 70
     0
 62
     7
  6
CONTINUOUS
  0
LAYER
  2
1
 70
     0
 62
     1
  6
CENTER
  0
LAYER
  2
3
 70
     0
 62
     3
  6
CONTINUOUS
  0
LAYER
  2
2
 70
     0
 62
     2
  6
HIDDEN
  0
ENDTAB
  0
TABLE
  2
STYLE
 70
     3
  0
STYLE
  2
STANDARD
 70
     0
 40
0.0
 41
1.0
 50
0.0
 71
     0
 42
0.2
  3
TXT
  4
BIGFONT
  0
STYLE
  2
ANNOTATIVE
 70
     0
 40
0.0
 41
1.0
 50
0.0
 71
     0
 42
0.2
  3
txt
  4

  0
STYLE
  2
STANDARD1
 70
     0
 40
0.0
 41
1.0
 50
0.0
 71
     0
 42
3.0
  3
txt
  4

  0
ENDTAB
  0
TABLE
  2
VIEW
 70
     1
  0
VIEW
  2
ALL
 70
     0
 40
270.0
 10
220.99159700000001
 20
135.0
 41
0.0
 11
0.0
 21
0.0
 31
1.0
 12
0.0
 22
0.0
 32
0.0
 42
0.0
 43
0.0
 44
0.0
 50
0.0
 71
     0
  0
ENDTAB
  0
TABLE
  2
UCS
 70
     0
  0
ENDTAB
  0
TABLE
  2
APPID
 70
     5
  0
APPID
  2
ACAD
 70
     0
  0
APPID
  2
ACADANNOTATIVE
 70
     0
  0
APPID
  2
ACAD_MLEADERVER
 70
     0
  0
APPID
  2
ACAD_NAV_VCDISPLAY
 70
     0
  0
APPID
  2
ACAD_EXEMPT_FROM_CAD_STANDARDS
 70
     0
  0
ENDTAB
  0
TABLE
  2
DIMSTYLE
 70
     2
  0
DIMSTYLE
  2
STANDARD
 70
     0
  3

  4

  5

  6

  7

 40
1.0
 41
0.18
 42
0.0625
 43
0.38
 44
0.18
 45
0.0
 46
0.0
 47
0.0
 48
0.0
140
0.18
141
0.09
142
0.0
143
25.399999999999999
144
1.0
145
0.0
146
1.0
147
0.09
 71
     0
 72
     0
 73
     1
 74
     1
 75
     0
 76
     0
 77
     0
 78
     0
170
     0
171
     2
172
     0
173
     0
174
     0
175
     0
176
     0
177
     0
178
     0
  0
DIMSTYLE
  2
ANNOTATIVE
 70
     0
  3

  4

  5

  6

  7

 40
1.0
 41
0.18
 42
0.0625
 43
0.38
 44
0.18
 45
0.0
 46
0.0
 47
0.0
 48
0.0
140
0.18
141
0.09
142
0.0
143
25.399999999999999
144
1.0
145
0.0
146
1.0
147
0.09
 71
     0
 72
     0
 73
     1
 74
     1
 75
     0
 76
     0
 77
     0
 78
     0
170
     0
171
     2
172
     0
173
     0
174
     0
175
     0
176
     0
177
     0
178
     0
  0
ENDTAB
  0
ENDSEC
  0
SECTION
  2
BLOCKS
  0
BLOCK
  8
0
  2
$MODEL_SPACE
 70
     0
 10
0.0
 20
0.0
 30
0.0
  3
$MODEL_SPACE
  1

  0
ENDBLK
  5
54A
  8
0
  0
BLOCK
 67
     1
  8
0
  2
$PAPER_SPACE
 70
     0
 10
0.0
 20
0.0
 30
0.0
  3
$PAPER_SPACE
  1

  0
ENDBLK
  5
546
 67
     1
  8
0
  0
BLOCK
  8
0
  2
STDGX5
 70
     0
 10
0.0
 20
0.0
 30
0.0
  3
STDGX5
  1

  0
ENDBLK
  5
3D
  8
0
  0
ENDSEC
  0
SECTION
  2
ENTITIES
  0
INSERT
  5
14E
  8
0
  2
STDGX5
 10
0.0
 20
0.0
 30
0.0
  0
INSERT
  5
155
  8
0
  2
STDGX5
 10
0.0
 20
0.0
 30
0.0
  0
INSERT
  5
156
  8
0
  2
STDGX5
 10
0.0
 20
0.0
 30
0.0
  0
INSERT
  5
157
  8
0
  2
STDGX5
 10
0.0
 20
0.0
 30
0.0
  0
LINE
  5
28E
  8
1
 10
247.94475790858451
 20
275.75861865580413
 30
0.0
 11
247.94475790858451
 21
345.75861865580418
 31
0.0
  0
LINE
  5
28F
  8
1
 10
317.94475790858451
 20
310.75861865580418
 30
0.0
 11
212.94475790858451
 21
310.75861865580418
 31
0.0
  0
ARC
  5
293
  8
0
 10
247.94475790858451
 20
310.75861865580418
 30
0.0
 40
20.0
 50
52.410497035143273
 51
307.58950296485682
  0
LINE
  5
295
  8
0
 10
131.94475790858451
 20
190.75861865580421
 30
0.0
 11
93.944757908584506
 21
190.75861865580421
 31
0.0
  0
LINE
  5
296
  8
0
 10
92.944757908584506
 20
189.75861865580421
 30
0.0
 11
92.944757908584506
 21
121.9133196558042
 31
0.0
  0
LINE
  5
297
  8
0
 10
94.944757908584506
 20
120.7586186558042
 30
0.0
 11
94.944757908584506
 21
100.7586186558041
 31
0.0
  0
LINE
  5
298
  8
0
 10
93.944757908584506
 20
90.758618655804185
 30
0.0
 11
131.94475790858451
 21
90.758618655804185
 31
0.0
  0
LINE
  5
299
  8
0
 10
108.2447579085844
 20
90.358618655804193
 30
0.0
 11
108.2447579085844
 21
87.65861865580419
 31
0.0
  0
LINE
  5
29A
  8
0
 10
106.94475790858451
 20
87.258618655804185
 30
0.0
 11
106.94475790858451
 21
62.75861865580417
 31
0.0
  0
LINE
  5
29B
  8
0
 10
93.944757908584506
 20
190.75861865580421
 30
0.0
 11
92.944757908584506
 21
189.75861865580421
 31
0.0
  0
LINE
  5
29C
  8
0
 10
93.944757908584506
 20
90.758618655804185
 30
0.0
 11
92.944757908584506
 21
91.758618655804199
 31
0.0
  0
LINE
  5
29D
  8
0
 10
106.94475790858451
 20
62.75861865580417
 30
0.0
 11
108.94475790858451
 21
60.75861865580417
 31
0.0
  0
ARC
  5
29E
  8
0
 10
107.8447579085844
 20
87.65861865580419
 30
0.0
 40
0.4
 50
270.0
 51
0.0
  0
LINE
  5
29F
  8
0
 10
94.944757908584506
 20
100.7586186558041
 30
0.0
 11
92.944757908584506
 21
99.603917655804196
 31
0.0
  0
LINE
  5
2A0
  8
0
 10
92.944757908584506
 20
99.603917655804196
 30
0.0
 11
92.944757908584506
 21
91.758618655804199
 31
0.0
  0
LINE
  5
2A1
  8
0
 10
94.944757908584506
 20
120.7586186558042
 30
0.0
 11
92.944757908584506
 21
121.9133196558042
 31
0.0
  0
LINE
  5
2A2
  8
0
 10
130.94475790858451
 20
120.7586186558042
 30
0.0
 11
132.94475790858451
 21
121.9133196558042
 31
0.0
  0
LINE
  5
2A3
  8
0
 10
132.94475790858451
 20
99.603917655804196
 30
0.0
 11
132.94475790858451
 21
91.758618655804199
 31
0.0
  0
LINE
  5
2A4
  8
0
 10
130.94475790858451
 20
100.7586186558041
 30
0.0
 11
132.94475790858451
 21
99.603917655804196
 31
0.0
  0
LINE
  5
2A5
  8
0
 10
131.94475790858451
 20
90.758618655804185
 30
0.0
 11
132.94475790858451
 21
91.758618655804199
 31
0.0
  0
LINE
  5
2A6
  8
0
 10
131.94475790858451
 20
190.75861865580421
 30
0.0
 11
132.94475790858451
 21
189.75861865580421
 31
0.0
  0
LINE
  5
2A7
  8
0
 10
130.94475790858451
 20
120.7586186558042
 30
0.0
 11
130.94475790858451
 21
100.7586186558041
 31
0.0
  0
LINE
  5
2A8
  8
0
 10
132.94475790858451
 20
189.75861865580421
 30
0.0
 11
132.94475790858451
 21
121.9133196558042
 31
0.0
  0
LINE
  5
2A9
  8
0
 10
114.3949239085845
 20
120.7586186558042
 30
0.0
 11
114.3949239085845
 21
100.7586186558041
 31
0.0
  0
LINE
  5
2AA
  8
0
 10
114.3949239085845
 20
100.7586186558041
 30
0.0
 11
129.4945919085844
 21
100.7586186558041
 31
0.0
  0
LINE
  5
2AB
  8
0
 10
129.4945919085844
 20
100.7586186558041
 30
0.0
 11
129.4945919085844
 21
120.7586186558042
 31
0.0
  0
LINE
  5
2AC
  8
0
 10
129.4945919085844
 20
120.7586186558042
 30
0.0
 11
114.3949239085845
 21
120.7586186558042
 31
0.0
  0
ARC
  5
2AD
  8
0
 10
121.94475790858451
 20
96.654244655804163
 30
0.0
 40
25.259073999999998
 50
72.608698000000146
 51
107.3913019999998
  0
ARC
  5
2AE
  8
0
 10
121.94475790858451
 20
124.86299265580421
 30
0.0
 40
25.259073999999998
 50
252.60869800000009
 51
287.39130199999971
  0
ARC
  5
2AF
  8
0
 10
103.94475790858451
 20
124.86299265580421
 30
0.0
 40
25.259073999999998
 50
252.60869800000009
 51
287.39130199999971
  0
ARC
  5
2B0
  8
0
 10
103.94475790858451
 20
96.654244655804163
 30
0.0
 40
25.259073999999998
 50
72.608698000000146
 51
107.3913019999998
  0
LINE
  5
2B1
  8
0
 10
96.394923908584474
 20
120.7586186558042
 30
0.0
 11
111.4945919085845
 21
120.7586186558042
 31
0.0
  0
LINE
  5
2B2
  8
0
 10
96.394923908584474
 20
100.7586186558041
 30
0.0
 11
96.394923908584474
 21
120.7586186558042
 31
0.0
  0
LINE
  5
2B3
  8
0
 10
111.4945919085845
 20
100.7586186558041
 30
0.0
 11
96.394923908584474
 21
100.7586186558041
 31
0.0
  0
LINE
  5
2B4
  8
0
 10
111.4945919085845
 20
120.7586186558042
 30
0.0
 11
111.4945919085845
 21
100.7586186558041
 31
0.0
  0
LINE
  5
2B5
  8
0
 10
106.94475790858451
 20
87.258618655804185
 30
0.0
 11
118.94475790858451
 21
87.258618655804185
 31
0.0
  0
LINE
  5
2B6
  8
0
 10
106.94475790858451
 20
62.75861865580417
 30
0.0
 11
118.94475790858451
 21
62.75861865580417
 31
0.0
  0
LINE
  5
2B7
  8
0
 10
108.94475790858451
 20
60.75861865580417
 30
0.0
 11
116.94475790858451
 21
60.75861865580417
 31
0.0
  0
LINE
  5
2B8
  8
0
 10
118.94475790858451
 20
87.258618655804185
 30
0.0
 11
118.63225790858451
 21
87.258618655804185
 31
0.0
  0
ARC
  5
2B9
  8
0
 10
118.0447579085845
 20
87.65861865580419
 30
0.0
 40
0.4
 50
180.0
 51
270.0
  0
ARC
  5
2BA
  8
0
 10
118.0447579085845
 20
90.358618655804193
 30
0.0
 40
0.4
 50
90.0
 51
180.0
  0
LINE
  5
2BB
  8
0
 10
118.94475790858451
 20
62.75861865580417
 30
0.0
 11
116.94475790858451
 21
60.75861865580417
 31
0.0
  0
LINE
  5
2BC
  8
0
 10
118.94475790858451
 20
87.258618655804185
 30
0.0
 11
118.94475790858451
 21
62.75861865580417
 31
0.0
  0
LINE
  5
2BD
  8
0
 10
117.64475790858449
 20
90.358618655804193
 30
0.0
 11
117.64475790858449
 21
87.65861865580419
 31
0.0
  0
LINE
  5
2BE
  8
3
 10
107.8917579085844
 20
87.261389655804194
 30
0.0
 11
107.8917579085844
 21
61.811618655804168
 31
0.0
  0
LINE
  5
2BF
  8
3
 10
117.9977579085845
 20
87.261389655804194
 30
0.0
 11
117.9977579085845
 21
61.811618655804168
 31
0.0
  0
ARC
  5
2C0
  8
0
 10
107.8447579085844
 20
90.358618655804193
 30
0.0
 40
0.4
 50
0.0
 51
90.0
  0
LINE
  5
2C2
  8
0
 10
406.94475790858451
 20
190.75861865580421
 30
0.0
 11
401.8770919592572
 21
190.75861865580421
 31
0.0
  0
LINE
  5
2C3
  8
0
 10
367.94475790858451
 20
189.75861865580421
 30
0.0
 11
367.94475790858451
 21
121.9133196558042
 31
0.0
  0
LINE
  5
2C4
  8
0
 10
369.94475790858451
 20
120.7586186558042
 30
0.0
 11
369.94475790858451
 21
100.7586186558041
 31
0.0
  0
LINE
  5
2C5
  8
0
 10
368.94475790858451
 20
90.758618655804185
 30
0.0
 11
406.94475790858451
 21
90.758618655804185
 31
0.0
  0
LINE
  5
2C6
  8
0
 10
383.24475790858452
 20
90.358618655804193
 30
0.0
 11
383.24475790858452
 21
87.65861865580419
 31
0.0
  0
LINE
  5
2C7
  8
0
 10
381.94475790858451
 20
87.258618655804185
 30
0.0
 11
381.94475790858451
 21
62.75861865580417
 31
0.0
  0
LINE
  5
2C8
  8
0
 10
368.94475790858451
 20
190.75861865580421
 30
0.0
 11
367.94475790858451
 21
189.75861865580421
 31
0.0
  0
LINE
  5
2C9
  8
0
 10
368.94475790858451
 20
90.758618655804185
 30
0.0
 11
367.94475790858451
 21
91.758618655804199
 31
0.0
  0
LINE
  5
2CA
  8
0
 10
381.94475790858451
 20
62.75861865580417
 30
0.0
 11
383.94475790858451
 21
60.75861865580417
 31
0.0
  0
ARC
  5
2CB
  8
0
 10
382.8447579085846
 20
87.65861865580419
 30
0.0
 40
0.4
 50
270.0
 51
0.0
  0
LINE
  5
2CC
  8
0
 10
369.94475790858451
 20
100.7586186558041
 30
0.0
 11
367.94475790858451
 21
99.603917655804196
 31
0.0
  0
LINE
  5
2CD
  8
0
 10
367.94475790858451
 20
99.603917655804196
 30
0.0
 11
367.94475790858451
 21
91.758618655804199
 31
0.0
  0
LINE
  5
2CE
  8
0
 10
369.94475790858451
 20
120.7586186558042
 30
0.0
 11
367.94475790858451
 21
121.9133196558042
 31
0.0
  0
LINE
  5
2CF
  8
0
 10
405.94475790858451
 20
120.7586186558042
 30
0.0
 11
407.94475790858451
 21
121.9133196558042
 31
0.0
  0
LINE
  5
2D0
  8
0
 10
407.94475790858451
 20
99.603917655804196
 30
0.0
 11
407.94475790858451
 21
91.758618655804199
 31
0.0
  0
LINE
  5
2D1
  8
0
 10
405.94475790858451
 20
100.7586186558041
 30
0.0
 11
407.94475790858451
 21
99.603917655804196
 31
0.0
  0
LINE
  5
2D2
  8
0
 10
406.94475790858451
 20
90.758618655804185
 30
0.0
 11
407.94475790858451
 21
91.758618655804199
 31
0.0
  0
LINE
  5
2D3
  8
0
 10
406.94475790858451
 20
190.75861865580421
 30
0.0
 11
407.94475790858451
 21
189.75861865580421
 31
0.0
  0
LINE
  5
2D4
  8
0
 10
405.94475790858451
 20
120.7586186558042
 30
0.0
 11
405.94475790858451
 21
100.7586186558041
 31
0.0
  0
LINE
  5
2D5
  8
0
 10
407.94475790858451
 20
189.75861865580421
 30
0.0
 11
407.94475790858451
 21
121.9133196558042
 31
0.0
  0
LINE
  5
2D6
  8
0
 10
389.39492390858447
 20
120.7586186558042
 30
0.0
 11
389.39492390858447
 21
100.7586186558041
 31
0.0
  0
LINE
  5
2D7
  8
0
 10
389.39492390858447
 20
100.7586186558041
 30
0.0
 11
404.49459190858448
 21
100.7586186558041
 31
0.0
  0
LINE
  5
2D8
  8
0
 10
404.49459190858448
 20
100.7586186558041
 30
0.0
 11
404.49459190858448
 21
120.7586186558042
 31
0.0
  0
LINE
  5
2D9
  8
0
 10
404.49459190858448
 20
120.7586186558042
 30
0.0
 11
389.39492390858447
 21
120.7586186558042
 31
0.0
  0
ARC
  5
2DA
  8
0
 10
396.94475790858451
 20
96.654244655804163
 30
0.0
 40
25.259073999999998
 50
72.608698000000146
 51
107.3913019999998
  0
ARC
  5
2DB
  8
0
 10
396.94475790858451
 20
124.86299265580421
 30
0.0
 40
25.259073999999998
 50
252.60869800000009
 51
287.39130199999971
  0
ARC
  5
2DC
  8
0
 10
378.94475790858451
 20
124.86299265580421
 30
0.0
 40
25.259073999999998
 50
252.60869800000009
 51
287.39130199999971
  0
ARC
  5
2DD
  8
0
 10
378.94475790858451
 20
96.654244655804163
 30
0.0
 40
25.259073999999998
 50
72.608698000000146
 51
107.3913019999998
  0
LINE
  5
2DE
  8
0
 10
371.39492390858447
 20
120.7586186558042
 30
0.0
 11
386.49459190858448
 21
120.7586186558042
 31
0.0
  0
LINE
  5
2DF
  8
0
 10
371.39492390858447
 20
100.7586186558041
 30
0.0
 11
371.39492390858447
 21
120.7586186558042
 31
0.0
  0
LINE
  5
2E0
  8
0
 10
386.49459190858448
 20
100.7586186558041
 30
0.0
 11
371.39492390858447
 21
100.7586186558041
 31
0.0
  0
LINE
  5
2E1
  8
0
 10
386.49459190858448
 20
120.7586186558042
 30
0.0
 11
386.49459190858448
 21
100.7586186558041
 31
0.0
  0
LINE
  5
2E2
  8
0
 10
381.94475790858451
 20
87.258618655804185
 30
0.0
 11
393.94475790858451
 21
87.258618655804185
 31
0.0
  0
LINE
  5
2E3
  8
0
 10
381.94475790858451
 20
62.75861865580417
 30
0.0
 11
393.94475790858451
 21
62.75861865580417
 31
0.0
  0
LINE
  5
2E4
  8
0
 10
383.94475790858451
 20
60.75861865580417
 30
0.0
 11
391.94475790858451
 21
60.75861865580417
 31
0.0
  0
LINE
  5
2E5
  8
0
 10
393.94475790858451
 20
87.258618655804185
 30
0.0
 11
393.63225790858451
 21
87.258618655804185
 31
0.0
  0
ARC
  5
2E6
  8
0
 10
393.04475790858447
 20
87.65861865580419
 30
0.0
 40
0.4
 50
180.0
 51
270.0
  0
ARC
  5
2E7
  8
0
 10
393.04475790858447
 20
90.358618655804193
 30
0.0
 40
0.4
 50
90.0
 51
180.0
  0
LINE
  5
2E8
  8
0
 10
393.94475790858451
 20
62.75861865580417
 30
0.0
 11
391.94475790858451
 21
60.75861865580417
 31
0.0
  0
LINE
  5
2E9
  8
0
 10
393.94475790858451
 20
87.258618655804185
 30
0.0
 11
393.94475790858451
 21
62.75861865580417
 31
0.0
  0
LINE
  5
2EA
  8
0
 10
392.64475790858449
 20
90.358618655804193
 30
0.0
 11
392.64475790858449
 21
87.65861865580419
 31
0.0
  0
LINE
  5
2EB
  8
3
 10
382.89175790858451
 20
87.261389655804194
 30
0.0
 11
382.89175790858451
 21
61.811618655804168
 31
0.0
  0
LINE
  5
2EC
  8
3
 10
392.9977579085845
 20
87.261389655804194
 30
0.0
 11
392.9977579085845
 21
61.811618655804168
 31
0.0
  0
ARC
  5
2ED
  8
0
 10
382.8447579085846
 20
90.358618655804193
 30
0.0
 40
0.4
 50
0.0
 51
90.0
  0
CIRCLE
  5
2EE
  8
0
 10
247.94475790858451
 20
310.75861865580418
 30
0.0
 40
9.0
  0
LINE
  5
2F0
  8
0
 10
250.83150890858451
 20
315.75861865580418
 30
0.0
 11
245.0580069085845
 21
315.75861865580418
 31
0.0
  0
LINE
  5
2F1
  8
0
 10
245.0580069085845
 20
315.75861865580418
 30
0.0
 11
242.1712549085845
 21
310.75861865580418
 31
0.0
  0
LINE
  5
2F2
  8
0
 10
242.1712549085845
 20
310.75861865580418
 30
0.0
 11
245.0580069085845
 21
305.75861865580418
 31
0.0
  0
LINE
  5
2F3
  8
0
 10
245.0580069085845
 20
305.75861865580418
 30
0.0
 11
250.83150890858451
 21
305.75861865580418
 31
0.0
  0
LINE
  5
2F4
  8
0
 10
250.83150890858451
 20
305.75861865580418
 30
0.0
 11
253.71826090858451
 21
310.75861865580418
 31
0.0
  0
LINE
  5
2F5
  8
0
 10
253.71826090858451
 20
310.75861865580418
 30
0.0
 11
250.83150890858451
 21
315.75861865580418
 31
0.0
  0
LINE
  5
2F7
  8
0
 10
306.15456190858453
 20
301.59709965580419
 30
0.0
 11
260.24594290858448
 21
294.92496665580421
 31
0.0
  0
ARC
  5
2F8
  8
0
 10
305.93882590858448
 20
303.08150465580428
 30
0.0
 40
1.5
 50
278.26918999999941
 51
352.45916799999969
  0
ARC
  5
2F9
  8
0
 10
247.94475790858451
 20
310.75861865580418
 30
0.0
 40
60.0
 50
352.46985799999987
 51
7.540831999999897
  0
LINE
  5
2FA
  8
0
 10
306.15456190858453
 20
319.92013765580418
 30
0.0
 11
260.24594290858448
 21
326.59227065580421
 31
0.0
  0
ARC
  5
2FB
  8
0
 10
305.93882590858448
 20
318.4357326558042
 30
0.0
 40
1.5
 50
7.5408320000003064
 51
81.730810000000517
  0
ARC
  5
2FC
  8
0
 10
257.94475790858451
 20
310.75861865580418
 30
0.0
 40
16.0
 50
270.0
 51
90.0
  0
LINE
  5
2FD
  8
0
 10
247.94475790858451
 20
294.75861865580418
 30
0.0
 11
257.94475790858451
 21
294.75861865580418
 31
0.0
  0
LINE
  5
2FE
  8
0
 10
247.94475790858451
 20
326.75861865580418
 30
0.0
 11
257.94475790858451
 21
326.75861865580418
 31
0.0
  0
ARC
  5
2FF
  8
0
 10
247.94475790858451
 20
310.75861865580418
 30
0.0
 40
16.0
 50
90.0
 51
270.0
  0
CIRCLE
  5
300
  8
0
 10
247.94475790858451
 20
310.75861865580418
 30
0.0
 40
10.0
  0
ARC
  5
302
  8
0
 10
272.97196090858449
 20
199.05809065580411
 30
0.0
 40
10.0
 50
80.020701000000386
 51
90.0
  0
ARC
  5
303
  8
0
 10
306.44475790858451
 20
201.7989796558042
 30
0.0
 40
1.5
 50
0.0
 51
80.020700999997089
  0
ARC
  5
304
  8
0
 10
306.44475790858451
 20
192.55809065580411
 30
0.0
 40
1.5
 50
270.0
 51
0.0
  0
LINE
  5
306
  8
0
 10
306.70469690858448
 20
203.2762846558042
 30
0.0
 11
274.70488490858452
 21
208.90679465580411
 31
0.0
  0
LINE
  5
307
  8
0
 10
307.94475790858451
 20
192.55809065580411
 30
0.0
 11
307.94475790858451
 21
201.7989796558042
 31
0.0
  0
LINE
  5
308
  8
1
 10
247.94475790858451
 20
230.05809065580419
 30
0.0
 11
247.94475790858451
 21
50.758618655804213
 31
0.0
  0
LINE
  5
309
  8
0
 10
255.55911690858451
 20
220.05809065580411
 30
0.0
 11
240.3303989085845
 21
220.05809065580411
 31
0.0
  0
LINE
  5
30A
  8
0
 10
256.94475790858451
 20
219.25809065580421
 30
0.0
 11
238.94475790858451
 21
219.25809065580421
 31
0.0
  0
LINE
  5
30B
  8
0
 10
272.97196090858449
 20
209.05809065580411
 30
0.0
 11
232.74475790858449
 21
209.05809065580411
 31
0.0
  0
LINE
  5
30C
  8
0
 10
268.47232990858453
 20
192.05809065580411
 30
0.0
 11
232.74475790858449
 21
192.05809065580411
 31
0.0
  0
LINE
  5
30D
  8
2
 10
259.44475790858451
 20
152.05809065580419
 30
0.0
 11
236.44475790858451
 21
152.05809065580419
 31
0.0
  0
LINE
  5
30E
  8
2
 10
260.44475790858451
 20
153.05809065580419
 30
0.0
 11
235.44475790858451
 21
153.05809065580419
 31
0.0
  0
LINE
  5
30F
  8
2
 10
253.94475790858451
 20
130.05809065580419
 30
0.0
 11
241.94475790858451
 21
130.05809065580419
 31
0.0
  0
LINE
  5
310
  8
2
 10
251.94475790858451
 20
128.05809065580419
 30
0.0
 11
243.94475790858451
 21
128.05809065580419
 31
0.0
  0
LINE
  5
311
  8
2
 10
241.94475790858451
 20
130.05809065580419
 30
0.0
 11
241.94475790858451
 21
152.05809065580419
 31
0.0
  0
LINE
  5
312
  8
2
 10
253.94475790858451
 20
130.05809065580419
 30
0.0
 11
253.94475790858451
 21
152.05809065580419
 31
0.0
  0
LINE
  5
314
  8
0
 10
269.5224559085845
 20
191.05809065580411
 30
0.0
 11
306.44475790858451
 21
191.05809065580411
 31
0.0
  0
LINE
  5
315
  8
0
 10
238.94475790858451
 20
209.05809065580411
 30
0.0
 11
238.94475790858451
 21
219.25809065580421
 31
0.0
  0
LINE
  5
316
  8
0
 10
238.94475790858451
 20
219.25809065580421
 30
0.0
 11
240.3303989085845
 21
220.05809065580411
 31
0.0
  0
LINE
  5
317
  8
0
 10
256.94475790858451
 20
219.25809065580421
 30
0.0
 11
255.55911690858451
 21
220.05809065580411
 31
0.0
  0
LINE
  5
318
  8
0
 10
256.94475790858451
 20
209.05809065580411
 30
0.0
 11
256.94475790858451
 21
219.25809065580421
 31
0.0
  0
LINE
  5
319
  8
0
 10
231.94475790858451
 20
208.25809065580421
 30
0.0
 11
231.94475790858451
 21
192.85809065580409
 31
0.0
  0
LINE
  5
31A
  8
0
 10
235.94475790858451
 20
191.6580906558041
 30
0.0
 11
235.94475790858451
 21
190.75861865580421
 31
0.0
  0
LINE
  5
31C
  8
2
 10
235.44475790858451
 20
190.05809065580411
 30
0.0
 11
235.44475790858451
 21
153.05809065580419
 31
0.0
  0
LINE
  5
31D
  8
2
 10
260.44475790858451
 20
153.05809065580419
 30
0.0
 11
260.44475790858451
 21
190.05809065580411
 31
0.0
  0
LINE
  5
31F
  8
0
 10
259.94475790858451
 20
190.75861865580421
 30
0.0
 11
259.94475790858451
 21
191.6580906558041
 31
0.0
  0
ARC
  5
320
  8
0
 10
232.74475790858449
 20
208.25809065580421
 30
0.0
 40
0.8
 50
90.0
 51
180.0
  0
ARC
  5
321
  8
0
 10
232.74475790858449
 20
192.85809065580409
 30
0.0
 40
0.8
 50
180.0
 51
270.0
  0
ARC
  5
322
  8
0
 10
235.5447579085845
 20
191.6580906558041
 30
0.0
 40
0.4
 50
0.0
 51
90.0
  0
ARC
  5
323
  8
0
 10
260.34475790858448
 20
191.6580906558041
 30
0.0
 40
0.4
 50
90.0
 51
180.0
  0
LINE
  5
324
  8
2
 10
260.44475790858451
 20
153.05809065580419
 30
0.0
 11
259.44475790858451
 21
152.05809065580419
 31
0.0
  0
LINE
  5
325
  8
2
 10
236.44475790858451
 20
152.05809065580419
 30
0.0
 11
235.44475790858451
 21
153.05809065580419
 31
0.0
  0
LINE
  5
326
  8
2
 10
260.44475790858451
 20
190.05809065580411
 30
0.0
 11
235.44475790858451
 21
190.05809065580411
 31
0.0
  0
LINE
  5
327
  8
2
 10
243.94475790858451
 20
128.05809065580419
 30
0.0
 11
241.94475790858451
 21
130.05809065580419
 31
0.0
  0
LINE
  5
328
  8
2
 10
242.76675790858451
 20
152.05809065580419
 30
0.0
 11
242.76675790858451
 21
129.23609065580419
 31
0.0
  0
LINE
  5
329
  8
2
 10
253.1227579085845
 20
152.05809065580419
 30
0.0
 11
253.1227579085845
 21
129.23609065580419
 31
0.0
  0
LINE
  5
32A
  8
2
 10
251.94475790858451
 20
128.05809065580419
 30
0.0
 11
253.94475790858451
 21
130.05809065580419
 31
0.0
  0
LINE
  5
32C
  8
0
 10
98.804933908584545
 20
192.05809065580411
 30
0.0
 11
99.012423857911585
 21
190.75861865580421
 31
0.0
  0
LINE
  5
32E
  8
0
 10
128.14475790858441
 20
192.05809065580411
 30
0.0
 11
127.0845819085845
 21
192.05809065580411
 31
0.0
  0
ARC
  5
32F
  8
0
 10
128.14475790858441
 20
192.85809065580409
 30
0.0
 40
0.8
 50
270.0
 51
0.0
  0
LINE
  5
332
  8
0
 10
127.0845819085845
 20
192.05809065580411
 30
0.0
 11
126.8770919592574
 21
190.75861865580421
 31
0.0
  0
LINE
  5
333
  8
0
 10
128.14475790858441
 20
192.05809065580411
 30
0.0
 11
97.744757908584461
 21
192.05809065580411
 31
0.0
  0
LINE
  5
334
  8
0
 10
128.14475790858441
 20
209.05809065580411
 30
0.0
 11
97.744757908584461
 21
209.05809065580411
 31
0.0
  0
ARC
  5
335
  8
0
 10
128.14475790858441
 20
192.85809065580409
 30
0.0
 40
0.8
 50
270.0
 51
0.0
  0
ARC
  5
336
  8
0
 10
128.14475790858441
 20
208.25809065580421
 30
0.0
 40
0.8
 50
0.0
 51
90.0
  0
LINE
  5
337
  8
0
 10
128.94475790858451
 20
208.25809065580421
 30
0.0
 11
128.94475790858451
 21
192.85809065580409
 31
0.0
  0
LINE
  5
339
  8
2
 10
116.94475790858451
 20
128.05809065580419
 30
0.0
 11
118.94475790858451
 21
130.05809065580419
 31
0.0
  0
LINE
  5
33A
  8
2
 10
118.1227579085845
 20
152.05809065580419
 30
0.0
 11
118.1227579085845
 21
129.23609065580419
 31
0.0
  0
LINE
  5
33B
  8
2
 10
107.7667579085844
 20
152.05809065580419
 30
0.0
 11
107.7667579085844
 21
129.23609065580419
 31
0.0
  0
LINE
  5
33C
  8
2
 10
108.94475790858451
 20
128.05809065580419
 30
0.0
 11
106.94475790858451
 21
130.05809065580419
 31
0.0
  0
LINE
  5
33D
  8
2
 10
125.44475790858451
 20
190.05809065580411
 30
0.0
 11
100.44475790858451
 21
190.05809065580411
 31
0.0
  0
LINE
  5
33E
  8
2
 10
101.44475790858451
 20
152.05809065580419
 30
0.0
 11
100.44475790858451
 21
153.05809065580419
 31
0.0
  0
LINE
  5
33F
  8
2
 10
125.44475790858451
 20
153.05809065580419
 30
0.0
 11
124.44475790858451
 21
152.05809065580419
 31
0.0
  0
ARC
  5
340
  8
0
 10
125.3447579085845
 20
191.6580906558041
 30
0.0
 40
0.4
 50
90.0
 51
180.0
  0
ARC
  5
341
  8
0
 10
100.5447579085845
 20
191.6580906558041
 30
0.0
 40
0.4
 50
0.0
 51
90.0
  0
ARC
  5
342
  8
0
 10
97.744757908584461
 20
192.85809065580409
 30
0.0
 40
0.8
 50
180.0
 51
270.0
  0
ARC
  5
343
  8
0
 10
97.744757908584461
 20
208.25809065580421
 30
0.0
 40
0.8
 50
90.0
 51
180.0
  0
LINE
  5
344
  8
0
 10
124.94475790858451
 20
190.75861865580421
 30
0.0
 11
124.94475790858451
 21
191.6580906558041
 31
0.0
  0
LINE
  5
346
  8
2
 10
125.44475790858451
 20
153.05809065580419
 30
0.0
 11
125.44475790858451
 21
190.05809065580411
 31
0.0
  0
LINE
  5
347
  8
2
 10
100.44475790858451
 20
190.05809065580411
 30
0.0
 11
100.44475790858451
 21
153.05809065580419
 31
0.0
  0
LINE
  5
349
  8
0
 10
100.94475790858451
 20
191.6580906558041
 30
0.0
 11
100.94475790858451
 21
190.75861865580421
 31
0.0
  0
LINE
  5
34A
  8
0
 10
96.944757908584506
 20
208.25809065580421
 30
0.0
 11
96.944757908584506
 21
192.85809065580409
 31
0.0
  0
LINE
  5
34B
  8
0
 10
121.94475790858451
 20
209.05809065580411
 30
0.0
 11
121.94475790858451
 21
219.25809065580421
 31
0.0
  0
LINE
  5
34C
  8
0
 10
121.94475790858451
 20
219.25809065580421
 30
0.0
 11
120.5591169085845
 21
220.05809065580411
 31
0.0
  0
LINE
  5
34D
  8
0
 10
103.94475790858451
 20
219.25809065580421
 30
0.0
 11
105.3303989085844
 21
220.05809065580411
 31
0.0
  0
LINE
  5
34E
  8
0
 10
103.94475790858451
 20
209.05809065580411
 30
0.0
 11
103.94475790858451
 21
219.25809065580421
 31
0.0
  0
LINE
  5
350
  8
2
 10
118.94475790858451
 20
130.05809065580419
 30
0.0
 11
118.94475790858451
 21
152.05809065580419
 31
0.0
  0
LINE
  5
351
  8
2
 10
106.94475790858451
 20
130.05809065580419
 30
0.0
 11
106.94475790858451
 21
152.05809065580419
 31
0.0
  0
LINE
  5
352
  8
2
 10
116.94475790858451
 20
128.05809065580419
 30
0.0
 11
108.94475790858451
 21
128.05809065580419
 31
0.0
  0
LINE
  5
353
  8
2
 10
118.94475790858451
 20
130.05809065580419
 30
0.0
 11
106.94475790858451
 21
130.05809065580419
 31
0.0
  0
LINE
  5
354
  8
2
 10
125.44475790858451
 20
153.05809065580419
 30
0.0
 11
100.44475790858451
 21
153.05809065580419
 31
0.0
  0
LINE
  5
355
  8
2
 10
124.44475790858451
 20
152.05809065580419
 30
0.0
 11
101.44475790858451
 21
152.05809065580419
 31
0.0
  0
LINE
  5
356
  8
0
 10
121.94475790858451
 20
219.25809065580421
 30
0.0
 11
103.94475790858451
 21
219.25809065580421
 31
0.0
  0
LINE
  5
357
  8
0
 10
120.5591169085845
 20
220.05809065580411
 30
0.0
 11
105.3303989085844
 21
220.05809065580411
 31
0.0
  0
LINE
  5
358
  8
1
 10
112.94475790858451
 20
230.05809065580419
 30
0.0
 11
112.94475790858451
 21
50.758618655804213
 31
0.0
  0
LINE
  5
359
  8
0
 10
397.0864869085845
 20
202.36147565580421
 30
0.0
 11
403.14475790858449
 21
208.25809065580421
 31
0.0
  0
LINE
  5
35A
  8
0
 10
378.80302890858451
 20
202.36147565580421
 30
0.0
 11
372.74475790858452
 21
208.25809065580421
 31
0.0
  0
ARC
  5
35B
  8
0
 10
379.60302890858452
 20
201.5614756558042
 30
0.0
 40
0.8
 50
90.0
 51
180.0
  0
ARC
  5
35C
  8
0
 10
396.28648690858449
 20
201.5614756558042
 30
0.0
 40
0.8
 50
0.0
 51
90.0
  0
ARC
  5
35D
  8
0
 10
396.28648690858449
 20
191.25024965580411
 30
0.0
 40
0.8
 50
270.0
 51
0.0
  0
ARC
  5
35E
  8
0
 10
379.60302890858452
 20
191.25024965580411
 30
0.0
 40
0.8
 50
180.0
 51
270.0
  0
LINE
  5
35F
  8
0
 10
396.28648690858449
 20
202.36147565580421
 30
0.0
 11
379.60302890858452
 21
202.36147565580421
 31
0.0
  0
LINE
  5
360
  8
0
 10
397.0864869085845
 20
191.25024965580411
 30
0.0
 11
397.0864869085845
 21
201.5614756558042
 31
0.0
  0
LINE
  5
361
  8
0
 10
378.80302890858451
 20
201.5614756558042
 30
0.0
 11
378.80302890858451
 21
191.25024965580411
 31
0.0
  0
LINE
  5
362
  8
2
 10
399.94475790858451
 20
190.45024965580421
 30
0.0
 11
399.94475790858451
 21
190.05809065580411
 31
0.0
  0
LINE
  5
363
  8
0
 10
402.08458190858443
 20
192.05809065580411
 30
0.0
 11
403.14475790858449
 21
192.05809065580411
 31
0.0
  0
LINE
  5
364
  8
0
 10
374.06166190858448
 20
190.45024965580421
 30
0.0
 11
401.82785390858447
 21
190.45024965580421
 31
0.0
  0
LINE
  5
365
  8
0
 10
373.80493390858447
 20
192.05809065580411
 30
0.0
 11
374.06166190858448
 21
190.45024965580421
 31
0.0
  0
LINE
  5
366
  8
0
 10
402.08458190858443
 20
192.05809065580411
 30
0.0
 11
401.82785390858447
 21
190.45024965580421
 31
0.0
  0
LINE
  5
367
  8
1
 10
387.94475790858451
 20
230.05809065580419
 30
0.0
 11
387.94475790858451
 21
50.758618655804213
 31
0.0
  0
LINE
  5
368
  8
0
 10
380.33039890858453
 20
220.05809065580411
 30
0.0
 11
395.55911690858449
 21
220.05809065580411
 31
0.0
  0
LINE
  5
369
  8
0
 10
378.94475790858451
 20
219.25809065580421
 30
0.0
 11
396.94475790858451
 21
219.25809065580421
 31
0.0
  0
LINE
  5
36A
  8
2
 10
376.44475790858451
 20
152.05809065580419
 30
0.0
 11
399.44475790858451
 21
152.05809065580419
 31
0.0
  0
LINE
  5
36B
  8
2
 10
375.44475790858451
 20
153.05809065580419
 30
0.0
 11
400.44475790858439
 21
153.05809065580419
 31
0.0
  0
LINE
  5
36C
  8
2
 10
381.94475790858451
 20
130.05809065580419
 30
0.0
 11
393.94475790858451
 21
130.05809065580419
 31
0.0
  0
LINE
  5
36D
  8
2
 10
383.94475790858451
 20
128.05809065580419
 30
0.0
 11
391.94475790858451
 21
128.05809065580419
 31
0.0
  0
LINE
  5
36E
  8
2
 10
393.94475790858451
 20
130.05809065580419
 30
0.0
 11
393.94475790858451
 21
152.05809065580419
 31
0.0
  0
LINE
  5
36F
  8
2
 10
381.94475790858451
 20
130.05809065580419
 30
0.0
 11
381.94475790858451
 21
152.05809065580419
 31
0.0
  0
LINE
  5
371
  8
0
 10
396.94475790858451
 20
209.05809065580411
 30
0.0
 11
396.94475790858451
 21
219.25809065580421
 31
0.0
  0
LINE
  5
372
  8
0
 10
396.94475790858451
 20
219.25809065580421
 30
0.0
 11
395.55911690858449
 21
220.05809065580411
 31
0.0
  0
LINE
  5
373
  8
0
 10
378.94475790858451
 20
219.25809065580421
 30
0.0
 11
380.33039890858453
 21
220.05809065580411
 31
0.0
  0
LINE
  5
374
  8
0
 10
378.94475790858451
 20
209.05809065580411
 30
0.0
 11
378.94475790858451
 21
219.25809065580421
 31
0.0
  0
LINE
  5
375
  8
0
 10
403.94475790858451
 20
208.25809065580421
 30
0.0
 11
403.94475790858451
 21
192.85809065580409
 31
0.0
  0
LINE
  5
377
  8
2
 10
400.44475790858439
 20
190.05809065580411
 30
0.0
 11
400.44475790858439
 21
153.05809065580419
 31
0.0
  0
LINE
  5
378
  8
2
 10
375.44475790858451
 20
153.05809065580419
 30
0.0
 11
375.44475790858451
 21
190.05809065580411
 31
0.0
  0
LINE
  5
37A
  8
2
 10
375.94475790858451
 20
190.05809065580411
 30
0.0
 11
375.94475790858451
 21
190.45024965580421
 31
0.0
  0
ARC
  5
37B
  8
0
 10
403.14475790858449
 20
208.25809065580421
 30
0.0
 40
0.8
 50
0.0
 51
90.0
  0
ARC
  5
37C
  8
0
 10
403.14475790858449
 20
192.85809065580409
 30
0.0
 40
0.8
 50
270.0
 51
0.0
  0
LINE
  5
37D
  8
2
 10
375.44475790858451
 20
153.05809065580419
 30
0.0
 11
376.44475790858451
 21
152.05809065580419
 31
0.0
  0
LINE
  5
37E
  8
2
 10
399.44475790858451
 20
152.05809065580419
 30
0.0
 11
400.44475790858439
 21
153.05809065580419
 31
0.0
  0
LINE
  5
37F
  8
2
 10
375.44475790858451
 20
190.05809065580411
 30
0.0
 11
400.44475790858439
 21
190.05809065580411
 31
0.0
  0
LINE
  5
380
  8
2
 10
391.94475790858451
 20
128.05809065580419
 30
0.0
 11
393.94475790858451
 21
130.05809065580419
 31
0.0
  0
LINE
  5
381
  8
2
 10
393.1227579085845
 20
152.05809065580419
 30
0.0
 11
393.1227579085845
 21
129.23609065580419
 31
0.0
  0
LINE
  5
382
  8
2
 10
382.76675790858451
 20
152.05809065580419
 30
0.0
 11
382.76675790858451
 21
129.23609065580419
 31
0.0
  0
LINE
  5
383
  8
2
 10
383.94475790858451
 20
128.05809065580419
 30
0.0
 11
381.94475790858451
 21
130.05809065580419
 31
0.0
  0
LINE
  5
385
  8
0
 10
371.94475790858451
 20
208.25809065580421
 30
0.0
 11
371.94475790858451
 21
192.85809065580409
 31
0.0
  0
ARC
  5
386
  8
0
 10
372.74475790858452
 20
208.25809065580421
 30
0.0
 40
0.8
 50
90.0
 51
180.0
  0
ARC
  5
387
  8
0
 10
372.74475790858452
 20
192.85809065580409
 30
0.0
 40
0.8
 50
180.0
 51
270.0
  0
LINE
  5
388
  8
0
 10
372.74475790858452
 20
209.05809065580411
 30
0.0
 11
403.14475790858449
 21
209.05809065580411
 31
0.0
  0
LINE
  5
389
  8
0
 10
372.74475790858452
 20
192.05809065580411
 30
0.0
 11
373.80493390858447
 21
192.05809065580411
 31
0.0
  0
ARC
  5
38A
  8
0
 10
253.0447579085845
 20
90.358618655804193
 30
0.0
 40
0.4
 50
90.0
 51
180.0
  0
LINE
  5
38B
  8
0
 10
266.94475790858451
 20
90.758618655804185
 30
0.0
 11
267.94475790858451
 21
91.758618655804199
 31
0.0
  0
ARC
  5
38C
  8
0
 10
242.84475790858451
 20
90.358618655804193
 30
0.0
 40
0.4
 50
0.0
 51
90.0
  0
LINE
  5
38D
  8
0
 10
228.94475790858451
 20
90.758618655804185
 30
0.0
 11
227.94475790858451
 21
91.758618655804199
 31
0.0
  0
LINE
  5
38E
  8
0
 10
228.94475790858451
 20
90.758618655804185
 30
0.0
 11
266.94475790858451
 21
90.758618655804185
 31
0.0
  0
LINE
  5
38F
  8
0
 10
227.99740190858449
 20
120.7586186558042
 30
0.0
 11
227.99740190858449
 21
100.7586186558041
 31
0.0
  0
LINE
  5
390
  8
0
 10
236.71519990858451
 20
120.7586186558042
 30
0.0
 11
236.71519990858451
 21
100.7586186558041
 31
0.0
  0
LINE
  5
391
  8
0
 10
239.22695990858449
 20
120.7586186558042
 30
0.0
 11
239.22695990858449
 21
100.7586186558041
 31
0.0
  0
LINE
  5
392
  8
0
 10
256.66255590858452
 20
120.7586186558042
 30
0.0
 11
256.66255590858452
 21
100.7586186558041
 31
0.0
  0
LINE
  5
393
  8
0
 10
256.66255590858452
 20
120.7586186558042
 30
0.0
 11
239.22695990858449
 21
120.7586186558042
 31
0.0
  0
LINE
  5
394
  8
0
 10
256.66255590858452
 20
100.7586186558041
 30
0.0
 11
239.22695990858449
 21
100.7586186558041
 31
0.0
  0
ARC
  5
395
  8
0
 10
247.94475790858451
 20
88.427003655804185
 30
0.0
 40
33.486316000000002
 50
74.909815000002141
 51
105.0901849999978
  0
ARC
  5
396
  8
0
 10
247.94475790858451
 20
133.09023365580421
 30
0.0
 40
33.486316000000002
 50
254.9098150000022
 51
285.0901849999978
  0
ARC
  5
397
  8
0
 10
232.3563009085845
 20
108.4085096558041
 30
0.0
 40
8.8045919999999978
 50
240.32556000000099
 51
299.67443999999892
  0
ARC
  5
398
  8
0
 10
232.3563009085845
 20
113.1087276558042
 30
0.0
 40
8.8045919999999978
 50
60.325560000001033
 51
119.6744399999989
  0
LINE
  5
399
  8
0
 10
236.71519990858451
 20
100.7586186558041
 30
0.0
 11
227.99740190858449
 21
100.7586186558041
 31
0.0
  0
LINE
  5
39A
  8
0
 10
236.71519990858451
 20
120.7586186558042
 30
0.0
 11
227.99740190858449
 21
120.7586186558042
 31
0.0
  0
LINE
  5
39B
  8
0
 10
259.1743159085845
 20
120.7586186558042
 30
0.0
 11
267.89211390858441
 21
120.7586186558042
 31
0.0
  0
LINE
  5
39C
  8
0
 10
259.1743159085845
 20
100.7586186558041
 30
0.0
 11
267.89211390858441
 21
100.7586186558041
 31
0.0
  0
ARC
  5
39D
  8
0
 10
263.53321490858451
 20
113.1087276558042
 30
0.0
 40
8.8045919999999978
 50
60.325560000001033
 51
119.6744399999989
  0
ARC
  5
39E
  8
0
 10
263.53321490858451
 20
108.4085096558041
 30
0.0
 40
8.8045919999999978
 50
240.32556000000099
 51
299.67443999999892
  0
LINE
  5
39F
  8
0
 10
259.1743159085845
 20
120.7586186558042
 30
0.0
 11
259.1743159085845
 21
100.7586186558041
 31
0.0
  0
LINE
  5
3A0
  8
0
 10
267.89211390858441
 20
120.7586186558042
 30
0.0
 11
267.89211390858441
 21
100.7586186558041
 31
0.0
  0
LINE
  5
3A1
  8
3
 10
252.9977579085845
 20
87.261389655804194
 30
0.0
 11
252.9977579085845
 21
61.811618655804168
 31
0.0
  0
LINE
  5
3A2
  8
3
 10
242.89175790858451
 20
87.261389655804194
 30
0.0
 11
242.89175790858451
 21
61.811618655804168
 31
0.0
  0
LINE
  5
3A3
  8
0
 10
252.64475790858449
 20
90.358618655804193
 30
0.0
 11
252.64475790858449
 21
87.65861865580419
 31
0.0
  0
LINE
  5
3A4
  8
0
 10
253.94475790858451
 20
87.258618655804185
 30
0.0
 11
253.94475790858451
 21
62.75861865580417
 31
0.0
  0
LINE
  5
3A5
  8
0
 10
253.94475790858451
 20
62.75861865580417
 30
0.0
 11
251.94475790858451
 21
60.75861865580417
 31
0.0
  0
ARC
  5
3A6
  8
0
 10
253.0447579085845
 20
87.65861865580419
 30
0.0
 40
0.4
 50
180.0
 51
270.0
  0
LINE
  5
3A7
  8
0
 10
253.94475790858451
 20
87.258618655804185
 30
0.0
 11
253.63225790858451
 21
87.258618655804185
 31
0.0
  0
LINE
  5
3A8
  8
0
 10
243.94475790858451
 20
60.75861865580417
 30
0.0
 11
251.94475790858451
 21
60.75861865580417
 31
0.0
  0
LINE
  5
3A9
  8
0
 10
241.94475790858451
 20
62.75861865580417
 30
0.0
 11
253.94475790858451
 21
62.75861865580417
 31
0.0
  0
LINE
  5
3AA
  8
0
 10
241.94475790858451
 20
87.258618655804185
 30
0.0
 11
253.94475790858451
 21
87.258618655804185
 31
0.0
  0
LINE
  5
3AB
  8
0
 10
267.94475790858451
 20
189.75861865580421
 30
0.0
 11
267.94475790858451
 21
91.758618655804199
 31
0.0
  0
LINE
  5
3AC
  8
0
 10
266.94475790858451
 20
190.75861865580421
 30
0.0
 11
267.94475790858451
 21
189.75861865580421
 31
0.0
  0
ARC
  5
3AD
  8
0
 10
242.84475790858451
 20
87.65861865580419
 30
0.0
 40
0.4
 50
270.0
 51
0.0
  0
LINE
  5
3AE
  8
0
 10
241.94475790858451
 20
62.75861865580417
 30
0.0
 11
243.94475790858451
 21
60.75861865580417
 31
0.0
  0
LINE
  5
3AF
  8
0
 10
228.94475790858451
 20
190.75861865580421
 30
0.0
 11
227.94475790858451
 21
189.75861865580421
 31
0.0
  0
LINE
  5
3B0
  8
0
 10
241.94475790858451
 20
87.258618655804185
 30
0.0
 11
241.94475790858451
 21
62.75861865580417
 31
0.0
  0
LINE
  5
3B1
  8
0
 10
243.24475790858449
 20
90.358618655804193
 30
0.0
 11
243.24475790858449
 21
87.65861865580419
 31
0.0
  0
LINE
  5
3B2
  8
0
 10
227.94475790858451
 20
189.75861865580421
 30
0.0
 11
227.94475790858451
 21
91.758618655804199
 31
0.0
  0
LINE
  5
3B3
  8
0
 10
266.94475790858451
 20
190.75861865580421
 30
0.0
 11
228.94475790858451
 21
190.75861865580421
 31
0.0
  0
LINE
  5
400
  8
0
 10
269.5224559085845
 20
191.05809065580411
 30
0.0
 11
268.47232990858453
 21
192.05809065580411
 31
0.0
  0
LINE
  5
414
  8
0
 10
374.01242385791147
 20
190.75861865580421
 30
0.0
 11
368.94475790858451
 21
190.75861865580421
 31
0.0
  0
LINE
  5
41E
  8
2
 10
259.94475790858451
 20
190.75861865580421
 30
0.0
 11
259.94475790858451
 21
190.05809065580411
 31
0.0
  0
LINE
  5
41F
  8
2
 10
235.94475790858451
 20
190.75861865580421
 30
0.0
 11
235.94475790858451
 21
190.05809065580411
 31
0.0
  0
LINE
  5
420
  8
2
 10
124.94475790858451
 20
190.75861865580421
 30
0.0
 11
124.94475790858451
 21
190.05809065580411
 31
0.0
  0
LINE
  5
421
  8
2
 10
100.94475790858451
 20
190.75861865580421
 30
0.0
 11
100.94475790858451
 21
190.05809065580411
 31
0.0
  0
TEXT
  5
5B9
  8
0
 62
     3
 10
0.0
 20
0.0
 30
0.0
 40
10.0
  1
BJ130-12060A2
  7
STANDARD1
  0
ENDSEC
  0
EOF
