  0
SECTION
  2
HEADER
  9
$ACADVER
  1
AC1009
  9
$INSBASE
 10
0.0
 20
0.0
 30
0.0
  9
$EXTMIN
 10
0.0
 20
-2.960436562073669
 30
0.0
  9
$EXTMAX
 10
315.20119068590071
 20
221.94890165038871
 30
0.0
  9
$LIMMIN
 10
0.0
 20
0.0
  9
$LIMMAX
 10
390.0
 20
270.0
  9
$ORTHOMODE
 70
     1
  9
$REGENMODE
 70
     1
  9
$FILLMODE
 70
     1
  9
$QTEXTMODE
 70
     0
  9
$MIRRTEXT
 70
     0
  9
$DRAGMODE
 70
     2
  9
$LTSCALE
 40
5.0
  9
$OSMODE
 70
  3071
  9
$ATTMODE
 70
     1
  9
$TEXTSIZE
 40
2.5
  9
$TRACEWID
 40
1.0
  9
$TEXTSTYLE
  7
STANDARD
  9
$CLAYER
  8
4
  9
$CELTYPE
  6
BYLAYER
  9
$CECOLOR
 62
   256
  9
$DIMSCALE
 40
1.5
  9
$DIMASZ
 40
3.0
  9
$DIMEXO
 40
1.0
  9
$DIMDLI
 40
6.0
  9
$DIMRND
 40
0.0
  9
$DIMDLE
 40
0.0
  9
$DIMEXE
 40
1.0
  9
$DIMTP
 40
495.0
  9
$DIMTM
 40
0.0
  9
$DIMTXT
 40
3.2000000000000002
  9
$DIMCEN
 40
0.0
  9
$DIMTSZ
 40
0.0
  9
$DIMTOL
 70
     0
  9
$DIMLIM
 70
     0
  9
$DIMTIH
 70
     0
  9
$DIMTOH
 70
     0
  9
$DIMSE1
 70
     0
  9
$DIMSE2
 70
     0
  9
$DIMTAD
 70
     1
  9
$DIMZIN
 70
     0
  9
$DIMBLK
  1

  9
$DIMASO
 70
     0
  9
$DIMSHO
 70
     1
  9
$DIMPOST
  1

  9
$DIMAPOST
  1

  9
$DIMALT
 70
     0
  9
$DIMALTD
 70
     2
  9
$DIMALTF
 40
25.399999999999999
  9
$DIMLFAC
 40
1.0
  9
$DIMTOFL
 70
     1
  9
$DIMTVP
 40
0.0
  9
$DIMTIX
 70
     1
  9
$DIMSOXD
 70
     0
  9
$DIMSAH
 70
     0
  9
$DIMBLK1
  1

  9
$DIMBLK2
  1

  9
$DIMSTYLE
  2
ITM
  9
$DIMCLRD
 70
   256
  9
$DIMCLRE
 70
   256
  9
$DIMCLRT
 70
   256
  9
$DIMTFAC
 40
1.0
  9
$DIMGAP
 40
1.0
  9
$LUNITS
 70
     2
  9
$LUPREC
 70
     2
  9
$SKETCHINC
 40
1.0
  9
$FILLETRAD
 40
0.4
  9
$AUNITS
 70
     0
  9
$AUPREC
 70
     0
  9
$MENU
  1
.
  9
$ELEVATION
 40
0.0
  9
$PELEVATION
 40
0.0
  9
$THICKNESS
 40
0.0
  9
$LIMCHECK
 70
     0
  9
$BLIPMODE
 70
     0
  9
$CHAMFERA
 40
1.1999999999999991
  9
$CHAMFERB
 40
1.1999999999999991
  9
$SKPOLY
 70
     0
  9
$TDCREATE
 40
2453354.0921258219
  9
$TDUPDATE
 40
2456597.620928403
  9
$TDINDWG
 40
513.62148000000002
  9
$TDUSRTIMER
 40
513.6212020255
  9
$USRTIMER
 70
     1
  9
$ANGBASE
 50
0.0
  9
$ANGDIR
 70
     0
  9
$PDMODE
 70
     0
  9
$PDSIZE
 40
0.0
  9
$PLINEWID
 40
0.0
  9
$COORDS
 70
     1
  9
$SPLFRAME
 70
     0
  9
$SPLINETYPE
 70
     6
  9
$SPLINESEGS
 70
     8
  9
$ATTDIA
 70
     0
  9
$ATTREQ
 70
     1
  9
$HANDLING
 70
     1
  9
$HANDSEED
  5
4C2
  9
$SURFTAB1
 70
     6
  9
$SURFTAB2
 70
     6
  9
$SURFTYPE
 70
     6
  9
$SURFU
 70
     6
  9
$SURFV
 70
     6
  9
$UCSNAME
  2

  9
$UCSORG
 10
0.0
 20
0.0
 30
0.0
  9
$UCSXDIR
 10
1.0
 20
0.0
 30
0.0
  9
$UCSYDIR
 10
0.0
 20
1.0
 30
0.0
  9
$PUCSNAME
  2

  9
$PUCSORG
 10
0.0
 20
0.0
 30
0.0
  9
$PUCSXDIR
 10
1.0
 20
0.0
 30
0.0
  9
$PUCSYDIR
 10
0.0
 20
1.0
 30
0.0
  9
$USERI1
 70
     4
  9
$USERI2
 70
     1
  9
$USERI3
 70
     1
  9
$USERI4
 70
     0
  9
$USERI5
 70
     0
  9
$USERR1
 40
1.0
  9
$USERR2
 40
3.0
  9
$USERR3
 40
3.2000000000000002
  9
$USERR4
 40
3.0
  9
$USERR5
 40
10.0
  9
$WORLDVIEW
 70
     1
  9
$SHADEDGE
 70
     3
  9
$SHADEDIF
 70
    70
  9
$TILEMODE
 70
     1
  9
$MAXACTVP
 70
    16
  9
$PLIMCHECK
 70
     0
  9
$PEXTMIN
 10
0.0
 20
0.0
 30
0.0
  9
$PEXTMAX
 10
0.0
 20
0.0
 30
0.0
  9
$PLIMMIN
 10
0.0
 20
0.0
  9
$PLIMMAX
 10
12.0
 20
9.0
  9
$UNITMODE
 70
     0
  9
$VISRETAIN
 70
     0
  9
$PLINEGEN
 70
     0
  9
$PSLTSCALE
 70
     1
  0
ENDSEC
  0
SECTION
  2
TABLES
  0
TABLE
  2
VPORT
 70
     1
  0
VPORT
  2
*ACTIVE
 70
     0
 10
0.0
 20
0.0
 11
1.0
 21
1.0
 12
202.55787946771341
 22
133.5127261426681
 13
0.0
 23
0.0
 14
5.0
 24
5.0
 15
10.0
 25
10.0
 16
0.0
 26
0.0
 36
1.0
 17
0.0
 27
0.0
 37
0.0
 40
275.42274993631997
 41
1.831871345029239
 42
50.0
 43
0.0
 44
0.0
 50
0.0
 51
0.0
 71
    16
 72
   500
 73
     1
 74
     0
 75
     0
 76
     0
 77
     0
 78
     1
  0
ENDTAB
  0
TABLE
  2
LTYPE
 70
     4
  0
LTYPE
  2
CONTINUOUS
 70
     0
  3
Solid line
 72
    65
 73
     0
 40
0.0
  0
LTYPE
  2
CENTER
 70
     0
  3
____ _ ____ _ ____ _ ____ _ ____ _ ____ _ ____
 72
    65
 73
     4
 40
2.0
 49
1.25
 49
-0.25
 49
0.25
 49
-0.25
  0
LTYPE
  2
HIDDEN
 70
     0
  3
_ _ _ _ _ _ _ _ _ _ _ _ _ _ _ _ _ _ _ _ _ _ _
 72
    65
 73
     2
 40
0.375
 49
0.25
 49
-0.125
  0
LTYPE
  2
PHANTOM2
 70
     0
  3
___ _ _ ___ _ _ ___ _ _ ___ _ _
 72
    65
 73
     6
 40
1.25
 49
0.625
 49
-0.125
 49
0.125
 49
-0.125
 49
0.125
 49
-0.125
  0
ENDTAB
  0
TABLE
  2
LAYER
 70
     6
  0
LAYER
  2
0
 70
     0
 62
     7
  6
CONTINUOUS
  0
LAYER
  2
1
 70
     0
 62
     1
  6
CENTER
  0
LAYER
  2
WAKU
 70
     0
 62
     5
  6
CONTINUOUS
  0
LAYER
  2
4
 70
     0
 62
     4
  6
CONTINUOUS
  0
LAYER
  2
2
 70
     0
 62
     2
  6
HIDDEN
  0
LAYER
  2
3
 70
     0
 62
     3
  6
CONTINUOUS
  0
ENDTAB
  0
TABLE
  2
STYLE
 70
     3
  0
STYLE
  2
STANDARD
 70
     0
 40
0.0
 41
1.0
 50
0.0
 71
     0
 42
2.5
  3
ROMANS
  4
EXTFONT
  0
STYLE
  2
K
 70
     0
 40
0.0
 41
0.75
 50
0.0
 71
     0
 42
3.2000000000000002
  3
ROMANS.shx
  4
EXTFONT.shx
  0
STYLE
  2
STANDARD1
 70
     0
 40
0.0
 41
1.0
 50
0.0
 71
     0
 42
3.0
  3
txt
  4

  0
ENDTAB
  0
TABLE
  2
VIEW
 70
     0
  0
ENDTAB
  0
TABLE
  2
UCS
 70
     0
  0
ENDTAB
  0
TABLE
  2
APPID
 70
     3
  0
APPID
  2
ACAD
 70
     0
  0
APPID
  2
ACAD_MLEADERVER
 70
     0
  0
APPID
  2
ACAD_NAV_VCDISPLAY
 70
     0
  0
ENDTAB
  0
TABLE
  2
DIMSTYLE
 70
     2
  0
DIMSTYLE
  2
ITM
 70
     0
  3

  4

  5

  6

  7

 40
0.0
 41
2.5
 42
1.0
 43
6.0
 44
1.0
 45
0.0
 46
0.0
 47
495.0
 48
0.0
140
3.0
141
0.0
142
0.0
143
25.399999999999999
144
1.0
145
0.0
146
1.0
147
1.0
 71
     0
 72
     0
 73
     0
 74
     0
 75
     0
 76
     0
 77
     3
 78
     8
170
     0
171
     2
172
     1
173
     0
174
     0
175
     0
176
     0
177
     0
178
     0
  0
DIMSTYLE
  2
STANDARD
 70
     0
  3

  4

  5

  6

  7

 40
1.0
 41
0.18
 42
0.0625
 43
0.38
 44
0.18
 45
0.0
 46
0.0
 47
0.0
 48
0.0
140
0.18
141
0.09
142
0.0
143
25.399999999999999
144
1.0
145
0.0
146
1.0
147
0.09
 71
     0
 72
     0
 73
     1
 74
     1
 75
     0
 76
     0
 77
     0
 78
     0
170
     0
171
     2
172
     0
173
     0
174
     0
175
     0
176
     0
177
     0
178
     0
  0
ENDTAB
  0
ENDSEC
  0
SECTION
  2
BLOCKS
  0
BLOCK
  8
0
  2
$MODEL_SPACE
 70
     0
 10
0.0
 20
0.0
 30
0.0
  3
$MODEL_SPACE
  1

  0
ENDBLK
  5
12
  8
0
  0
BLOCK
 67
     1
  8
0
  2
$PAPER_SPACE
 70
     0
 10
0.0
 20
0.0
 30
0.0
  3
$PAPER_SPACE
  1

  0
ENDBLK
  5
19
 67
     1
  8
0
  0
BLOCK
  8
0
  2
ARROW1
 70
     0
 10
0.0
 20
0.0
 30
0.0
  3
ARROW1
  1

  0
SOLID
  5
4B
  8
WAKU
  6
CONTINUOUS
 62
     4
 10
-1.0
 20
0.1666666666666714
 30
0.0
 11
-1.0
 21
-0.1666666666666714
 31
0.0
 12
0.0
 22
0.0
 32
0.0
 13
0.0
 23
0.0
 33
0.0
  0
ENDBLK
  5
4D
  8
0
  0
ENDSEC
  0
SECTION
  2
ENTITIES
  0
LINE
  5
74
  8
0
 10
46.435398512192037
 20
85.629079183702686
 30
0.0
 11
46.435398512192037
 21
45.6290800777724
 31
0.0
  0
LINE
  5
75
  8
0
 10
66.435394401011095
 20
85.629079183702686
 30
0.0
 11
66.435394401011095
 21
45.6290800777724
 31
0.0
  0
LINE
  5
76
  8
1
 10
176.10897586385971
 20
154.47757798317281
 30
0.0
 11
158.02747186346261
 21
154.47770303651251
 31
0.0
  0
LINE
  5
79
  8
1
 10
176.1091660570163
 20
209.4777615407904
 30
0.0
 11
158.02766205618681
 21
209.4777615407904
 31
0.0
  0
LINE
  5
7A
  8
1
 10
167.06258654141749
 20
142.006500194582
 30
0.0
 11
167.06049667592561
 21
221.94890165038871
 31
0.0
  0
LINE
  5
7B
  8
1
 10
188.92370455744989
 20
181.97764031038179
 30
0.0
 11
122.58250119013201
 21
181.97764031038179
 31
0.0
  0
LINE
  5
7C
  8
0
 10
184.5684141311074
 20
171.9777617643079
 30
0.0
 11
184.5684141311074
 21
191.97776131727301
 31
0.0
  0
LINE
  5
7D
  8
0
 10
152.29819122880949
 20
164.47776146628451
 30
0.0
 11
181.83863688439379
 21
164.4777614662847
 31
0.0
  0
LINE
  5
7E
  8
0
 10
181.83863688439371
 20
199.47776161529629
 30
0.0
 11
152.2981912288094
 21
199.4777616152962
 31
0.0
  0
LINE
  5
7F
  8
0
 10
174.5592324453616
 20
219.4777630309066
 30
0.0
 11
159.57759566784139
 21
219.4777630309066
 31
0.0
  0
CIRCLE
  5
80
  8
0
 10
167.06841405660151
 20
209.4777615407904
 30
0.0
 40
5.9999999999999849
  0
LINE
  5
81
  8
0
 10
159.57759566784139
 20
219.4777630309066
 30
0.0
 11
150.73609098664571
 21
195.18592602403811
 31
0.0
  0
LINE
  5
82
  8
0
 10
184.5684141311074
 20
191.97775948520001
 30
0.0
 11
174.5592324453616
 21
219.4777630309066
 31
0.0
  0
LINE
  5
83
  8
0
 10
159.57759566784159
 20
144.47776005067431
 30
0.0
 11
174.5592324453618
 21
144.47776005067431
 31
0.0
  0
CIRCLE
  5
84
  8
0
 10
167.0684140566016
 20
154.4777615407904
 30
0.0
 40
5.9999999999999707
  0
LINE
  5
85
  8
0
 10
150.73613835835769
 20
168.76946690482009
 30
0.0
 11
159.57759566784159
 21
144.47776005067431
 31
0.0
  0
LINE
  5
86
  8
0
 10
174.5592324453618
 20
144.47776005067431
 30
0.0
 11
184.56841413110749
 21
171.97776359638081
 31
0.0
  0
CIRCLE
  5
87
  8
0
 10
167.06841405660151
 20
209.4777615407904
 30
0.0
 40
5.4999999999999849
  0
CIRCLE
  5
88
  8
0
 10
167.0684140566016
 20
154.4777615407904
 30
0.0
 40
5.4999999999999707
  0
LINE
  5
89
  8
0
 10
73.935396531107344
 20
59.62908050990616
 30
0.0
 11
73.935396531107259
 21
85.629079183702814
 31
0.0
  0
LINE
  5
8A
  8
0
 10
38.935396382095647
 20
85.629079183702686
 30
0.0
 11
73.935396531107259
 21
85.629079183702686
 31
0.0
  0
LINE
  5
8B
  8
0
 10
38.935396382095647
 20
85.629079183702686
 30
0.0
 11
38.935396382095732
 21
59.629080509906053
 31
0.0
  0
LINE
  5
8C
  8
1
 10
56.435396456601552
 20
15.64500695651895
 30
0.0
 11
56.435396456601403
 21
121.32443907905029
 31
0.0
  0
LINE
  5
8D
  8
0
 10
152.2980699984009
 20
85.629079183702686
 30
0.0
 11
152.29806999840079
 21
59.629080509906053
 31
0.0
  0
LINE
  5
8E
  8
0
 10
149.5682927516873
 20
85.629079183702729
 30
0.0
 11
149.56829275168721
 21
45.6290800777724
 31
0.0
  0
LINE
  5
8F
  8
0
 10
184.56829290069891
 20
85.629079183702586
 30
0.0
 11
184.56829290069879
 21
45.629080077772258
 31
0.0
  0
LINE
  5
90
  8
0
 10
181.8385156539853
 20
85.629079183702615
 30
0.0
 11
181.83851565398521
 21
59.629080509905933
 31
0.0
  0
LINE
  5
91
  8
0
 10
149.5682927516873
 20
85.629079183702729
 30
0.0
 11
184.56829290069891
 21
85.629079183702586
 31
0.0
  0
LINE
  5
92
  8
0
 10
65.378261978904675
 20
95.198301187960354
 30
0.0
 11
71.635396456601484
 21
100.8290818063073
 31
0.0
  0
LINE
  5
93
  8
0
 10
47.492530934298401
 20
95.198301187960354
 30
0.0
 11
41.235396456601357
 21
100.8290818063073
 31
0.0
  0
ARC
  5
94
  8
0
 10
48.292530934298348
 20
94.398301187960385
 30
0.0
 40
0.8
 50
90.0
 51
180.0
  0
ARC
  5
95
  8
0
 10
64.578261978904493
 20
94.398301187960385
 30
0.0
 40
0.8
 50
359.9999999999992
 51
90.0
  0
ARC
  5
96
  8
0
 10
64.578261978904493
 20
86.429079183702683
 30
0.0
 40
0.8
 50
270.0
 51
0.0
  0
ARC
  5
97
  8
0
 10
48.292530934298348
 20
86.429079183702683
 30
0.0
 40
0.8
 50
180.0
 51
270.0
  0
LINE
  5
98
  8
0
 10
64.578261978904493
 20
95.198301187960354
 30
0.0
 11
48.292530934298348
 21
95.198301187960354
 31
0.0
  0
LINE
  5
99
  8
0
 10
65.378261978904462
 20
86.429079183702669
 30
0.0
 11
65.378261978904675
 21
94.398301187960385
 31
0.0
  0
LINE
  5
9A
  8
0
 10
47.492530934298401
 20
94.398301187960385
 30
0.0
 11
47.492530934298387
 21
86.429079183702683
 31
0.0
  0
LINE
  5
9B
  8
0
 10
68.606185264762644
 20
86.629081806307269
 30
0.0
 11
71.635396456601484
 21
86.629081806307269
 31
0.0
  0
LINE
  5
9C
  8
0
 10
44.502204643705888
 20
85.629079183702871
 30
0.0
 11
68.368588269497209
 21
85.629079183702871
 31
0.0
  0
LINE
  5
9D
  8
0
 10
44.264607648440197
 20
86.629081806307269
 30
0.0
 11
44.447449272100123
 21
85.629079183702686
 31
0.0
  0
LINE
  5
9E
  8
0
 10
68.606185264762644
 20
86.629081806307269
 30
0.0
 11
68.423343641102903
 21
85.629079183702686
 31
0.0
  0
LINE
  5
9F
  8
0
 10
41.235396456601357
 20
86.629081806307269
 30
0.0
 11
44.264607648440197
 21
86.629081806307269
 31
0.0
  0
ARC
  5
A0
  8
0
 10
41.235396456601357
 20
87.429081806307238
 30
0.0
 40
0.8
 50
180.0
 51
270.0
  0
ARC
  5
A1
  8
0
 10
41.235396456601357
 20
100.8290818063073
 30
0.0
 40
0.8
 50
90.0
 51
180.0
  0
LINE
  5
A2
  8
0
 10
40.43539645660141
 20
100.8290818063073
 30
0.0
 11
40.43539645660141
 21
87.429081806307238
 31
0.0
  0
LINE
  5
A3
  8
0
 10
65.435396456601438
 20
101.6290818063072
 30
0.0
 11
65.435396456601438
 21
111.8290818063073
 31
0.0
  0
LINE
  5
A4
  8
0
 10
65.435396456601438
 20
111.8290818063073
 30
0.0
 11
64.049755810546458
 21
112.6290818063073
 31
0.0
  0
LINE
  5
A5
  8
0
 10
47.43539645660141
 20
111.8290818063073
 30
0.0
 11
48.821037102656618
 21
112.6290818063073
 31
0.0
  0
LINE
  5
A6
  8
0
 10
47.43539645660141
 20
101.6290818063072
 30
0.0
 11
47.43539645660141
 21
111.8290818063073
 31
0.0
  0
LINE
  5
A7
  8
0
 10
65.435396456601438
 20
101.6290818063072
 30
0.0
 11
71.635396456601484
 21
101.6290818063072
 31
0.0
  0
LINE
  5
A8
  8
0
 10
72.435396456601438
 20
100.8290818063073
 30
0.0
 11
72.435396456601438
 21
87.429081806307238
 31
0.0
  0
ARC
  5
A9
  8
0
 10
71.635396456601484
 20
100.8290818063073
 30
0.0
 40
0.8
 50
0.0
 51
90.0
  0
ARC
  5
AA
  8
0
 10
71.635396456601484
 20
87.429081806307238
 30
0.0
 40
0.8
 50
270.0
 51
0.0
  0
LINE
  5
AB
  8
0
 10
41.235396456601357
 20
101.6290818063072
 30
0.0
 11
65.435396456601438
 21
101.6290818063072
 31
0.0
  0
LINE
  5
AC
  8
0
 10
47.43539645660141
 20
111.8290818063073
 30
0.0
 11
65.435396456601438
 21
111.8290818063073
 31
0.0
  0
LINE
  5
AD
  8
0
 10
48.821037102656618
 20
112.6290818063073
 30
0.0
 11
64.049755810546458
 21
112.6290818063073
 31
0.0
  0
LINE
  5
AE
  8
0
 10
144.9685349921173
 20
86.629081806307184
 30
0.0
 11
182.268292826193
 21
86.62908180630717
 31
0.0
  0
ARC
  5
AF
  8
0
 10
179.46829282619311
 20
86.229081806307192
 30
0.0
 40
0.4
 50
90.0
 51
180.0
  0
ARC
  5
B0
  8
0
 10
154.66829282619301
 20
86.229081806307192
 30
0.0
 40
0.4
 50
0.000000000000007
 51
90.0
  0
LINE
  5
B1
  8
0
 10
159.453933472248
 20
112.6290818063071
 30
0.0
 11
174.68265218013789
 21
112.6290818063071
 31
0.0
  0
LINE
  5
B2
  8
0
 10
158.06829282619299
 20
111.8290818063071
 30
0.0
 11
176.06829282619299
 21
111.8290818063071
 31
0.0
  0
LINE
  5
B3
  8
0
 10
152.38481780206709
 20
101.6290818063071
 30
0.0
 11
176.06829282619299
 21
101.6290818063071
 31
0.0
  0
ARC
  5
B4
  8
0
 10
152.38481780206709
 20
91.62908180630717
 30
0.0
 40
10.0
 50
90.0
 51
104.9999999999996
  0
ARC
  5
B5
  8
0
 10
128.56829282619299
 20
87.129079183702885
 30
0.0
 40
1.5
 50
180.0
 51
270.0
  0
ARC
  5
B6
  8
0
 10
128.56829282619299
 20
94.047310705991777
 30
0.0
 40
1.5
 50
104.9999999999996
 51
180.0
  0
LINE
  5
B7
  8
0
 10
127.068292826193
 20
94.047310705991777
 30
0.0
 11
127.068292826193
 21
87.129079183702885
 31
0.0
  0
ARC
  5
B8
  8
0
 10
182.268292826193
 20
87.429081806307195
 30
0.0
 40
0.8
 50
270.0
 51
0.000000000000007
  0
ARC
  5
B9
  8
0
 10
182.268292826193
 20
100.8290818063071
 30
0.0
 40
0.8
 50
0.000000000000007
 51
90.0
  0
LINE
  5
BA
  8
0
 10
149.79662735104191
 20
101.2883400691979
 30
0.0
 11
128.18006425853909
 21
95.496199445425361
 31
0.0
  0
LINE
  5
BB
  8
0
 10
144.9685349921173
 20
86.629081806307184
 30
0.0
 11
143.9685323695129
 21
85.629079183702828
 31
0.0
  0
LINE
  5
BC
  8
0
 10
143.9685323695129
 20
85.629079183702828
 30
0.0
 11
128.56829282619299
 21
85.629079183702899
 31
0.0
  0
LINE
  5
BD
  8
0
 10
183.06829282619299
 20
100.8290818063071
 30
0.0
 11
183.06829282619299
 21
87.429081806307195
 31
0.0
  0
LINE
  5
BE
  8
0
 10
176.06829282619299
 20
101.6290818063071
 30
0.0
 11
182.268292826193
 21
101.6290818063071
 31
0.0
  0
LINE
  5
BF
  8
0
 10
158.06829282619299
 20
101.6290818063071
 30
0.0
 11
158.06829282619299
 21
111.8290818063071
 31
0.0
  0
LINE
  5
C0
  8
0
 10
158.06829282619299
 20
111.8290818063071
 30
0.0
 11
159.453933472248
 21
112.6290818063071
 31
0.0
  0
LINE
  5
C1
  8
0
 10
176.06829282619299
 20
111.8290818063071
 30
0.0
 11
174.68265218013789
 21
112.6290818063071
 31
0.0
  0
LINE
  5
C2
  8
0
 10
176.06829282619299
 20
101.6290818063071
 30
0.0
 11
176.06829282619299
 21
111.8290818063071
 31
0.0
  0
LINE
  5
C3
  8
0
 10
155.06829282619299
 20
86.229081806307192
 30
0.0
 11
155.06829282619299
 21
85.629079183702686
 31
0.0
  0
LINE
  5
C4
  8
0
 10
179.06829282619299
 20
86.229081806307192
 30
0.0
 11
179.06829282619299
 21
85.629079183702686
 31
0.0
  0
LINE
  5
C5
  8
0
 10
295.20118927029029
 20
85.629079183702871
 30
0.0
 11
295.20118927029017
 21
59.629080509906217
 31
0.0
  0
LINE
  5
C6
  8
0
 10
295.20118927029029
 20
85.629079183702871
 30
0.0
 11
260.20118912127867
 21
85.629079183702871
 31
0.0
  0
LINE
  5
C7
  8
0
 10
260.20118912127862
 20
59.629080509906331
 30
0.0
 11
260.20118912127867
 21
85.629079183702984
 31
0.0
  0
LINE
  5
C8
  8
0
 10
267.70119125137478
 20
85.629079183702871
 30
0.0
 11
267.70119125137478
 21
45.629080077772571
 31
0.0
  0
LINE
  5
C9
  8
0
 10
287.70118714019389
 20
85.629079183702871
 30
0.0
 11
287.70118714019389
 21
45.629080077772571
 31
0.0
  0
ARC
  5
CA
  8
0
 10
265.3011891957845
 20
86.229081210260688
 30
0.0
 40
0.4
 50
52.327495905288082
 51
90.0
  0
LINE
  5
CB
  8
0
 10
265.54564810230369
 20
86.545687974278977
 30
0.0
 11
265.71324190230132
 21
85.629079183702856
 31
0.0
  0
LINE
  5
CC
  8
0
 10
289.85673028926527
 20
86.545687974278977
 30
0.0
 11
289.6891364892677
 21
85.629079183702885
 31
0.0
  0
ARC
  5
CD
  8
0
 10
290.1011891957844
 20
86.229081210260688
 30
0.0
 40
0.4
 50
90.0
 51
127.6725040947119
  0
LINE
  5
CE
  8
0
 10
292.90118919578453
 20
86.629081210260679
 30
0.0
 11
262.5011891957846
 21
86.629081210260679
 31
0.0
  0
ARC
  5
CF
  8
0
 10
292.90118919578458
 20
87.429081806306385
 30
0.0
 40
0.8
 50
270.0
 51
0.0
  0
ARC
  5
D0
  8
0
 10
292.90118919578458
 20
100.82908180630631
 30
0.0
 40
0.8
 50
0.0
 51
90.0
  0
LINE
  5
D1
  8
0
 10
293.70118919578448
 20
100.82908180630631
 30
0.0
 11
293.70118919578448
 21
87.429081806306385
 31
0.0
  0
LINE
  5
D2
  8
0
 10
268.70118919578448
 20
101.6290818063064
 30
0.0
 11
268.70118919578471
 21
111.82908180630631
 31
0.0
  0
LINE
  5
D3
  8
0
 10
268.70118919578471
 20
111.82908180630631
 30
0.0
 11
270.08682984183969
 21
112.6290818063064
 31
0.0
  0
LINE
  5
D4
  8
0
 10
286.70118919578459
 20
111.82908180630631
 30
0.0
 11
285.31554854972961
 21
112.6290818063064
 31
0.0
  0
LINE
  5
D5
  8
0
 10
286.70118919578459
 20
101.6290818063064
 30
0.0
 11
286.70118919578459
 21
111.82908180630631
 31
0.0
  0
LINE
  5
D6
  8
0
 10
268.70118919578448
 20
101.6290818063064
 30
0.0
 11
262.5011891957846
 21
101.6290818063064
 31
0.0
  0
LINE
  5
D7
  8
0
 10
261.70118919578459
 20
100.82908180630631
 30
0.0
 11
261.70118919578459
 21
87.429081806306385
 31
0.0
  0
ARC
  5
D8
  8
0
 10
262.5011891957846
 20
100.82908180630631
 30
0.0
 40
0.8
 50
90.0
 51
180.0
  0
ARC
  5
D9
  8
0
 10
262.5011891957846
 20
87.429081806306385
 30
0.0
 40
0.8
 50
180.0
 51
270.0
  0
LINE
  5
DA
  8
0
 10
292.90118919578458
 20
101.6290818063063
 30
0.0
 11
268.70118919578448
 21
101.6290818063064
 31
0.0
  0
LINE
  5
DB
  8
0
 10
286.70118919578459
 20
111.82908180630631
 30
0.0
 11
268.70118919578471
 21
111.82908180630631
 31
0.0
  0
LINE
  5
DC
  8
0
 10
285.31554854972961
 20
112.6290818063064
 30
0.0
 11
270.08682984183969
 21
112.6290818063064
 31
0.0
  0
LINE
  5
DD
  8
1
 10
167.06829282619299
 20
15.64500695651895
 30
0.0
 11
167.0682928261929
 21
121.32443907905029
 31
0.0
  0
LINE
  5
DE
  8
1
 10
277.70118919578442
 20
15.64500695651895
 30
0.0
 11
277.70118919578431
 21
121.32443907905029
 31
0.0
  0
CIRCLE
  5
DF
  8
0
 10
167.06154160867149
 20
181.97770092248541
 30
0.0
 40
12.0
  0
CIRCLE
  5
E0
  8
0
 10
167.06154160867149
 20
181.97770092248541
 30
0.0
 40
10.0
  0
CIRCLE
  5
E1
  8
0
 10
167.06154160867149
 20
181.97770092248541
 30
0.0
 40
9.0
  0
LINE
  5
E2
  8
0
 10
129.4700600299189
 20
172.77208244052869
 30
0.0
 11
164.10205026353299
 21
166.25378884634961
 31
0.0
  0
LINE
  5
E3
  8
0
 10
129.4700600299189
 20
172.77208244052869
 30
0.0
 11
129.0514347954462
 21
172.85158893135011
 31
0.0
  0
ARC
  5
E4
  8
0
 10
129.3313160089541
 20
174.32524645816059
 30
0.0
 40
1.5
 50
191.5414049641457
 51
259.24630022315142
  0
ARC
  5
E5
  8
0
 10
167.06154160867149
 20
181.97770092248541
 30
0.0
 40
40.000000000000007
 50
180.0
 51
191.03010086479961
  0
LINE
  5
E6
  8
0
 10
129.4700600299189
 20
191.1833194044421
 30
0.0
 11
164.10205026353299
 21
197.70161299862119
 31
0.0
  0
ARC
  5
E7
  8
0
 10
129.3313160089541
 20
189.6301553868102
 30
0.0
 40
1.5
 50
100.75369977684861
 51
168.4585950358543
  0
ARC
  5
E8
  8
0
 10
167.06154160867149
 20
181.97770092248541
 30
0.0
 40
40.000000000000007
 50
168.96989913520031
 51
180.0
  0
LINE
  5
E9
  8
0
 10
129.0514347954462
 20
191.10381291362069
 30
0.0
 11
129.4700600299189
 21
191.1833194044421
 31
0.0
  0
ARC
  5
EA
  8
0
 10
167.02198617572409
 20
181.77749603685979
 30
0.0
 40
40.0
 50
168.23960723893299
 51
168.6775828327726
  0
ARC
  5
EB
  8
0
 10
167.02198617572421
 20
182.17790580811061
 30
0.0
 40
40.0
 50
191.3224171672266
 51
191.76039276106701
  0
ARC
  5
EC
  8
0
 10
167.06154160867149
 20
181.97770092248541
 30
0.0
 40
16.0
 50
259.34072107650837
 51
100.6592789234916
  0
ARC
  5
ED
  8
0
 10
167.06154160867149
 20
181.97770092248541
 30
0.0
 40
16.0
 50
128.3365562685598
 51
231.67080504276839
  0
LINE
  5
EE
  8
0
 10
164.17479026272349
 20
176.97770092248541
 30
0.0
 11
169.94829295461969
 21
176.97770092248541
 31
0.0
  0
LINE
  5
EF
  8
0
 10
169.94829295461969
 20
176.97770092248541
 30
0.0
 11
172.8350443005678
 21
181.97770092248541
 31
0.0
  0
LINE
  5
F0
  8
0
 10
172.8350443005678
 20
181.97770092248541
 30
0.0
 11
169.94829295461969
 21
186.9777009224853
 31
0.0
  0
LINE
  5
F1
  8
0
 10
169.94829295461969
 20
186.9777009224853
 30
0.0
 11
164.17479026272341
 21
186.97770092248541
 31
0.0
  0
LINE
  5
F2
  8
0
 10
164.17479026272341
 20
186.97770092248541
 30
0.0
 11
161.28803891677529
 21
181.97770092248541
 31
0.0
  0
LINE
  5
F3
  8
0
 10
161.28803891677541
 20
181.97770092248541
 30
0.0
 11
164.17479026272341
 21
176.97770092248541
 31
0.0
  0
LINE
  5
2AF
  8
2
 10
265.20118900952008
 20
45.629080077772478
 30
0.0
 11
265.20118900952002
 21
85.629079183702828
 31
0.0
  0
LINE
  5
2B0
  8
2
 10
290.20118938204899
 20
85.629079183702899
 30
0.0
 11
290.20118938204911
 21
45.629080077772571
 31
0.0
  0
LINE
  5
2B1
  8
1
 10
305.20118919578459
 20
44.129080077772628
 30
0.0
 11
305.20118919578459
 21
61.129080077772628
 31
0.0
  0
LINE
  5
2B2
  8
0
 10
315.20119068590071
 20
45.629080077772677
 30
0.0
 11
315.20119068590071
 21
59.629080509906359
 31
0.0
  0
LINE
  5
2B3
  8
2
 10
310.70118901697049
 20
59.629080509906331
 30
0.0
 11
310.70118901697072
 21
45.629080077772663
 31
0.0
  0
LINE
  5
2B4
  8
0
 10
240.2011877056685
 20
45.6290800777724
 30
0.0
 11
315.20119068590071
 21
45.629080077772677
 31
0.0
  0
LINE
  5
2B5
  8
0
 10
295.20118927029029
 20
59.629080509906267
 30
0.0
 11
315.20119068590071
 21
59.629080509906359
 31
0.0
  0
LINE
  5
2B6
  8
2
 10
299.7011890765753
 20
45.62908007777262
 30
0.0
 11
299.70118907657519
 21
59.629080509906302
 31
0.0
  0
LINE
  5
2B7
  8
2
 10
255.70118931499391
 20
45.62908007777245
 30
0.0
 11
255.70118931499391
 21
59.62908050990616
 31
0.0
  0
LINE
  5
2B8
  8
0
 10
260.20118912127879
 20
59.629080509906132
 30
0.0
 11
240.2011877056685
 21
59.629080509906103
 31
0.0
  0
LINE
  5
2B9
  8
2
 10
244.7011893745985
 20
59.629080509906103
 30
0.0
 11
244.7011893745985
 21
45.629080077772429
 31
0.0
  0
LINE
  5
2BA
  8
0
 10
240.2011877056685
 20
45.6290800777724
 30
0.0
 11
240.2011877056685
 21
59.629080509906068
 31
0.0
  0
LINE
  5
2BB
  8
1
 10
250.20118919578471
 20
44.129080077772421
 30
0.0
 11
250.20118919578459
 21
61.129080077772421
 31
0.0
  0
LINE
  5
2BC
  8
0
 10
152.29806999840079
 20
59.629080509906053
 30
0.0
 11
181.83851565398521
 21
59.629080509905933
 31
0.0
  0
LINE
  5
2BD
  8
0
 10
174.5592324453618
 20
59.629080509905961
 30
0.0
 11
174.5592324453618
 21
45.629080077772286
 31
0.0
  0
LINE
  5
2BE
  8
0
 10
149.56829275168721
 20
45.6290800777724
 30
0.0
 11
184.56829290069879
 21
45.629080077772258
 31
0.0
  0
LINE
  5
2BF
  8
0
 10
159.57735320702409
 20
59.629080509906018
 30
0.0
 11
159.577353207024
 21
45.62908007777235
 31
0.0
  0
LINE
  5
2C0
  8
2
 10
68.935396642866124
 20
85.629079183703766
 30
0.0
 11
68.935396642866237
 21
45.629080077773423
 31
0.0
  0
LINE
  5
2C1
  8
2
 10
43.935396270337201
 20
45.629080077773331
 30
0.0
 11
43.935396270337087
 21
85.629079183703695
 31
0.0
  0
LINE
  5
2C2
  8
1
 10
28.935396456601779
 20
44.129080077773267
 30
0.0
 11
28.935396456601719
 21
61.129080077773281
 31
0.0
  0
LINE
  5
2C3
  8
0
 10
18.9353949664856
 20
45.629080077773253
 30
0.0
 11
18.9353949664856
 21
59.629080509906927
 31
0.0
  0
LINE
  5
2C4
  8
2
 10
23.43539663541566
 20
59.629080509906949
 30
0.0
 11
23.43539663541566
 21
45.629080077773281
 31
0.0
  0
LINE
  5
2C5
  8
0
 10
38.935396382095917
 20
59.629080509906977
 30
0.0
 11
18.9353949664856
 21
59.629080509906949
 31
0.0
  0
LINE
  5
2C6
  8
2
 10
34.435396575811069
 20
45.629080077773303
 30
0.0
 11
34.435396575811012
 21
59.629080509907013
 31
0.0
  0
LINE
  5
2C7
  8
2
 10
78.435396337392433
 20
45.629080077773473
 30
0.0
 11
78.435396337392376
 21
59.629080509907162
 31
0.0
  0
LINE
  5
2C8
  8
0
 10
73.935396531107472
 20
59.629080509907119
 30
0.0
 11
93.935397946717842
 21
59.629080509907212
 31
0.0
  0
LINE
  5
2C9
  8
0
 10
18.9353949664856
 20
45.629080077773253
 30
0.0
 11
93.935397946717842
 21
45.629080077773537
 31
0.0
  0
LINE
  5
2CA
  8
2
 10
89.435396277787675
 20
59.629080509907183
 30
0.0
 11
89.435396277787788
 21
45.629080077773509
 31
0.0
  0
LINE
  5
2CB
  8
0
 10
93.935397946717842
 20
45.629080077773537
 30
0.0
 11
93.935397946717842
 21
59.629080509907212
 31
0.0
  0
LINE
  5
2CC
  8
1
 10
83.935396456601723
 20
44.12908007777348
 30
0.0
 11
83.935396456601723
 21
61.12908007777348
 31
0.0
  0
LINE
  5
31D
  8
3
 10
282.87918919578459
 20
45.629080077772677
 30
0.0
 11
282.87918919578459
 21
21.807081806306432
 31
0.0
  0
LINE
  5
31E
  8
0
 10
283.70118919578459
 20
22.629081806306431
 30
0.0
 11
283.70118919578459
 21
45.629080077772677
 31
0.0
  0
LINE
  5
31F
  8
2
 10
272.52318919578482
 20
46.629081806305827
 30
0.0
 11
272.52318919578488
 21
45.629080077772102
 31
0.0
  0
LINE
  5
320
  8
2
 10
271.70118919578488
 20
45.629080077772002
 30
0.0
 11
271.70118919578482
 21
46.629081806305749
 31
0.0
  0
LINE
  5
321
  8
2
 10
289.70118919578471
 20
85.629079183702871
 30
0.0
 11
289.70118919578471
 21
84.629081806306431
 31
0.0
  0
LINE
  5
324
  8
2
 10
265.70118919578459
 20
84.629081806306431
 30
0.0
 11
265.70118919578459
 21
85.629079183702871
 31
0.0
  0
LINE
  5
325
  8
2
 10
265.20118919578471
 20
47.629081806306431
 30
0.0
 11
266.20118919578459
 21
46.629081806306431
 31
0.0
  0
LINE
  5
326
  8
2
 10
289.20118919578459
 20
46.629081806306431
 30
0.0
 11
290.20118919578471
 21
47.629081806306431
 31
0.0
  0
LINE
  5
327
  8
2
 10
283.70118919578459
 20
45.629080077772677
 30
0.0
 11
283.70118919578459
 21
46.629081806306431
 31
0.0
  0
LINE
  5
328
  8
0
 10
281.70118919578471
 20
20.629081806306431
 30
0.0
 11
283.70118919578459
 21
22.629081806306431
 31
0.0
  0
LINE
  5
329
  8
2
 10
282.87918919578459
 20
46.629081806306431
 30
0.0
 11
282.87918919578459
 21
45.629080077772677
 31
0.0
  0
LINE
  5
32A
  8
0
 10
271.70118919578459
 20
22.629081806306431
 30
0.0
 11
271.70118919578459
 21
45.629080077772677
 31
0.0
  0
LINE
  5
32B
  8
3
 10
272.52318919578471
 20
45.629080077772677
 30
0.0
 11
272.52318919578471
 21
21.807081806306432
 31
0.0
  0
LINE
  5
32C
  8
0
 10
273.70118919578459
 20
20.629081806306431
 30
0.0
 11
271.70118919578459
 21
22.629081806306431
 31
0.0
  0
LINE
  5
32D
  8
0
 10
273.70118919578459
 20
20.629081806306431
 30
0.0
 11
281.70118919578471
 21
20.629081806306431
 31
0.0
  0
LINE
  5
32E
  8
0
 10
271.70118919578459
 20
22.629081806306431
 30
0.0
 11
283.70118919578459
 21
22.629081806306431
 31
0.0
  0
LINE
  5
32F
  8
2
 10
265.20118919578471
 20
47.629081806306431
 30
0.0
 11
290.20118919578471
 21
47.629081806306431
 31
0.0
  0
LINE
  5
330
  8
2
 10
265.20118919578471
 20
84.629081806306431
 30
0.0
 11
290.20118919578471
 21
84.629081806306431
 31
0.0
  0
LINE
  5
331
  8
2
 10
266.20118919578459
 20
46.629081806306431
 30
0.0
 11
289.20118919578459
 21
46.629081806306431
 31
0.0
  0
LINE
  5
379
  8
3
 10
172.24629282619301
 20
45.629080077772677
 30
0.0
 11
172.24629282619301
 21
21.807081806306432
 31
0.0
  0
LINE
  5
37A
  8
0
 10
173.06829282619299
 20
22.629081806306431
 30
0.0
 11
173.06829282619299
 21
45.629080077772677
 31
0.0
  0
LINE
  5
37B
  8
2
 10
161.8902928261931
 20
46.629081806305827
 30
0.0
 11
161.89029282619319
 21
45.629080077772102
 31
0.0
  0
LINE
  5
37C
  8
2
 10
161.0682928261933
 20
45.629080077772002
 30
0.0
 11
161.0682928261931
 21
46.629081806305749
 31
0.0
  0
LINE
  5
37D
  8
2
 10
179.06829282619299
 20
85.629079183702871
 30
0.0
 11
179.06829282619299
 21
84.629081806306431
 31
0.0
  0
LINE
  5
37E
  8
2
 10
179.56829282619299
 20
84.629081806306431
 30
0.0
 11
179.56829282619299
 21
47.629081806306431
 31
0.0
  0
LINE
  5
37F
  8
2
 10
154.56829282619299
 20
47.629081806306431
 30
0.0
 11
154.56829282619299
 21
84.629081806306431
 31
0.0
  0
LINE
  5
380
  8
2
 10
155.06829282619299
 20
84.629081806306431
 30
0.0
 11
155.06829282619299
 21
85.629079183702871
 31
0.0
  0
LINE
  5
381
  8
2
 10
154.56829282619299
 20
47.629081806306431
 30
0.0
 11
155.56829282619299
 21
46.629081806306431
 31
0.0
  0
LINE
  5
382
  8
2
 10
178.56829282619299
 20
46.629081806306431
 30
0.0
 11
179.56829282619299
 21
47.629081806306431
 31
0.0
  0
LINE
  5
383
  8
2
 10
173.06829282619299
 20
45.629080077772677
 30
0.0
 11
173.06829282619299
 21
46.629081806306431
 31
0.0
  0
LINE
  5
384
  8
0
 10
171.0682928261929
 20
20.629081806306431
 30
0.0
 11
173.06829282619299
 21
22.629081806306431
 31
0.0
  0
LINE
  5
385
  8
2
 10
172.24629282619301
 20
46.629081806306431
 30
0.0
 11
172.24629282619301
 21
45.629080077772677
 31
0.0
  0
LINE
  5
386
  8
0
 10
161.06829282619299
 20
22.629081806306431
 30
0.0
 11
161.06829282619299
 21
45.629080077772677
 31
0.0
  0
LINE
  5
387
  8
3
 10
161.89029282619299
 20
45.629080077772677
 30
0.0
 11
161.89029282619299
 21
21.807081806306432
 31
0.0
  0
LINE
  5
388
  8
0
 10
163.06829282619299
 20
20.629081806306431
 30
0.0
 11
161.06829282619299
 21
22.629081806306431
 31
0.0
  0
LINE
  5
389
  8
0
 10
163.06829282619299
 20
20.629081806306431
 30
0.0
 11
171.0682928261929
 21
20.629081806306431
 31
0.0
  0
LINE
  5
38A
  8
0
 10
161.06829282619299
 20
22.629081806306431
 30
0.0
 11
173.06829282619299
 21
22.629081806306431
 31
0.0
  0
LINE
  5
38B
  8
2
 10
154.56829282619299
 20
47.629081806306431
 30
0.0
 11
179.56829282619299
 21
47.629081806306431
 31
0.0
  0
LINE
  5
38C
  8
2
 10
154.56829282619299
 20
84.629081806306431
 30
0.0
 11
179.56829282619299
 21
84.629081806306431
 31
0.0
  0
LINE
  5
38D
  8
2
 10
155.56829282619299
 20
46.629081806306431
 30
0.0
 11
178.56829282619299
 21
46.629081806306431
 31
0.0
  0
LINE
  5
3A7
  8
3
 10
61.613396456601407
 20
45.629080077772521
 30
0.0
 11
61.613396456601407
 21
21.807081806306272
 31
0.0
  0
LINE
  5
3A8
  8
0
 10
62.43539645660141
 20
22.629081806306282
 30
0.0
 11
62.43539645660141
 21
45.629080077772521
 31
0.0
  0
LINE
  5
3A9
  8
2
 10
51.257396456601583
 20
46.629081806305678
 30
0.0
 11
51.257396456601697
 21
45.629080077771953
 31
0.0
  0
LINE
  5
3AA
  8
2
 10
50.435396456601687
 20
45.629080077771839
 30
0.0
 11
50.43539645660158
 21
46.629081806305592
 31
0.0
  0
LINE
  5
3AB
  8
2
 10
68.43539645660141
 20
85.629079183702714
 30
0.0
 11
68.43539645660141
 21
84.629081806306274
 31
0.0
  0
LINE
  5
3AE
  8
2
 10
44.435396456601403
 20
84.629081806306274
 30
0.0
 11
44.435396456601403
 21
85.629079183702714
 31
0.0
  0
LINE
  5
3AF
  8
2
 10
43.935396456601403
 20
47.629081806306267
 30
0.0
 11
44.93539645660141
 21
46.629081806306267
 31
0.0
  0
LINE
  5
3B0
  8
2
 10
67.93539645660141
 20
46.629081806306267
 30
0.0
 11
68.935396456601396
 21
47.629081806306267
 31
0.0
  0
LINE
  5
3B1
  8
2
 10
62.43539645660141
 20
45.629080077772521
 30
0.0
 11
62.43539645660141
 21
46.629081806306267
 31
0.0
  0
LINE
  5
3B2
  8
0
 10
60.43539645660141
 20
20.629081806306271
 30
0.0
 11
62.43539645660141
 21
22.629081806306282
 31
0.0
  0
LINE
  5
3B3
  8
2
 10
61.613396456601407
 20
46.629081806306267
 30
0.0
 11
61.613396456601407
 21
45.629080077772521
 31
0.0
  0
LINE
  5
3B4
  8
0
 10
50.43539645660141
 20
22.629081806306282
 30
0.0
 11
50.43539645660141
 21
45.629080077772521
 31
0.0
  0
LINE
  5
3B5
  8
3
 10
51.257396456601413
 20
45.629080077772521
 30
0.0
 11
51.257396456601413
 21
21.807081806306272
 31
0.0
  0
LINE
  5
3B6
  8
0
 10
52.43539645660141
 20
20.629081806306271
 30
0.0
 11
50.43539645660141
 21
22.629081806306282
 31
0.0
  0
LINE
  5
3B7
  8
0
 10
52.43539645660141
 20
20.629081806306271
 30
0.0
 11
60.43539645660141
 21
20.629081806306271
 31
0.0
  0
LINE
  5
3B8
  8
0
 10
50.43539645660141
 20
22.629081806306282
 30
0.0
 11
62.43539645660141
 21
22.629081806306282
 31
0.0
  0
LINE
  5
3B9
  8
2
 10
43.935396456601403
 20
47.629081806306267
 30
0.0
 11
68.935396456601396
 21
47.629081806306267
 31
0.0
  0
LINE
  5
3BA
  8
2
 10
43.935396456601403
 20
84.629081806306274
 30
0.0
 11
68.935396456601396
 21
84.629081806306274
 31
0.0
  0
LINE
  5
3BB
  8
2
 10
44.93539645660141
 20
46.629081806306267
 30
0.0
 11
67.93539645660141
 21
46.629081806306267
 31
0.0
  0
LINE
  5
3E2
  8
1
 10
136.06829282619299
 20
80.329609543717709
 30
0.0
 11
136.06829282619299
 21
102.609843919817
 31
0.0
  0
LINE
  5
3E3
  8
1
 10
136.0615416086716
 20
171.97770092248541
 30
0.0
 11
136.0615416086716
 21
191.9777009224853
 31
0.0
  0
CIRCLE
  5
3E4
  8
3
 10
136.0615416086716
 20
181.97770092248541
 30
0.0
 40
6.0
  0
CIRCLE
  5
3E5
  8
0
 10
136.0615416086716
 20
181.97770092248541
 30
0.0
 40
5.0
  0
TEXT
  5
435
  8
0
 62
     3
 10
0.0
 20
0.0
 30
0.0
 40
10.0
  1
BJ130-12140B1
  7
STANDARD1
  0
ENDSEC
  0
EOF
