  0
SECTION
  2
HEADER
  9
$ACADVER
  1
AC1009
  9
$INSBASE
 10
0.0
 20
0.0
 30
0.0
  9
$EXTMIN
 10
0.0
 20
-2.960436562073669
 30
0.0
  9
$EXTMAX
 10
416.30556085478418
 20
374.60686151423829
 30
0.0
  9
$LIMMIN
 10
0.0
 20
0.0
  9
$LIMMAX
 10
780.0
 20
540.0
  9
$ORTHOMODE
 70
     0
  9
$REGENMODE
 70
     1
  9
$FILLMODE
 70
     1
  9
$QTEXTMODE
 70
     0
  9
$MIRRTEXT
 70
     0
  9
$DRAGMODE
 70
     2
  9
$LTSCALE
 40
20.0
  9
$OSMODE
 70
  3071
  9
$ATTMODE
 70
     1
  9
$TEXTSIZE
 40
0.2
  9
$TRACEWID
 40
0.05
  9
$TEXTSTYLE
  7
STANDARD
  9
$CLAYER
  8
0
  9
$CELTYPE
  6
BYLAYER
  9
$CECOLOR
 62
   256
  9
$DIMSCALE
 40
2.0
  9
$DIMASZ
 40
3.0
  9
$DIMEXO
 40
2.0
  9
$DIMDLI
 40
0.38
  9
$DIMRND
 40
0.0
  9
$DIMDLE
 40
0.0
  9
$DIMEXE
 40
2.0
  9
$DIMTP
 40
0.0
  9
$DIMTM
 40
0.0
  9
$DIMTXT
 40
3.0
  9
$DIMCEN
 40
0.0
  9
$DIMTSZ
 40
0.0
  9
$DIMTOL
 70
     0
  9
$DIMLIM
 70
     0
  9
$DIMTIH
 70
     0
  9
$DIMTOH
 70
     0
  9
$DIMSE1
 70
     0
  9
$DIMSE2
 70
     0
  9
$DIMTAD
 70
     1
  9
$DIMZIN
 70
     0
  9
$DIMBLK
  1

  9
$DIMASO
 70
     0
  9
$DIMSHO
 70
     0
  9
$DIMPOST
  1

  9
$DIMAPOST
  1

  9
$DIMALT
 70
     0
  9
$DIMALTD
 70
     2
  9
$DIMALTF
 40
25.399999999999999
  9
$DIMLFAC
 40
1.0
  9
$DIMTOFL
 70
     1
  9
$DIMTVP
 40
1.6000000000000001
  9
$DIMTIX
 70
     1
  9
$DIMSOXD
 70
     0
  9
$DIMSAH
 70
     0
  9
$DIMBLK1
  1

  9
$DIMBLK2
  1

  9
$DIMSTYLE
  2
STANDARD
  9
$DIMCLRD
 70
     0
  9
$DIMCLRE
 70
     0
  9
$DIMCLRT
 70
     0
  9
$DIMTFAC
 40
1.0
  9
$DIMGAP
 40
0.09
  9
$LUNITS
 70
     2
  9
$LUPREC
 70
     4
  9
$SKETCHINC
 40
0.1
  9
$FILLETRAD
 40
0.0
  9
$AUNITS
 70
     0
  9
$AUPREC
 70
     4
  9
$MENU
  1
E:\r13\win\SUPPORT\ACAD
  9
$ELEVATION
 40
0.0
  9
$PELEVATION
 40
0.0
  9
$THICKNESS
 40
0.0
  9
$LIMCHECK
 70
     0
  9
$BLIPMODE
 70
     0
  9
$CHAMFERA
 40
0.0
  9
$CHAMFERB
 40
0.0
  9
$SKPOLY
 70
     0
  9
$TDCREATE
 40
2449840.3508217591
  9
$TDUPDATE
 40
2456597.6215568292
  9
$TDINDWG
 40
0.0359786806
  9
$TDUSRTIMER
 40
2456518.2213872341
  9
$USRTIMER
 70
     1
  9
$ANGBASE
 50
0.0
  9
$ANGDIR
 70
     0
  9
$PDMODE
 70
     0
  9
$PDSIZE
 40
0.0
  9
$PLINEWID
 40
0.0
  9
$COORDS
 70
     1
  9
$SPLFRAME
 70
     0
  9
$SPLINETYPE
 70
     6
  9
$SPLINESEGS
 70
     8
  9
$ATTDIA
 70
     0
  9
$ATTREQ
 70
     1
  9
$HANDLING
 70
     1
  9
$HANDSEED
  5
5F7
  9
$SURFTAB1
 70
     6
  9
$SURFTAB2
 70
     6
  9
$SURFTYPE
 70
     6
  9
$SURFU
 70
     6
  9
$SURFV
 70
     6
  9
$UCSNAME
  2

  9
$UCSORG
 10
0.0
 20
0.0
 30
0.0
  9
$UCSXDIR
 10
1.0
 20
0.0
 30
0.0
  9
$UCSYDIR
 10
0.0
 20
1.0
 30
0.0
  9
$PUCSNAME
  2

  9
$PUCSORG
 10
0.0
 20
0.0
 30
0.0
  9
$PUCSXDIR
 10
1.0
 20
0.0
 30
0.0
  9
$PUCSYDIR
 10
0.0
 20
1.0
 30
0.0
  9
$USERI1
 70
     3
  9
$USERI2
 70
     1
  9
$USERI3
 70
     0
  9
$USERI4
 70
     0
  9
$USERI5
 70
     0
  9
$USERR1
 40
2.0
  9
$USERR2
 40
3.0
  9
$USERR3
 40
3.0
  9
$USERR4
 40
3.0
  9
$USERR5
 40
10.0
  9
$WORLDVIEW
 70
     1
  9
$SHADEDGE
 70
     3
  9
$SHADEDIF
 70
    70
  9
$TILEMODE
 70
     1
  9
$MAXACTVP
 70
    16
  9
$PLIMCHECK
 70
     0
  9
$PEXTMIN
 10
1.0000000000000000E+020
 20
1.0000000000000000E+020
 30
1.0000000000000000E+020
  9
$PEXTMAX
 10
-1.0000000000000000E+020
 20
-1.0000000000000000E+020
 30
-1.0000000000000000E+020
  9
$PLIMMIN
 10
0.0
 20
0.0
  9
$PLIMMAX
 10
12.0
 20
9.0
  9
$UNITMODE
 70
     0
  9
$VISRETAIN
 70
     0
  9
$PLINEGEN
 70
     0
  9
$PSLTSCALE
 70
     0
  0
ENDSEC
  0
SECTION
  2
TABLES
  0
TABLE
  2
VPORT
 70
     1
  0
VPORT
  2
*ACTIVE
 70
     0
 10
0.0
 20
0.0
 11
1.0
 21
1.0
 12
389.988099052557
 22
383.6881458164155
 13
0.0
 23
0.0
 14
5.0
 24
5.0
 15
10.0
 25
10.0
 16
0.0
 26
0.0
 36
1.0
 17
0.0
 27
0.0
 37
0.0
 40
780.34809480459126
 41
1.831871345029239
 42
50.0
 43
0.0
 44
0.0
 50
0.0
 51
0.0
 71
    16
 72
   100
 73
     1
 74
     0
 75
     0
 76
     0
 77
     0
 78
     2
  0
ENDTAB
  0
TABLE
  2
LTYPE
 70
     4
  0
LTYPE
  2
CONTINUOUS
 70
     0
  3
Solid Line
 72
    65
 73
     0
 40
0.0
  0
LTYPE
  2
PHANTOM2
 70
     0
  3
___ _ _ ___ _ _ ___ _ _ ___ _ _
 72
    65
 73
     6
 40
1.25
 49
0.625
 49
-0.125
 49
0.125
 49
-0.125
 49
0.125
 49
-0.125
  0
LTYPE
  2
CENTER
 70
     0
  3
____ _ ____ _ ____ _ ____ _ ____ _ ____ _ ____
 72
    65
 73
     4
 40
2.0
 49
1.25
 49
-0.25
 49
0.25
 49
-0.25
  0
LTYPE
  2
HIDDEN
 70
     0
  3
_ _ _ _ _ _ _ _ _ _ _ _ _ _ _ _ _ _ _ _ _ _ _
 72
    65
 73
     2
 40
0.375
 49
0.25
 49
-0.125
  0
ENDTAB
  0
TABLE
  2
LAYER
 70
     4
  0
LAYER
  2
0
 70
     0
 62
     7
  6
CONTINUOUS
  0
LAYER
  2
1
 70
     0
 62
     1
  6
CENTER
  0
LAYER
  2
3
 70
     0
 62
     3
  6
CONTINUOUS
  0
LAYER
  2
2
 70
     0
 62
     2
  6
HIDDEN
  0
ENDTAB
  0
TABLE
  2
STYLE
 70
     3
  0
STYLE
  2
STANDARD
 70
     0
 40
0.0
 41
1.0
 50
0.0
 71
     0
 42
0.2
  3
TXT
  4
BIGFONT
  0
STYLE
  2
ANNOTATIVE
 70
     0
 40
0.0
 41
1.0
 50
0.0
 71
     0
 42
0.2
  3
txt
  4

  0
STYLE
  2
STANDARD1
 70
     0
 40
0.0
 41
1.0
 50
0.0
 71
     0
 42
3.0
  3
txt
  4

  0
ENDTAB
  0
TABLE
  2
VIEW
 70
     1
  0
VIEW
  2
ALL
 70
     0
 40
270.0
 10
220.99159700000001
 20
135.0
 41
0.0
 11
0.0
 21
0.0
 31
1.0
 12
0.0
 22
0.0
 32
0.0
 42
0.0
 43
0.0
 44
0.0
 50
0.0
 71
     0
  0
ENDTAB
  0
TABLE
  2
UCS
 70
     0
  0
ENDTAB
  0
TABLE
  2
APPID
 70
     5
  0
APPID
  2
ACAD
 70
     0
  0
APPID
  2
ACADANNOTATIVE
 70
     0
  0
APPID
  2
ACAD_MLEADERVER
 70
     0
  0
APPID
  2
ACAD_EXEMPT_FROM_CAD_STANDARDS
 70
     0
  0
APPID
  2
ACAD_NAV_VCDISPLAY
 70
     0
  0
ENDTAB
  0
TABLE
  2
DIMSTYLE
 70
     2
  0
DIMSTYLE
  2
STANDARD
 70
     0
  3

  4

  5

  6

  7

 40
1.0
 41
0.18
 42
0.0625
 43
0.38
 44
0.18
 45
0.0
 46
0.0
 47
0.0
 48
0.0
140
0.18
141
0.09
142
0.0
143
25.399999999999999
144
1.0
145
0.0
146
1.0
147
0.09
 71
     0
 72
     0
 73
     1
 74
     1
 75
     0
 76
     0
 77
     0
 78
     0
170
     0
171
     2
172
     0
173
     0
174
     0
175
     0
176
     0
177
     0
178
     0
  0
DIMSTYLE
  2
ANNOTATIVE
 70
     0
  3

  4

  5

  6

  7

 40
1.0
 41
0.18
 42
0.0625
 43
0.38
 44
0.18
 45
0.0
 46
0.0
 47
0.0
 48
0.0
140
0.18
141
0.09
142
0.0
143
25.399999999999999
144
1.0
145
0.0
146
1.0
147
0.09
 71
     0
 72
     0
 73
     1
 74
     1
 75
     0
 76
     0
 77
     0
 78
     0
170
     0
171
     2
172
     0
173
     0
174
     0
175
     0
176
     0
177
     0
178
     0
  0
ENDTAB
  0
ENDSEC
  0
SECTION
  2
BLOCKS
  0
BLOCK
  8
0
  2
$MODEL_SPACE
 70
     0
 10
0.0
 20
0.0
 30
0.0
  3
$MODEL_SPACE
  1

  0
ENDBLK
  5
529
  8
0
  0
BLOCK
 67
     1
  8
0
  2
$PAPER_SPACE
 70
     0
 10
0.0
 20
0.0
 30
0.0
  3
$PAPER_SPACE
  1

  0
ENDBLK
  5
525
 67
     1
  8
0
  0
BLOCK
  8
0
  2
STDGX5
 70
     0
 10
0.0
 20
0.0
 30
0.0
  3
STDGX5
  1

  0
ENDBLK
  5
3D
  8
0
  0
ENDSEC
  0
SECTION
  2
ENTITIES
  0
INSERT
  5
144
  8
0
  2
STDGX5
 10
0.0
 20
0.0
 30
0.0
  0
INSERT
  5
14B
  8
0
  2
STDGX5
 10
0.0
 20
0.0
 30
0.0
  0
INSERT
  5
14C
  8
0
  2
STDGX5
 10
0.0
 20
0.0
 30
0.0
  0
INSERT
  5
14D
  8
0
  2
STDGX5
 10
0.0
 20
0.0
 30
0.0
  0
LINE
  5
2AE
  8
1
 10
321.30556085478429
 20
334.60686151423818
 30
0.0
 11
211.30556085478429
 21
334.60686151423818
 31
0.0
  0
LINE
  5
2AF
  8
1
 10
251.30556085478429
 20
294.60686151423818
 30
0.0
 11
251.30556085478429
 21
374.60686151423829
 31
0.0
  0
ARC
  5
2B3
  8
0
 10
251.30556085478429
 20
334.60686151423818
 30
0.0
 40
25.0
 50
42.734341368984168
 51
317.26565863101581
  0
LINE
  5
2B4
  8
0
 10
135.30556085478429
 20
189.60686151423829
 30
0.0
 11
87.305560854784304
 21
189.60686151423829
 31
0.0
  0
LINE
  5
2B5
  8
0
 10
86.305560854784304
 20
188.60686151423829
 30
0.0
 11
86.305560854784304
 21
140.76156251423831
 31
0.0
  0
LINE
  5
2B6
  8
0
 10
88.305560854784304
 20
139.60686151423829
 30
0.0
 11
88.305560854784304
 21
119.6068615142383
 31
0.0
  0
LINE
  5
2B7
  8
0
 10
105.8055608547843
 20
109.2068615142383
 30
0.0
 11
105.8055608547843
 21
106.0068615142383
 31
0.0
  0
LINE
  5
2B8
  8
0
 10
87.305560854784304
 20
189.60686151423829
 30
0.0
 11
86.305560854784304
 21
188.60686151423829
 31
0.0
  0
LINE
  5
2B9
  8
0
 10
86.305560854784304
 20
110.6068615142383
 30
0.0
 11
87.305560854784304
 21
109.6068615142383
 31
0.0
  0
LINE
  5
2BA
  8
0
 10
103.3055608547843
 20
81.606861514238304
 30
0.0
 11
105.3055608547843
 21
79.606861514238261
 31
0.0
  0
ARC
  5
2BB
  8
0
 10
105.4055608547843
 20
109.2068615142383
 30
0.0
 40
0.4
 50
0.0
 51
90.0
  0
ARC
  5
2BC
  8
0
 10
105.4055608547843
 20
106.0068615142383
 30
0.0
 40
0.4
 50
270.0
 51
0.0
  0
LINE
  5
2BD
  8
0
 10
88.305560854784304
 20
139.60686151423829
 30
0.0
 11
86.305560854784304
 21
140.76156251423831
 31
0.0
  0
LINE
  5
2BE
  8
0
 10
88.305560854784304
 20
119.6068615142383
 30
0.0
 11
86.305560854784304
 21
118.4521605142383
 31
0.0
  0
LINE
  5
2BF
  8
0
 10
86.305560854784304
 20
118.4521605142383
 30
0.0
 11
86.305560854784304
 21
110.6068615142383
 31
0.0
  0
LINE
  5
2C0
  8
0
 10
136.30556085478429
 20
118.4521605142383
 30
0.0
 11
136.30556085478429
 21
110.6068615142383
 31
0.0
  0
LINE
  5
2C1
  8
0
 10
134.30556085478429
 20
119.6068615142383
 30
0.0
 11
136.30556085478429
 21
118.4521605142383
 31
0.0
  0
LINE
  5
2C2
  8
0
 10
134.30556085478429
 20
139.60686151423829
 30
0.0
 11
136.30556085478429
 21
140.76156251423831
 31
0.0
  0
ARC
  5
2C3
  8
0
 10
117.2055608547842
 20
109.2068615142383
 30
0.0
 40
0.4
 50
90.0
 51
180.0
  0
LINE
  5
2C4
  8
0
 10
136.30556085478429
 20
110.6068615142383
 30
0.0
 11
135.30556085478429
 21
109.6068615142383
 31
0.0
  0
LINE
  5
2C5
  8
0
 10
135.30556085478429
 20
189.60686151423829
 30
0.0
 11
136.30556085478429
 21
188.60686151423829
 31
0.0
  0
LINE
  5
2C6
  8
0
 10
116.8055608547843
 20
109.2068615142383
 30
0.0
 11
116.8055608547843
 21
106.0068615142383
 31
0.0
  0
LINE
  5
2C7
  8
0
 10
135.30556085478429
 20
109.6068615142383
 30
0.0
 11
87.305560854784304
 21
109.6068615142383
 31
0.0
  0
LINE
  5
2C8
  8
0
 10
134.30556085478429
 20
139.60686151423829
 30
0.0
 11
134.30556085478429
 21
119.6068615142383
 31
0.0
  0
LINE
  5
2C9
  8
0
 10
136.30556085478429
 20
188.60686151423829
 30
0.0
 11
136.30556085478429
 21
140.76156251423831
 31
0.0
  0
LINE
  5
2CA
  8
3
 10
104.4055608547843
 20
105.6068615142383
 30
0.0
 11
104.4055608547843
 21
80.506861514238295
 31
0.0
  0
LINE
  5
2CB
  8
0
 10
114.3202798547843
 20
139.60686151423829
 30
0.0
 11
114.3202798547843
 21
119.6068615142383
 31
0.0
  0
LINE
  5
2CC
  8
0
 10
114.3202798547843
 20
119.6068615142383
 30
0.0
 11
131.2908418547843
 21
119.6068615142383
 31
0.0
  0
LINE
  5
2CD
  8
0
 10
131.2908418547843
 20
119.6068615142383
 30
0.0
 11
131.2908418547843
 21
139.60686151423829
 31
0.0
  0
LINE
  5
2CE
  8
0
 10
131.2908418547843
 20
139.60686151423829
 30
0.0
 11
114.3202798547843
 21
139.60686151423829
 31
0.0
  0
ARC
  5
2CF
  8
0
 10
122.8055608547843
 20
109.0072975142383
 30
0.0
 40
31.754265
 50
74.50126700000196
 51
105.498732999998
  0
ARC
  5
2D0
  8
0
 10
122.8055608547843
 20
150.2064255142383
 30
0.0
 40
31.754265
 50
254.50126700000189
 51
285.49873299999803
  0
ARC
  5
2D1
  8
0
 10
99.805560854784304
 20
150.2064255142383
 30
0.0
 40
31.754265
 50
254.50126700000189
 51
285.49873299999803
  0
ARC
  5
2D2
  8
0
 10
99.805560854784304
 20
109.0072975142383
 30
0.0
 40
31.754265
 50
74.50126700000196
 51
105.498732999998
  0
LINE
  5
2D3
  8
0
 10
91.320279854784303
 20
139.60686151423829
 30
0.0
 11
108.2908418547843
 21
139.60686151423829
 31
0.0
  0
LINE
  5
2D4
  8
0
 10
91.320279854784303
 20
119.6068615142383
 30
0.0
 11
91.320279854784303
 21
139.60686151423829
 31
0.0
  0
LINE
  5
2D5
  8
0
 10
108.2908418547843
 20
119.6068615142383
 30
0.0
 11
91.320279854784303
 21
119.6068615142383
 31
0.0
  0
LINE
  5
2D6
  8
0
 10
108.2908418547843
 20
139.60686151423829
 30
0.0
 11
108.2908418547843
 21
119.6068615142383
 31
0.0
  0
LINE
  5
2D7
  8
0
 10
103.3055608547843
 20
105.6068615142383
 30
0.0
 11
103.3055608547843
 21
81.606861514238304
 31
0.0
  0
LINE
  5
2D8
  8
0
 10
119.3055608547843
 20
105.6068615142383
 30
0.0
 11
119.3055608547843
 21
81.606861514238304
 31
0.0
  0
LINE
  5
2D9
  8
3
 10
118.2055608547842
 20
105.6068615142383
 30
0.0
 11
118.2055608547842
 21
80.506861514238295
 31
0.0
  0
LINE
  5
2DA
  8
0
 10
119.3055608547843
 20
81.606861514238304
 30
0.0
 11
117.3055608547843
 21
79.606861514238261
 31
0.0
  0
ARC
  5
2DB
  8
0
 10
117.2055608547842
 20
106.0068615142383
 30
0.0
 40
0.4
 50
180.0
 51
270.0
  0
LINE
  5
2DC
  8
0
 10
119.3055608547843
 20
81.606861514238304
 30
0.0
 11
103.3055608547843
 21
81.606861514238304
 31
0.0
  0
LINE
  5
2DD
  8
0
 10
117.3055608547843
 20
79.606861514238261
 30
0.0
 11
105.3055608547843
 21
79.606861514238261
 31
0.0
  0
LINE
  5
2DE
  8
0
 10
119.3055608547843
 20
105.6068615142383
 30
0.0
 11
103.3055608547843
 21
105.6068615142383
 31
0.0
  0
LINE
  5
2E0
  8
0
 10
415.30556085478418
 20
189.60686151423829
 30
0.0
 11
367.30556085478418
 21
189.60686151423829
 31
0.0
  0
LINE
  5
2E1
  8
0
 10
366.30556085478418
 20
188.60686151423829
 30
0.0
 11
366.30556085478418
 21
140.76156251423831
 31
0.0
  0
LINE
  5
2E2
  8
0
 10
368.30556085478418
 20
139.60686151423829
 30
0.0
 11
368.30556085478418
 21
119.6068615142383
 31
0.0
  0
LINE
  5
2E3
  8
0
 10
385.80556085478429
 20
109.2068615142383
 30
0.0
 11
385.80556085478429
 21
106.0068615142383
 31
0.0
  0
LINE
  5
2E4
  8
0
 10
367.30556085478418
 20
189.60686151423829
 30
0.0
 11
366.30556085478418
 21
188.60686151423829
 31
0.0
  0
LINE
  5
2E5
  8
0
 10
366.30556085478418
 20
110.6068615142383
 30
0.0
 11
367.30556085478418
 21
109.6068615142383
 31
0.0
  0
LINE
  5
2E6
  8
0
 10
383.30556085478418
 20
81.606861514238304
 30
0.0
 11
385.30556085478418
 21
79.606861514238261
 31
0.0
  0
ARC
  5
2E7
  8
0
 10
385.40556085478431
 20
109.2068615142383
 30
0.0
 40
0.4
 50
0.0
 51
90.0
  0
ARC
  5
2E8
  8
0
 10
385.40556085478431
 20
106.0068615142383
 30
0.0
 40
0.4
 50
270.0
 51
0.0
  0
LINE
  5
2E9
  8
0
 10
368.30556085478418
 20
139.60686151423829
 30
0.0
 11
366.30556085478418
 21
140.76156251423831
 31
0.0
  0
LINE
  5
2EA
  8
0
 10
368.30556085478418
 20
119.6068615142383
 30
0.0
 11
366.30556085478418
 21
118.4521605142383
 31
0.0
  0
LINE
  5
2EB
  8
0
 10
366.30556085478418
 20
118.4521605142383
 30
0.0
 11
366.30556085478418
 21
110.6068615142383
 31
0.0
  0
LINE
  5
2EC
  8
0
 10
416.30556085478418
 20
118.4521605142383
 30
0.0
 11
416.30556085478418
 21
110.6068615142383
 31
0.0
  0
LINE
  5
2ED
  8
0
 10
414.30556085478412
 20
119.6068615142383
 30
0.0
 11
416.30556085478418
 21
118.4521605142383
 31
0.0
  0
LINE
  5
2EE
  8
0
 10
414.30556085478412
 20
139.60686151423829
 30
0.0
 11
416.30556085478418
 21
140.76156251423831
 31
0.0
  0
ARC
  5
2EF
  8
0
 10
397.20556085478432
 20
109.2068615142383
 30
0.0
 40
0.4
 50
90.0
 51
180.0
  0
LINE
  5
2F0
  8
0
 10
416.30556085478418
 20
110.6068615142383
 30
0.0
 11
415.30556085478418
 21
109.6068615142383
 31
0.0
  0
LINE
  5
2F1
  8
0
 10
415.30556085478418
 20
189.60686151423829
 30
0.0
 11
416.30556085478418
 21
188.60686151423829
 31
0.0
  0
LINE
  5
2F2
  8
0
 10
396.80556085478418
 20
109.2068615142383
 30
0.0
 11
396.80556085478418
 21
106.0068615142383
 31
0.0
  0
LINE
  5
2F3
  8
0
 10
415.30556085478418
 20
109.6068615142383
 30
0.0
 11
367.30556085478418
 21
109.6068615142383
 31
0.0
  0
LINE
  5
2F4
  8
0
 10
414.30556085478412
 20
139.60686151423829
 30
0.0
 11
414.30556085478412
 21
119.6068615142383
 31
0.0
  0
LINE
  5
2F5
  8
0
 10
416.30556085478418
 20
188.60686151423829
 30
0.0
 11
416.30556085478418
 21
140.76156251423831
 31
0.0
  0
LINE
  5
2F6
  8
3
 10
384.40556085478431
 20
105.6068615142383
 30
0.0
 11
384.40556085478431
 21
80.506861514238295
 31
0.0
  0
LINE
  5
2F7
  8
0
 10
394.3202798547843
 20
139.60686151423829
 30
0.0
 11
394.3202798547843
 21
119.6068615142383
 31
0.0
  0
LINE
  5
2F8
  8
0
 10
394.3202798547843
 20
119.6068615142383
 30
0.0
 11
411.29084185478411
 21
119.6068615142383
 31
0.0
  0
LINE
  5
2F9
  8
0
 10
411.29084185478411
 20
119.6068615142383
 30
0.0
 11
411.29084185478411
 21
139.60686151423829
 31
0.0
  0
LINE
  5
2FA
  8
0
 10
411.29084185478411
 20
139.60686151423829
 30
0.0
 11
394.3202798547843
 21
139.60686151423829
 31
0.0
  0
ARC
  5
2FB
  8
0
 10
402.80556085478418
 20
109.0072975142383
 30
0.0
 40
31.754265
 50
74.50126700000196
 51
105.498732999998
  0
ARC
  5
2FC
  8
0
 10
402.80556085478418
 20
150.2064255142383
 30
0.0
 40
31.754265
 50
254.50126700000189
 51
285.49873299999803
  0
ARC
  5
2FD
  8
0
 10
379.80556085478418
 20
150.2064255142383
 30
0.0
 40
31.754265
 50
254.50126700000189
 51
285.49873299999803
  0
ARC
  5
2FE
  8
0
 10
379.80556085478418
 20
109.0072975142383
 30
0.0
 40
31.754265
 50
74.50126700000196
 51
105.498732999998
  0
LINE
  5
2FF
  8
0
 10
371.3202798547843
 20
139.60686151423829
 30
0.0
 11
388.29084185478422
 21
139.60686151423829
 31
0.0
  0
LINE
  5
300
  8
0
 10
371.3202798547843
 20
119.6068615142383
 30
0.0
 11
371.3202798547843
 21
139.60686151423829
 31
0.0
  0
LINE
  5
301
  8
0
 10
388.29084185478422
 20
119.6068615142383
 30
0.0
 11
371.3202798547843
 21
119.6068615142383
 31
0.0
  0
LINE
  5
302
  8
0
 10
388.29084185478422
 20
139.60686151423829
 30
0.0
 11
388.29084185478422
 21
119.6068615142383
 31
0.0
  0
LINE
  5
303
  8
0
 10
383.30556085478418
 20
105.6068615142383
 30
0.0
 11
383.30556085478418
 21
81.606861514238304
 31
0.0
  0
LINE
  5
304
  8
0
 10
399.30556085478418
 20
105.6068615142383
 30
0.0
 11
399.30556085478418
 21
81.606861514238304
 31
0.0
  0
LINE
  5
305
  8
3
 10
398.20556085478432
 20
105.6068615142383
 30
0.0
 11
398.20556085478432
 21
80.506861514238295
 31
0.0
  0
LINE
  5
306
  8
0
 10
399.30556085478418
 20
81.606861514238304
 30
0.0
 11
397.30556085478418
 21
79.606861514238261
 31
0.0
  0
ARC
  5
307
  8
0
 10
397.20556085478432
 20
106.0068615142383
 30
0.0
 40
0.4
 50
180.0
 51
270.0
  0
LINE
  5
308
  8
0
 10
399.30556085478418
 20
81.606861514238304
 30
0.0
 11
383.30556085478418
 21
81.606861514238304
 31
0.0
  0
LINE
  5
309
  8
0
 10
397.30556085478418
 20
79.606861514238261
 30
0.0
 11
385.30556085478418
 21
79.606861514238261
 31
0.0
  0
LINE
  5
30A
  8
0
 10
399.30556085478418
 20
105.6068615142383
 30
0.0
 11
383.30556085478418
 21
105.6068615142383
 31
0.0
  0
CIRCLE
  5
30C
  8
0
 10
251.30556085478429
 20
334.60686151423818
 30
0.0
 40
12.0
  0
LINE
  5
30E
  8
0
 10
255.34701285478431
 20
341.60686151423818
 30
0.0
 11
247.2641088547843
 21
341.60686151423818
 31
0.0
  0
LINE
  5
30F
  8
0
 10
247.2641088547843
 20
341.60686151423818
 30
0.0
 11
243.2226568547843
 21
334.60686151423818
 31
0.0
  0
LINE
  5
310
  8
0
 10
243.2226568547843
 20
334.60686151423818
 30
0.0
 11
247.2641088547843
 21
327.60686151423818
 31
0.0
  0
LINE
  5
311
  8
0
 10
247.2641088547843
 20
327.60686151423818
 30
0.0
 11
255.34701285478431
 21
327.60686151423818
 31
0.0
  0
LINE
  5
312
  8
0
 10
255.34701285478431
 20
327.60686151423818
 30
0.0
 11
259.38846485478427
 21
334.60686151423818
 31
0.0
  0
LINE
  5
313
  8
0
 10
259.38846485478427
 20
334.60686151423818
 30
0.0
 11
255.34701285478431
 21
341.60686151423818
 31
0.0
  0
LINE
  5
314
  8
0
 10
308.56927385478423
 20
323.3543815142383
 30
0.0
 11
263.92077085478428
 21
316.79785551423822
 31
0.0
  0
ARC
  5
315
  8
0
 10
251.30556085478429
 20
334.60686151423818
 30
0.0
 40
60.0
 50
350.84165299999978
 51
9.1583470000000542
  0
ARC
  5
316
  8
0
 10
308.56619085478422
 20
325.37537751423832
 30
0.0
 40
2.0
 50
270.0
 51
350.84165300000069
  0
LINE
  5
317
  8
0
 10
308.56927385478423
 20
345.85934151423828
 30
0.0
 11
263.92077085478428
 21
352.4158675142383
 31
0.0
  0
ARC
  5
318
  8
0
 10
308.56619085478422
 20
343.8383455142382
 30
0.0
 40
2.0
 50
9.1583469999992513
 51
90.0
  0
LINE
  5
319
  8
0
 10
261.30556085478429
 20
316.60686151423818
 30
0.0
 11
251.30556085478429
 21
316.60686151423818
 31
0.0
  0
LINE
  5
31A
  8
0
 10
261.30556085478429
 20
352.60686151423829
 30
0.0
 11
251.30556085478429
 21
352.60686151423829
 31
0.0
  0
ARC
  5
31B
  8
0
 10
251.30556085478429
 20
334.60686151423818
 30
0.0
 40
18.0
 50
90.0
 51
270.0
  0
ARC
  5
31C
  8
0
 10
261.30556085478429
 20
334.60686151423818
 30
0.0
 40
18.0
 50
270.0
 51
90.0
  0
CIRCLE
  5
31E
  8
0
 10
251.30556085478429
 20
334.60686151423818
 30
0.0
 40
13.0
  0
LINE
  5
320
  8
0
 10
263.30556085478429
 20
224.60686151423829
 30
0.0
 11
239.30556085478429
 21
224.60686151423829
 31
0.0
  0
LINE
  5
321
  8
0
 10
239.30556085478429
 20
224.60686151423829
 30
0.0
 11
239.30556085478429
 21
210.60686151423829
 31
0.0
  0
LINE
  5
322
  8
0
 10
263.30556085478429
 20
210.60686151423829
 30
0.0
 11
263.30556085478429
 21
224.60686151423829
 31
0.0
  0
LINE
  5
323
  8
0
 10
263.30556085478429
 20
224.60686151423829
 30
0.0
 11
262.30556085478429
 21
225.60686151423829
 31
0.0
  0
LINE
  5
324
  8
0
 10
262.30556085478429
 20
225.60686151423829
 30
0.0
 11
240.30556085478429
 21
225.60686151423829
 31
0.0
  0
LINE
  5
325
  8
0
 10
240.30556085478429
 20
225.60686151423829
 30
0.0
 11
239.30556085478429
 21
224.60686151423829
 31
0.0
  0
LINE
  5
326
  8
1
 10
251.30556085478429
 20
235.60686151423829
 30
0.0
 11
251.30556085478429
 21
69.606861514238275
 31
0.0
  0
ARC
  5
328
  8
0
 10
309.30556085478418
 20
203.8950755142383
 30
0.0
 40
2.0
 50
0.0
 51
81.119306000000705
  0
ARC
  5
329
  8
0
 10
278.52901885478428
 20
200.60686151423829
 30
0.0
 40
10.0
 50
81.119306000000705
 51
90.0
  0
LINE
  5
32A
  8
0
 10
309.61431585478431
 20
205.8710995142383
 30
0.0
 11
280.07279385478432
 21
210.4869805142383
 31
0.0
  0
ARC
  5
32F
  8
0
 10
234.10556085478439
 20
191.4067265142383
 30
0.0
 40
0.8
 50
180.0
 51
268.94760140754272
  0
LINE
  5
331
  8
0
 10
234.10556085478439
 20
210.60686151423829
 30
0.0
 11
278.52901885478428
 21
210.60686151423829
 31
0.0
  0
ARC
  5
332
  8
0
 10
309.30556085478418
 20
191.6068415142382
 30
0.0
 40
2.0
 50
270.0
 51
0.0
  0
ARC
  5
333
  8
0
 10
234.10556085478439
 20
209.80686151423831
 30
0.0
 40
0.8
 50
90.0
 51
180.0
  0
LINE
  5
334
  8
0
 10
311.30556085478418
 20
203.8950755142383
 30
0.0
 11
311.30556085478418
 21
191.6068415142382
 31
0.0
  0
LINE
  5
335
  8
0
 10
233.30556085478429
 20
209.80686151423831
 30
0.0
 11
233.30556085478429
 21
191.4067265142383
 31
0.0
  0
LINE
  5
336
  8
0
 10
227.30556085478429
 20
189.60686151423829
 30
0.0
 11
309.30556085478418
 21
189.60684151423831
 31
0.0
  0
LINE
  5
337
  8
0
 10
269.8123568547843
 20
190.6068585142383
 30
0.0
 11
271.19429985478428
 21
189.6094145142383
 31
0.0
  0
LINE
  5
338
  8
2
 10
259.30556085478429
 20
126.6068615142383
 30
0.0
 11
243.30556085478429
 21
126.6068615142383
 31
0.0
  0
LINE
  5
339
  8
2
 10
257.30556085478429
 20
124.6068615142383
 30
0.0
 11
245.30556085478429
 21
124.6068615142383
 31
0.0
  0
LINE
  5
33A
  8
2
 10
244.40556085478431
 20
150.60686151423829
 30
0.0
 11
244.40556085478431
 21
125.5068615142383
 31
0.0
  0
LINE
  5
33B
  8
2
 10
259.30556085478429
 20
150.60686151423829
 30
0.0
 11
259.30556085478429
 21
126.6068615142383
 31
0.0
  0
LINE
  5
33C
  8
2
 10
259.30556085478429
 20
126.6068615142383
 30
0.0
 11
257.30556085478429
 21
124.6068615142383
 31
0.0
  0
LINE
  5
33D
  8
2
 10
258.20556085478432
 20
150.60686151423829
 30
0.0
 11
258.20556085478432
 21
125.5068615142383
 31
0.0
  0
LINE
  5
33E
  8
2
 10
243.30556085478429
 20
150.60686151423829
 30
0.0
 11
243.30556085478429
 21
126.6068615142383
 31
0.0
  0
LINE
  5
33F
  8
2
 10
243.30556085478429
 20
126.6068615142383
 30
0.0
 11
245.30556085478429
 21
124.6068615142383
 31
0.0
  0
LINE
  5
340
  8
2
 10
266.30556085478429
 20
150.60686151423829
 30
0.0
 11
236.30556085478429
 21
150.60686151423829
 31
0.0
  0
LINE
  5
341
  8
2
 10
267.30556085478429
 20
188.60686151423829
 30
0.0
 11
235.30556085478429
 21
188.60686151423829
 31
0.0
  0
LINE
  5
342
  8
2
 10
267.30556085478429
 20
151.60686151423829
 30
0.0
 11
235.30556085478429
 21
151.60686151423829
 31
0.0
  0
LINE
  5
343
  8
0
 10
235.80556085478429
 20
190.20686151423831
 30
0.0
 11
235.80556109868621
 21
189.60685944106751
 31
0.0
  0
LINE
  5
344
  8
2
 10
235.30556085478429
 20
188.60686151423829
 30
0.0
 11
235.30556085478429
 21
151.60686151423829
 31
0.0
  0
LINE
  5
345
  8
2
 10
267.30556085478429
 20
151.60686151423829
 30
0.0
 11
267.30556085478429
 21
188.60686151423829
 31
0.0
  0
LINE
  5
346
  8
0
 10
266.8055607084404
 20
189.60685188009191
 30
0.0
 11
266.80556085478429
 21
190.20686151423831
 31
0.0
  0
ARC
  5
347
  8
0
 10
267.20556085478432
 20
190.20686151423831
 30
0.0
 40
0.4
 50
90.0
 51
180.0
  0
ARC
  5
348
  8
0
 10
235.40556085478431
 20
190.20686151423831
 30
0.0
 40
0.4
 50
0.0
 51
90.0
  0
LINE
  5
349
  8
2
 10
266.30556085478429
 20
150.60686151423829
 30
0.0
 11
267.30556085478429
 21
151.60686151423829
 31
0.0
  0
LINE
  5
34A
  8
2
 10
235.30556085478429
 20
151.60686151423829
 30
0.0
 11
236.30556085478429
 21
150.60686151423829
 31
0.0
  0
LINE
  5
34B
  8
1
 10
111.3055608547843
 20
235.60686151423829
 30
0.0
 11
111.3055608547843
 21
69.606861514238275
 31
0.0
  0
LINE
  5
34D
  8
0
 10
94.923146854784235
 20
189.60685151423829
 30
0.0
 11
94.624264854784315
 21
190.60686151423829
 31
0.0
  0
ARC
  5
350
  8
0
 10
128.50556085478431
 20
191.4068615142383
 30
0.0
 40
0.8
 50
270.0
 51
0.0
  0
LINE
  5
351
  8
0
 10
127.6879748547843
 20
189.60685151423829
 30
0.0
 11
127.98685685478419
 21
190.60686151423829
 31
0.0
  0
LINE
  5
352
  8
0
 10
128.50556085478431
 20
190.60686151423829
 30
0.0
 11
94.105560854784244
 21
190.60686151423829
 31
0.0
  0
LINE
  5
353
  8
0
 10
94.105560854784244
 20
210.60686151423829
 30
0.0
 11
128.50556085478431
 21
210.60686151423829
 31
0.0
  0
ARC
  5
354
  8
0
 10
128.50556085478431
 20
191.4068615142383
 30
0.0
 40
0.8
 50
270.0
 51
0.0
  0
ARC
  5
355
  8
0
 10
128.50556085478431
 20
209.80686151423831
 30
0.0
 40
0.8
 50
0.0
 51
90.0
  0
LINE
  5
356
  8
0
 10
129.30556085478429
 20
209.80686151423831
 30
0.0
 11
129.30556085478429
 21
191.4068615142383
 31
0.0
  0
LINE
  5
357
  8
2
 10
103.3055608547843
 20
126.6068615142383
 30
0.0
 11
105.3055608547843
 21
124.6068615142383
 31
0.0
  0
LINE
  5
358
  8
2
 10
103.3055608547843
 20
150.60686151423829
 30
0.0
 11
103.3055608547843
 21
126.6068615142383
 31
0.0
  0
LINE
  5
359
  8
2
 10
118.2055608547842
 20
150.60686151423829
 30
0.0
 11
118.2055608547842
 21
125.5068615142383
 31
0.0
  0
LINE
  5
35A
  8
2
 10
119.3055608547843
 20
126.6068615142383
 30
0.0
 11
117.3055608547843
 21
124.6068615142383
 31
0.0
  0
LINE
  5
35B
  8
2
 10
119.3055608547843
 20
150.60686151423829
 30
0.0
 11
119.3055608547843
 21
126.6068615142383
 31
0.0
  0
LINE
  5
35C
  8
2
 10
95.305560854784275
 20
151.60686151423829
 30
0.0
 11
96.305560854784304
 21
150.60686151423829
 31
0.0
  0
LINE
  5
35D
  8
2
 10
126.3055608547843
 20
150.60686151423829
 30
0.0
 11
127.3055608547843
 21
151.60686151423829
 31
0.0
  0
ARC
  5
35E
  8
0
 10
94.105560854784244
 20
191.4068615142383
 30
0.0
 40
0.8
 50
180.0
 51
270.0
  0
ARC
  5
35F
  8
0
 10
94.105560854784244
 20
209.80686151423831
 30
0.0
 40
0.8
 50
90.0
 51
180.0
  0
ARC
  5
360
  8
0
 10
95.405560854784312
 20
190.20686151423831
 30
0.0
 40
0.4
 50
0.0
 51
90.0
  0
ARC
  5
361
  8
0
 10
127.2055608547842
 20
190.20686151423831
 30
0.0
 40
0.4
 50
90.0
 51
180.0
  0
LINE
  5
362
  8
0
 10
123.3055608547843
 20
224.60686151423829
 30
0.0
 11
123.3055608547843
 21
210.60686151423829
 31
0.0
  0
LINE
  5
363
  8
0
 10
123.3055608547843
 20
224.60686151423829
 30
0.0
 11
121.57350985478431
 21
225.60686151423829
 31
0.0
  0
LINE
  5
364
  8
0
 10
126.8055608547843
 20
189.60686151423829
 30
0.0
 11
126.8055608547843
 21
190.20686151423831
 31
0.0
  0
LINE
  5
365
  8
2
 10
127.3055608547843
 20
151.60686151423829
 30
0.0
 11
127.3055608547843
 21
188.60686151423829
 31
0.0
  0
LINE
  5
366
  8
2
 10
95.305560854784275
 20
188.60686151423829
 30
0.0
 11
95.305560854784275
 21
151.60686151423829
 31
0.0
  0
LINE
  5
367
  8
0
 10
95.805560854784304
 20
190.20686151423831
 30
0.0
 11
95.805560854784304
 21
189.60686151423829
 31
0.0
  0
LINE
  5
368
  8
0
 10
93.305560854784304
 20
209.80686151423831
 30
0.0
 11
93.305560854784304
 21
191.4068615142383
 31
0.0
  0
LINE
  5
369
  8
0
 10
99.305560854784275
 20
224.60686151423829
 30
0.0
 11
99.305560854784275
 21
210.60686151423829
 31
0.0
  0
LINE
  5
36A
  8
0
 10
99.305560854784275
 20
224.60686151423829
 30
0.0
 11
101.0376118547842
 21
225.60686151423829
 31
0.0
  0
LINE
  5
36B
  8
2
 10
104.4055608547843
 20
150.60686151423829
 30
0.0
 11
104.4055608547843
 21
125.5068615142383
 31
0.0
  0
LINE
  5
36C
  8
2
 10
117.3055608547843
 20
124.6068615142383
 30
0.0
 11
105.3055608547843
 21
124.6068615142383
 31
0.0
  0
LINE
  5
36D
  8
2
 10
119.3055608547843
 20
126.6068615142383
 30
0.0
 11
103.3055608547843
 21
126.6068615142383
 31
0.0
  0
LINE
  5
36E
  8
2
 10
127.3055608547843
 20
151.60686151423829
 30
0.0
 11
95.305560854784275
 21
151.60686151423829
 31
0.0
  0
LINE
  5
36F
  8
2
 10
127.3055608547843
 20
188.60686151423829
 30
0.0
 11
95.305560854784275
 21
188.60686151423829
 31
0.0
  0
LINE
  5
370
  8
0
 10
123.3055608547843
 20
224.60686151423829
 30
0.0
 11
99.305560854784275
 21
224.60686151423829
 31
0.0
  0
LINE
  5
371
  8
0
 10
121.57350985478431
 20
225.60686151423829
 30
0.0
 11
101.0376118547842
 21
225.60686151423829
 31
0.0
  0
LINE
  5
372
  8
2
 10
126.3055608547843
 20
150.60686151423829
 30
0.0
 11
96.305560854784304
 21
150.60686151423829
 31
0.0
  0
LINE
  5
373
  8
0
 10
402.23880785478411
 20
204.71972451423829
 30
0.0
 11
408.50556085478411
 21
209.80686151423831
 31
0.0
  0
LINE
  5
374
  8
0
 10
380.37231385478441
 20
204.71972451423829
 30
0.0
 11
374.1055608547843
 21
209.80686151423831
 31
0.0
  0
ARC
  5
375
  8
0
 10
381.17231385478431
 20
203.91972451423831
 30
0.0
 40
0.8
 50
90.0
 51
180.0
  0
ARC
  5
376
  8
0
 10
401.43880785478422
 20
203.91972451423831
 30
0.0
 40
0.8
 50
0.0
 51
90.0
  0
ARC
  5
377
  8
0
 10
401.43880785478422
 20
190.4068515142383
 30
0.0
 40
0.8
 50
270.0
 51
0.0
  0
ARC
  5
378
  8
0
 10
381.17231385478431
 20
190.4068515142383
 30
0.0
 40
0.8
 50
180.0
 51
270.0
  0
LINE
  5
379
  8
0
 10
401.43880785478422
 20
204.71972451423829
 30
0.0
 11
381.17231385478431
 21
204.71972451423829
 31
0.0
  0
LINE
  5
37A
  8
0
 10
402.23880785478411
 20
190.4068515142383
 30
0.0
 11
402.23880785478411
 21
203.91972451423831
 31
0.0
  0
LINE
  5
37B
  8
0
 10
380.37231385478441
 20
203.91972451423831
 30
0.0
 11
380.37231385478441
 21
190.4068515142383
 31
0.0
  0
LINE
  5
37C
  8
0
 10
374.92314685478442
 20
189.60685151423829
 30
0.0
 11
374.62426485478431
 21
190.60686151423829
 31
0.0
  0
LINE
  5
37D
  8
0
 10
407.98685685478409
 20
190.60686151423829
 30
0.0
 11
408.50556085478411
 21
190.60686151423829
 31
0.0
  0
LINE
  5
37E
  8
0
 10
407.68797485478422
 20
189.60685151423829
 30
0.0
 11
407.98685685478409
 21
190.60686151423829
 31
0.0
  0
LINE
  5
380
  8
0
 10
374.1055608547843
 20
190.60686151423829
 30
0.0
 11
374.62426485478431
 21
190.60686151423829
 31
0.0
  0
LINE
  5
381
  8
0
 10
408.50556085478411
 20
210.60686151423829
 30
0.0
 11
374.1055608547843
 21
210.60686151423829
 31
0.0
  0
ARC
  5
382
  8
0
 10
374.1055608547843
 20
191.4068615142383
 30
0.0
 40
0.8
 50
180.0
 51
270.0
  0
ARC
  5
383
  8
0
 10
374.1055608547843
 20
209.80686151423831
 30
0.0
 40
0.8
 50
90.0
 51
180.0
  0
LINE
  5
384
  8
0
 10
373.30556085478429
 20
209.80686151423831
 30
0.0
 11
373.30556085478429
 21
191.4068615142383
 31
0.0
  0
LINE
  5
385
  8
2
 10
399.30556085478418
 20
126.6068615142383
 30
0.0
 11
397.30556085478418
 21
124.6068615142383
 31
0.0
  0
LINE
  5
386
  8
2
 10
399.30556085478418
 20
150.60686151423829
 30
0.0
 11
399.30556085478418
 21
126.6068615142383
 31
0.0
  0
LINE
  5
387
  8
2
 10
384.40556085478431
 20
150.60686151423829
 30
0.0
 11
384.40556085478431
 21
125.5068615142383
 31
0.0
  0
LINE
  5
388
  8
2
 10
383.30556085478418
 20
126.6068615142383
 30
0.0
 11
385.30556085478418
 21
124.6068615142383
 31
0.0
  0
LINE
  5
389
  8
2
 10
383.30556085478418
 20
150.60686151423829
 30
0.0
 11
383.30556085478418
 21
126.6068615142383
 31
0.0
  0
LINE
  5
38A
  8
2
 10
407.30556085478418
 20
151.60686151423829
 30
0.0
 11
406.30556085478412
 21
150.60686151423829
 31
0.0
  0
LINE
  5
38B
  8
2
 10
376.30556085478418
 20
150.60686151423829
 30
0.0
 11
375.30556085478429
 21
151.60686151423829
 31
0.0
  0
ARC
  5
38C
  8
0
 10
408.50556085478411
 20
191.4068615142383
 30
0.0
 40
0.8
 50
270.0
 51
0.0
  0
ARC
  5
38D
  8
0
 10
408.50556085478411
 20
209.80686151423831
 30
0.0
 40
0.8
 50
0.0
 51
90.0
  0
LINE
  5
38E
  8
0
 10
379.30556085478418
 20
224.60686151423829
 30
0.0
 11
379.30556085478418
 21
210.60686151423829
 31
0.0
  0
LINE
  5
38F
  8
0
 10
379.30556085478418
 20
224.60686151423829
 30
0.0
 11
381.03761185478419
 21
225.60686151423829
 31
0.0
  0
LINE
  5
390
  8
2
 10
375.80556085478418
 20
188.60686151423829
 30
0.0
 11
375.80556085478418
 21
189.60685151423829
 31
0.0
  0
LINE
  5
391
  8
2
 10
375.30556085478429
 20
151.60686151423829
 30
0.0
 11
375.30556085478429
 21
188.60686151423829
 31
0.0
  0
LINE
  5
392
  8
2
 10
407.30556085478418
 20
188.60686151423829
 30
0.0
 11
407.30556085478418
 21
151.60686151423829
 31
0.0
  0
LINE
  5
393
  8
2
 10
406.80556085478412
 20
189.60685151423829
 30
0.0
 11
406.80556085478412
 21
188.60686151423829
 31
0.0
  0
LINE
  5
394
  8
0
 10
409.30556085478418
 20
209.80686151423831
 30
0.0
 11
409.30556085478418
 21
191.4068615142383
 31
0.0
  0
LINE
  5
395
  8
0
 10
403.30556085478418
 20
224.60686151423829
 30
0.0
 11
403.30556085478418
 21
210.60686151423829
 31
0.0
  0
LINE
  5
396
  8
0
 10
403.30556085478418
 20
224.60686151423829
 30
0.0
 11
401.57350985478422
 21
225.60686151423829
 31
0.0
  0
LINE
  5
397
  8
2
 10
398.20556085478432
 20
150.60686151423829
 30
0.0
 11
398.20556085478432
 21
125.5068615142383
 31
0.0
  0
LINE
  5
398
  8
2
 10
385.30556085478418
 20
124.6068615142383
 30
0.0
 11
397.30556085478418
 21
124.6068615142383
 31
0.0
  0
LINE
  5
399
  8
2
 10
383.30556085478418
 20
126.6068615142383
 30
0.0
 11
399.30556085478418
 21
126.6068615142383
 31
0.0
  0
LINE
  5
39A
  8
2
 10
375.30556085478429
 20
151.60686151423829
 30
0.0
 11
407.30556085478418
 21
151.60686151423829
 31
0.0
  0
LINE
  5
39B
  8
2
 10
375.30556085478429
 20
188.60686151423829
 30
0.0
 11
407.30556085478418
 21
188.60686151423829
 31
0.0
  0
LINE
  5
39C
  8
0
 10
379.30556085478418
 20
224.60686151423829
 30
0.0
 11
403.30556085478418
 21
224.60686151423829
 31
0.0
  0
LINE
  5
39D
  8
0
 10
381.03761185478419
 20
225.60686151423829
 30
0.0
 11
401.57350985478422
 21
225.60686151423829
 31
0.0
  0
LINE
  5
39E
  8
2
 10
376.30556085478418
 20
150.60686151423829
 30
0.0
 11
406.30556085478412
 21
150.60686151423829
 31
0.0
  0
LINE
  5
39F
  8
1
 10
391.30556085478418
 20
235.60686151423829
 30
0.0
 11
391.30556085478418
 21
69.606861514238275
 31
0.0
  0
LINE
  5
3A0
  8
0
 10
276.12312485478429
 20
139.60686151423829
 30
0.0
 11
276.12312485478429
 21
119.6068615142383
 31
0.0
  0
LINE
  5
3A1
  8
0
 10
266.3251658547843
 20
139.60686151423829
 30
0.0
 11
266.3251658547843
 21
119.6068615142383
 31
0.0
  0
ARC
  5
3A2
  8
0
 10
271.2241448547843
 20
129.42181651423829
 30
0.0
 40
10.969654999999999
 50
243.47464799999801
 51
296.52535200000199
  0
ARC
  5
3A3
  8
0
 10
271.2241448547843
 20
129.79190651423829
 30
0.0
 40
10.969654999999999
 50
63.47464799999797
 51
116.525352000002
  0
LINE
  5
3A4
  8
0
 10
266.3251658547843
 20
139.60686151423829
 30
0.0
 11
276.12312485478429
 21
139.60686151423829
 31
0.0
  0
LINE
  5
3A5
  8
0
 10
266.3251658547843
 20
119.6068615142383
 30
0.0
 11
276.12312485478429
 21
119.6068615142383
 31
0.0
  0
LINE
  5
3A6
  8
0
 10
236.28595585478431
 20
119.6068615142383
 30
0.0
 11
226.48799685478431
 21
119.6068615142383
 31
0.0
  0
LINE
  5
3A7
  8
0
 10
236.28595585478431
 20
139.60686151423829
 30
0.0
 11
226.48799685478431
 21
139.60686151423829
 31
0.0
  0
ARC
  5
3A8
  8
0
 10
231.38697685478431
 20
129.79190651423829
 30
0.0
 40
10.969654999999999
 50
63.47464799999797
 51
116.525352000002
  0
ARC
  5
3A9
  8
0
 10
231.38697685478431
 20
129.42181651423829
 30
0.0
 40
10.969654999999999
 50
243.47464799999801
 51
296.52535200000199
  0
ARC
  5
3AA
  8
0
 10
251.30556085478429
 20
160.5987305142383
 30
0.0
 40
42.14656999999999
 50
256.55726100000078
 51
283.44273899999922
  0
ARC
  5
3AB
  8
0
 10
251.30556085478429
 20
98.614992514238295
 30
0.0
 40
42.14656999999999
 50
76.557261000000807
 51
103.44273899999919
  0
LINE
  5
3AC
  8
0
 10
261.10351985478428
 20
139.60686151423829
 30
0.0
 11
241.5076018547843
 21
139.60686151423829
 31
0.0
  0
LINE
  5
3AD
  8
0
 10
261.10351985478428
 20
119.6068615142383
 30
0.0
 11
241.5076018547843
 21
119.6068615142383
 31
0.0
  0
LINE
  5
3AE
  8
0
 10
261.10351985478428
 20
139.60686151423829
 30
0.0
 11
261.10351985478428
 21
119.6068615142383
 31
0.0
  0
LINE
  5
3AF
  8
0
 10
241.5076018547843
 20
139.60686151423829
 30
0.0
 11
241.5076018547843
 21
119.6068615142383
 31
0.0
  0
LINE
  5
3B0
  8
0
 10
236.28595585478431
 20
139.60686151423829
 30
0.0
 11
236.28595585478431
 21
119.6068615142383
 31
0.0
  0
LINE
  5
3B1
  8
0
 10
226.48799685478431
 20
139.60686151423829
 30
0.0
 11
226.48799685478431
 21
119.6068615142383
 31
0.0
  0
LINE
  5
3B3
  8
0
 10
259.30556085478429
 20
105.6068615142383
 30
0.0
 11
243.30556085478429
 21
105.6068615142383
 31
0.0
  0
LINE
  5
3B4
  8
0
 10
257.30556085478429
 20
79.606861514238261
 30
0.0
 11
245.30556085478429
 21
79.606861514238261
 31
0.0
  0
LINE
  5
3B5
  8
0
 10
259.30556085478429
 20
81.606861514238304
 30
0.0
 11
243.30556085478429
 21
81.606861514238304
 31
0.0
  0
ARC
  5
3B6
  8
0
 10
257.20556085478421
 20
106.0068615142383
 30
0.0
 40
0.4
 50
180.0
 51
270.0
  0
LINE
  5
3B7
  8
0
 10
259.30556085478429
 20
81.606861514238304
 30
0.0
 11
257.30556085478429
 21
79.606861514238261
 31
0.0
  0
LINE
  5
3B8
  8
3
 10
258.20556085478432
 20
105.6068615142383
 30
0.0
 11
258.20556085478432
 21
80.506861514238295
 31
0.0
  0
LINE
  5
3B9
  8
0
 10
259.30556085478429
 20
105.6068615142383
 30
0.0
 11
259.30556085478429
 21
81.606861514238304
 31
0.0
  0
LINE
  5
3BA
  8
0
 10
243.30556085478429
 20
105.6068615142383
 30
0.0
 11
243.30556085478429
 21
81.606861514238304
 31
0.0
  0
LINE
  5
3BB
  8
3
 10
244.40556085478431
 20
105.6068615142383
 30
0.0
 11
244.40556085478431
 21
80.506861514238295
 31
0.0
  0
LINE
  5
3BC
  8
0
 10
276.30556085478429
 20
188.60686151423829
 30
0.0
 11
276.30556085478429
 21
110.6068615142383
 31
0.0
  0
LINE
  5
3BD
  8
0
 10
275.30556085478429
 20
109.6068615142383
 30
0.0
 11
227.30556085478429
 21
109.6068615142383
 31
0.0
  0
LINE
  5
3BE
  8
0
 10
256.80556085478429
 20
109.2068615142383
 30
0.0
 11
256.80556085478429
 21
106.0068615142383
 31
0.0
  0
LINE
  5
3BF
  8
0
 10
275.30556085478429
 20
189.60686151423829
 30
0.0
 11
276.30556085478429
 21
188.60686151423829
 31
0.0
  0
LINE
  5
3C0
  8
0
 10
276.30556085478429
 20
110.6068615142383
 30
0.0
 11
275.30556085478429
 21
109.6068615142383
 31
0.0
  0
ARC
  5
3C1
  8
0
 10
257.20556085478421
 20
109.2068615142383
 30
0.0
 40
0.4
 50
90.0
 51
180.0
  0
ARC
  5
3C2
  8
0
 10
245.40556085478431
 20
106.0068615142383
 30
0.0
 40
0.4
 50
270.0
 51
0.0
  0
ARC
  5
3C3
  8
0
 10
245.40556085478431
 20
109.2068615142383
 30
0.0
 40
0.4
 50
0.0
 51
90.0
  0
LINE
  5
3C4
  8
0
 10
243.30556085478429
 20
81.606861514238304
 30
0.0
 11
245.30556085478429
 21
79.606861514238261
 31
0.0
  0
LINE
  5
3C5
  8
0
 10
226.30556085478429
 20
110.6068615142383
 30
0.0
 11
227.30556085478429
 21
109.6068615142383
 31
0.0
  0
LINE
  5
3C6
  8
0
 10
227.30556085478429
 20
189.60686151423829
 30
0.0
 11
226.30556085478429
 21
188.60686151423829
 31
0.0
  0
LINE
  5
3C7
  8
0
 10
245.80556085478429
 20
109.2068615142383
 30
0.0
 11
245.80556085478429
 21
106.0068615142383
 31
0.0
  0
LINE
  5
3C8
  8
0
 10
226.30556085478429
 20
188.60686151423829
 30
0.0
 11
226.30556085478429
 21
110.6068615142383
 31
0.0
  0
LINE
  5
3EA
  8
0
 10
269.8123568547843
 20
190.6068585142383
 30
0.0
 11
234.09086742511039
 21
190.60686146116711
 31
0.0
  0
LINE
  5
406
  8
2
 10
266.8055607084404
 20
189.60685188009199
 30
0.0
 11
266.8055607084404
 21
188.60686151423829
 31
0.0
  0
LINE
  5
407
  8
2
 10
235.80556109868621
 20
189.60685944106751
 30
0.0
 11
235.80556109868621
 21
188.60686151423829
 31
0.0
  0
LINE
  5
408
  8
2
 10
126.8055608547843
 20
189.60686151423829
 30
0.0
 11
126.8055608547843
 21
188.60686151423829
 31
0.0
  0
LINE
  5
409
  8
2
 10
95.805560854784304
 20
189.60686151423829
 30
0.0
 11
95.805560854784304
 21
188.60686151423829
 31
0.0
  0
TEXT
  5
598
  8
0
 62
     3
 10
0.0
 20
0.0
 30
0.0
 40
10.0
  1
BJ130-16060A1
  7
STANDARD1
  0
ENDSEC
  0
EOF
