  0
SECTION
  2
HEADER
  9
$ACADVER
  1
AC1009
  9
$INSBASE
 10
0.0
 20
0.0
 30
0.0
  9
$EXTMIN
 10
0.0
 20
-2.960436562073669
 30
0.0
  9
$EXTMAX
 10
410.13241876345842
 20
398.41340600563848
 30
0.0
  9
$LIMMIN
 10
0.0
 20
0.0
  9
$LIMMAX
 10
780.0
 20
540.0
  9
$ORTHOMODE
 70
     0
  9
$REGENMODE
 70
     1
  9
$FILLMODE
 70
     1
  9
$QTEXTMODE
 70
     0
  9
$MIRRTEXT
 70
     0
  9
$DRAGMODE
 70
     2
  9
$LTSCALE
 40
20.0
  9
$OSMODE
 70
  3071
  9
$ATTMODE
 70
     1
  9
$TEXTSIZE
 40
0.2
  9
$TRACEWID
 40
0.05
  9
$TEXTSTYLE
  7
STANDARD
  9
$CLAYER
  8
0
  9
$CELTYPE
  6
BYLAYER
  9
$CECOLOR
 62
   256
  9
$DIMSCALE
 40
2.0
  9
$DIMASZ
 40
3.0
  9
$DIMEXO
 40
2.0
  9
$DIMDLI
 40
0.38
  9
$DIMRND
 40
0.0
  9
$DIMDLE
 40
0.0
  9
$DIMEXE
 40
2.0
  9
$DIMTP
 40
0.0
  9
$DIMTM
 40
0.0
  9
$DIMTXT
 40
3.0
  9
$DIMCEN
 40
0.0
  9
$DIMTSZ
 40
0.0
  9
$DIMTOL
 70
     0
  9
$DIMLIM
 70
     0
  9
$DIMTIH
 70
     0
  9
$DIMTOH
 70
     0
  9
$DIMSE1
 70
     0
  9
$DIMSE2
 70
     0
  9
$DIMTAD
 70
     1
  9
$DIMZIN
 70
     0
  9
$DIMBLK
  1

  9
$DIMASO
 70
     0
  9
$DIMSHO
 70
     0
  9
$DIMPOST
  1

  9
$DIMAPOST
  1

  9
$DIMALT
 70
     0
  9
$DIMALTD
 70
     2
  9
$DIMALTF
 40
25.399999999999999
  9
$DIMLFAC
 40
1.0
  9
$DIMTOFL
 70
     1
  9
$DIMTVP
 40
1.6000000000000001
  9
$DIMTIX
 70
     1
  9
$DIMSOXD
 70
     0
  9
$DIMSAH
 70
     0
  9
$DIMBLK1
  1

  9
$DIMBLK2
  1

  9
$DIMSTYLE
  2
STANDARD
  9
$DIMCLRD
 70
     0
  9
$DIMCLRE
 70
     0
  9
$DIMCLRT
 70
     0
  9
$DIMTFAC
 40
1.0
  9
$DIMGAP
 40
0.09
  9
$LUNITS
 70
     2
  9
$LUPREC
 70
     4
  9
$SKETCHINC
 40
0.1
  9
$FILLETRAD
 40
0.0
  9
$AUNITS
 70
     0
  9
$AUPREC
 70
     4
  9
$MENU
  1
E:\r13\win\SUPPORT\ACAD
  9
$ELEVATION
 40
0.0
  9
$PELEVATION
 40
0.0
  9
$THICKNESS
 40
0.0
  9
$LIMCHECK
 70
     0
  9
$BLIPMODE
 70
     0
  9
$CHAMFERA
 40
0.0
  9
$CHAMFERB
 40
0.0
  9
$SKPOLY
 70
     0
  9
$TDCREATE
 40
2449840.3509259261
  9
$TDUPDATE
 40
2456597.6217322801
  9
$TDINDWG
 40
0.0152891667
  9
$TDUSRTIMER
 40
2456518.2074843049
  9
$USRTIMER
 70
     1
  9
$ANGBASE
 50
0.0
  9
$ANGDIR
 70
     0
  9
$PDMODE
 70
     0
  9
$PDSIZE
 40
0.0
  9
$PLINEWID
 40
0.0
  9
$COORDS
 70
     1
  9
$SPLFRAME
 70
     0
  9
$SPLINETYPE
 70
     6
  9
$SPLINESEGS
 70
     8
  9
$ATTDIA
 70
     0
  9
$ATTREQ
 70
     1
  9
$HANDLING
 70
     1
  9
$HANDSEED
  5
5FD
  9
$SURFTAB1
 70
     6
  9
$SURFTAB2
 70
     6
  9
$SURFTYPE
 70
     6
  9
$SURFU
 70
     6
  9
$SURFV
 70
     6
  9
$UCSNAME
  2

  9
$UCSORG
 10
0.0
 20
0.0
 30
0.0
  9
$UCSXDIR
 10
1.0
 20
0.0
 30
0.0
  9
$UCSYDIR
 10
0.0
 20
1.0
 30
0.0
  9
$PUCSNAME
  2

  9
$PUCSORG
 10
0.0
 20
0.0
 30
0.0
  9
$PUCSXDIR
 10
1.0
 20
0.0
 30
0.0
  9
$PUCSYDIR
 10
0.0
 20
1.0
 30
0.0
  9
$USERI1
 70
     3
  9
$USERI2
 70
     1
  9
$USERI3
 70
     0
  9
$USERI4
 70
     0
  9
$USERI5
 70
     0
  9
$USERR1
 40
2.0
  9
$USERR2
 40
3.0
  9
$USERR3
 40
3.0
  9
$USERR4
 40
3.0
  9
$USERR5
 40
10.0
  9
$WORLDVIEW
 70
     1
  9
$SHADEDGE
 70
     3
  9
$SHADEDIF
 70
    70
  9
$TILEMODE
 70
     1
  9
$MAXACTVP
 70
    16
  9
$PLIMCHECK
 70
     0
  9
$PEXTMIN
 10
1.0000000000000000E+020
 20
1.0000000000000000E+020
 30
1.0000000000000000E+020
  9
$PEXTMAX
 10
-1.0000000000000000E+020
 20
-1.0000000000000000E+020
 30
-1.0000000000000000E+020
  9
$PLIMMIN
 10
0.0
 20
0.0
  9
$PLIMMAX
 10
12.0
 20
9.0
  9
$UNITMODE
 70
     0
  9
$VISRETAIN
 70
     0
  9
$PLINEGEN
 70
     0
  9
$PSLTSCALE
 70
     0
  0
ENDSEC
  0
SECTION
  2
TABLES
  0
TABLE
  2
VPORT
 70
     1
  0
VPORT
  2
*ACTIVE
 70
     0
 10
0.0
 20
0.0
 11
1.0
 21
1.0
 12
389.988099052557
 22
383.6881458164155
 13
0.0
 23
0.0
 14
5.0
 24
5.0
 15
10.0
 25
10.0
 16
0.0
 26
0.0
 36
1.0
 17
0.0
 27
0.0
 37
0.0
 40
780.34809480459126
 41
1.831871345029239
 42
50.0
 43
0.0
 44
0.0
 50
0.0
 51
0.0
 71
    16
 72
   100
 73
     1
 74
     0
 75
     0
 76
     0
 77
     0
 78
     2
  0
ENDTAB
  0
TABLE
  2
LTYPE
 70
     4
  0
LTYPE
  2
CONTINUOUS
 70
     0
  3
Solid Line
 72
    65
 73
     0
 40
0.0
  0
LTYPE
  2
PHANTOM2
 70
     0
  3
___ _ _ ___ _ _ ___ _ _ ___ _ _
 72
    65
 73
     6
 40
1.25
 49
0.625
 49
-0.125
 49
0.125
 49
-0.125
 49
0.125
 49
-0.125
  0
LTYPE
  2
CENTER
 70
     0
  3
____ _ ____ _ ____ _ ____ _ ____ _ ____ _ ____
 72
    65
 73
     4
 40
2.0
 49
1.25
 49
-0.25
 49
0.25
 49
-0.25
  0
LTYPE
  2
HIDDEN
 70
     0
  3
_ _ _ _ _ _ _ _ _ _ _ _ _ _ _ _ _ _ _ _ _ _ _
 72
    65
 73
     2
 40
0.375
 49
0.25
 49
-0.125
  0
ENDTAB
  0
TABLE
  2
LAYER
 70
     4
  0
LAYER
  2
0
 70
     0
 62
     7
  6
CONTINUOUS
  0
LAYER
  2
1
 70
     0
 62
     1
  6
CENTER
  0
LAYER
  2
3
 70
     0
 62
     3
  6
CONTINUOUS
  0
LAYER
  2
2
 70
     0
 62
     2
  6
HIDDEN
  0
ENDTAB
  0
TABLE
  2
STYLE
 70
     3
  0
STYLE
  2
STANDARD
 70
     0
 40
0.0
 41
1.0
 50
0.0
 71
     0
 42
0.2
  3
TXT
  4
BIGFONT
  0
STYLE
  2
ANNOTATIVE
 70
     0
 40
0.0
 41
1.0
 50
0.0
 71
     0
 42
0.2
  3
txt
  4

  0
STYLE
  2
STANDARD1
 70
     0
 40
0.0
 41
1.0
 50
0.0
 71
     0
 42
3.0
  3
txt
  4

  0
ENDTAB
  0
TABLE
  2
VIEW
 70
     1
  0
VIEW
  2
ALL
 70
     0
 40
270.0
 10
220.99159700000001
 20
135.0
 41
0.0
 11
0.0
 21
0.0
 31
1.0
 12
0.0
 22
0.0
 32
0.0
 42
0.0
 43
0.0
 44
0.0
 50
0.0
 71
     0
  0
ENDTAB
  0
TABLE
  2
UCS
 70
     0
  0
ENDTAB
  0
TABLE
  2
APPID
 70
     5
  0
APPID
  2
ACAD
 70
     0
  0
APPID
  2
ACADANNOTATIVE
 70
     0
  0
APPID
  2
ACAD_MLEADERVER
 70
     0
  0
APPID
  2
ACAD_EXEMPT_FROM_CAD_STANDARDS
 70
     0
  0
APPID
  2
ACAD_NAV_VCDISPLAY
 70
     0
  0
ENDTAB
  0
TABLE
  2
DIMSTYLE
 70
     2
  0
DIMSTYLE
  2
STANDARD
 70
     0
  3

  4

  5

  6

  7

 40
1.0
 41
0.18
 42
0.0625
 43
0.38
 44
0.18
 45
0.0
 46
0.0
 47
0.0
 48
0.0
140
0.18
141
0.09
142
0.0
143
25.399999999999999
144
1.0
145
0.0
146
1.0
147
0.09
 71
     0
 72
     0
 73
     1
 74
     1
 75
     0
 76
     0
 77
     0
 78
     0
170
     0
171
     2
172
     0
173
     0
174
     0
175
     0
176
     0
177
     0
178
     0
  0
DIMSTYLE
  2
ANNOTATIVE
 70
     0
  3

  4

  5

  6

  7

 40
1.0
 41
0.18
 42
0.0625
 43
0.38
 44
0.18
 45
0.0
 46
0.0
 47
0.0
 48
0.0
140
0.18
141
0.09
142
0.0
143
25.399999999999999
144
1.0
145
0.0
146
1.0
147
0.09
 71
     0
 72
     0
 73
     1
 74
     1
 75
     0
 76
     0
 77
     0
 78
     0
170
     0
171
     2
172
     0
173
     0
174
     0
175
     0
176
     0
177
     0
178
     0
  0
ENDTAB
  0
ENDSEC
  0
SECTION
  2
BLOCKS
  0
BLOCK
  8
0
  2
$MODEL_SPACE
 70
     0
 10
0.0
 20
0.0
 30
0.0
  3
$MODEL_SPACE
  1

  0
ENDBLK
  5
52F
  8
0
  0
BLOCK
 67
     1
  8
0
  2
$PAPER_SPACE
 70
     0
 10
0.0
 20
0.0
 30
0.0
  3
$PAPER_SPACE
  1

  0
ENDBLK
  5
52B
 67
     1
  8
0
  0
BLOCK
  8
0
  2
STDGX5
 70
     0
 10
0.0
 20
0.0
 30
0.0
  3
STDGX5
  1

  0
ENDBLK
  5
3F
  8
0
  0
ENDSEC
  0
SECTION
  2
ENTITIES
  0
INSERT
  5
178
  8
0
  2
STDGX5
 10
0.0
 20
0.0
 30
0.0
  0
INSERT
  5
17F
  8
0
  2
STDGX5
 10
0.0
 20
0.0
 30
0.0
  0
INSERT
  5
180
  8
0
  2
STDGX5
 10
0.0
 20
0.0
 30
0.0
  0
INSERT
  5
181
  8
0
  2
STDGX5
 10
0.0
 20
0.0
 30
0.0
  0
LINE
  5
2BC
  8
1
 10
305.13241876345842
 20
358.41340600563848
 30
0.0
 11
205.13241876345839
 21
358.41340600563848
 31
0.0
  0
LINE
  5
2BD
  8
1
 10
245.13241876345839
 20
318.41340600563848
 30
0.0
 11
245.13241876345839
 21
398.41340600563848
 31
0.0
  0
ARC
  5
2C1
  8
0
 10
245.13241876345839
 20
358.41340600563848
 30
0.0
 40
25.0
 50
41.855314091590849
 51
318.1446859084092
  0
LINE
  5
2C3
  8
0
 10
113.1324187634584
 20
109.41340600563851
 30
0.0
 11
97.132418763458404
 21
109.41340600563851
 31
0.0
  0
LINE
  5
2C4
  8
0
 10
111.1324187634584
 20
83.413406005638535
 30
0.0
 11
99.132418763458446
 21
83.413406005638535
 31
0.0
  0
LINE
  5
2C5
  8
0
 10
113.1324187634584
 20
85.413406005638535
 30
0.0
 11
97.132418763458404
 21
85.413406005638535
 31
0.0
  0
LINE
  5
2C6
  8
0
 10
110.6324187634584
 20
113.0134060056385
 30
0.0
 11
110.6324187634584
 21
109.8134060056385
 31
0.0
  0
ARC
  5
2C7
  8
0
 10
111.0324187634584
 20
109.8134060056385
 30
0.0
 40
0.4
 50
180.0
 51
270.0
  0
LINE
  5
2C8
  8
3
 10
112.0324187634584
 20
109.41340600563851
 30
0.0
 11
112.0324187634584
 21
84.313406005638555
 31
0.0
  0
LINE
  5
2C9
  8
0
 10
113.1324187634584
 20
109.41340600563851
 30
0.0
 11
113.1324187634584
 21
85.413406005638535
 31
0.0
  0
LINE
  5
2CA
  8
0
 10
111.1324187634584
 20
83.413406005638535
 30
0.0
 11
113.1324187634584
 21
85.413406005638535
 31
0.0
  0
LINE
  5
2CB
  8
0
 10
99.132418763458446
 20
83.413406005638535
 30
0.0
 11
97.132418763458404
 21
85.413406005638535
 31
0.0
  0
LINE
  5
2CC
  8
0
 10
97.132418763458404
 20
109.41340600563851
 30
0.0
 11
97.132418763458404
 21
85.413406005638535
 31
0.0
  0
LINE
  5
2CD
  8
0
 10
102.1176997634584
 20
143.41340600563851
 30
0.0
 11
102.1176997634584
 21
123.41340600563851
 31
0.0
  0
LINE
  5
2CE
  8
0
 10
102.1176997634584
 20
123.41340600563851
 30
0.0
 11
85.147137763458431
 21
123.41340600563851
 31
0.0
  0
LINE
  5
2CF
  8
0
 10
85.147137763458431
 20
123.41340600563851
 30
0.0
 11
85.147137763458431
 21
143.41340600563851
 31
0.0
  0
LINE
  5
2D0
  8
0
 10
85.147137763458431
 20
143.41340600563851
 30
0.0
 11
102.1176997634584
 21
143.41340600563851
 31
0.0
  0
ARC
  5
2D1
  8
0
 10
93.632418763458404
 20
112.81384200563851
 30
0.0
 40
31.754265
 50
74.50126700000196
 51
105.498732999998
  0
ARC
  5
2D2
  8
0
 10
93.632418763458404
 20
154.01297000563841
 30
0.0
 40
31.754265
 50
254.50126700000189
 51
285.49873299999803
  0
ARC
  5
2D3
  8
0
 10
116.6324187634584
 20
154.01297000563841
 30
0.0
 40
31.754265
 50
254.50126700000189
 51
285.49873299999803
  0
ARC
  5
2D4
  8
0
 10
116.6324187634584
 20
112.81384200563851
 30
0.0
 40
31.754265
 50
74.50126700000196
 51
105.498732999998
  0
LINE
  5
2D5
  8
0
 10
125.1176997634584
 20
143.41340600563851
 30
0.0
 11
108.1471377634584
 21
143.41340600563851
 31
0.0
  0
LINE
  5
2D6
  8
0
 10
125.1176997634584
 20
123.41340600563851
 30
0.0
 11
125.1176997634584
 21
143.41340600563851
 31
0.0
  0
LINE
  5
2D7
  8
0
 10
108.1471377634584
 20
123.41340600563851
 30
0.0
 11
125.1176997634584
 21
123.41340600563851
 31
0.0
  0
LINE
  5
2D8
  8
0
 10
108.1471377634584
 20
143.41340600563851
 30
0.0
 11
108.1471377634584
 21
123.41340600563851
 31
0.0
  0
LINE
  5
2D9
  8
3
 10
98.232418763458455
 20
109.41340600563851
 30
0.0
 11
98.232418763458455
 21
84.313406005638555
 31
0.0
  0
LINE
  5
2DA
  8
0
 10
130.13241876345839
 20
212.41340600563851
 30
0.0
 11
130.13241876345839
 21
144.5681070056385
 31
0.0
  0
LINE
  5
2DB
  8
0
 10
128.13241876345839
 20
143.41340600563851
 30
0.0
 11
128.13241876345839
 21
123.41340600563851
 31
0.0
  0
LINE
  5
2DC
  8
0
 10
129.13241876345839
 20
213.41340600563859
 30
0.0
 11
130.13241876345839
 21
212.41340600563851
 31
0.0
  0
LINE
  5
2DD
  8
0
 10
130.13241876345839
 20
114.41340600563851
 30
0.0
 11
129.13241876345839
 21
113.41340600563851
 31
0.0
  0
ARC
  5
2DE
  8
0
 10
111.0324187634584
 20
113.0134060056385
 30
0.0
 40
0.4
 50
90.0
 51
180.0
  0
LINE
  5
2DF
  8
0
 10
128.13241876345839
 20
143.41340600563851
 30
0.0
 11
130.13241876345839
 21
144.5681070056385
 31
0.0
  0
LINE
  5
2E0
  8
0
 10
128.13241876345839
 20
123.41340600563851
 30
0.0
 11
130.13241876345839
 21
122.2587050056385
 31
0.0
  0
LINE
  5
2E1
  8
0
 10
130.13241876345839
 20
122.2587050056385
 30
0.0
 11
130.13241876345839
 21
114.41340600563851
 31
0.0
  0
LINE
  5
2E2
  8
0
 10
80.132418763458418
 20
122.2587050056385
 30
0.0
 11
80.132418763458418
 21
114.41340600563851
 31
0.0
  0
LINE
  5
2E3
  8
0
 10
82.132418763458432
 20
123.41340600563851
 30
0.0
 11
80.132418763458418
 21
122.2587050056385
 31
0.0
  0
LINE
  5
2E4
  8
0
 10
82.132418763458432
 20
143.41340600563851
 30
0.0
 11
80.132418763458418
 21
144.5681070056385
 31
0.0
  0
ARC
  5
2E5
  8
0
 10
99.23241876345844
 20
109.8134060056385
 30
0.0
 40
0.4
 50
270.0
 51
0.0
  0
ARC
  5
2E6
  8
0
 10
99.23241876345844
 20
113.0134060056385
 30
0.0
 40
0.4
 50
0.0
 51
90.0
  0
LINE
  5
2E7
  8
0
 10
80.132418763458418
 20
114.41340600563851
 30
0.0
 11
81.132418763458446
 21
113.41340600563851
 31
0.0
  0
LINE
  5
2E8
  8
0
 10
81.132418763458446
 20
213.41340600563859
 30
0.0
 11
80.132418763458418
 21
212.41340600563851
 31
0.0
  0
LINE
  5
2E9
  8
0
 10
99.632418763458404
 20
113.0134060056385
 30
0.0
 11
99.632418763458404
 21
109.8134060056385
 31
0.0
  0
LINE
  5
2EA
  8
0
 10
81.132418763458446
 20
113.41340600563851
 30
0.0
 11
129.13241876345839
 21
113.41340600563851
 31
0.0
  0
LINE
  5
2EB
  8
0
 10
82.132418763458432
 20
143.41340600563851
 30
0.0
 11
82.132418763458432
 21
123.41340600563851
 31
0.0
  0
LINE
  5
2EC
  8
0
 10
80.132418763458418
 20
212.41340600563851
 30
0.0
 11
80.132418763458418
 21
144.5681070056385
 31
0.0
  0
LINE
  5
2ED
  8
0
 10
129.13241876345839
 20
213.41340600563859
 30
0.0
 11
81.132418763458446
 21
213.41340600563859
 31
0.0
  0
LINE
  5
2EF
  8
0
 10
393.13241876345842
 20
109.41340600563851
 30
0.0
 11
377.13241876345842
 21
109.41340600563851
 31
0.0
  0
LINE
  5
2F0
  8
0
 10
391.13241876345842
 20
83.413406005638535
 30
0.0
 11
379.13241876345842
 21
83.413406005638535
 31
0.0
  0
LINE
  5
2F1
  8
0
 10
393.13241876345842
 20
85.413406005638535
 30
0.0
 11
377.13241876345842
 21
85.413406005638535
 31
0.0
  0
LINE
  5
2F2
  8
0
 10
390.63241876345842
 20
113.0134060056385
 30
0.0
 11
390.63241876345842
 21
109.8134060056385
 31
0.0
  0
ARC
  5
2F3
  8
0
 10
391.0324187634584
 20
109.8134060056385
 30
0.0
 40
0.4
 50
180.0
 51
270.0
  0
LINE
  5
2F4
  8
3
 10
392.0324187634584
 20
109.41340600563851
 30
0.0
 11
392.0324187634584
 21
84.313406005638555
 31
0.0
  0
LINE
  5
2F5
  8
0
 10
393.13241876345842
 20
109.41340600563851
 30
0.0
 11
393.13241876345842
 21
85.413406005638535
 31
0.0
  0
LINE
  5
2F6
  8
0
 10
391.13241876345842
 20
83.413406005638535
 30
0.0
 11
393.13241876345842
 21
85.413406005638535
 31
0.0
  0
LINE
  5
2F7
  8
0
 10
379.13241876345842
 20
83.413406005638535
 30
0.0
 11
377.13241876345842
 21
85.413406005638535
 31
0.0
  0
LINE
  5
2F8
  8
0
 10
377.13241876345842
 20
109.41340600563851
 30
0.0
 11
377.13241876345842
 21
85.413406005638535
 31
0.0
  0
LINE
  5
2F9
  8
0
 10
382.1176997634584
 20
143.41340600563851
 30
0.0
 11
382.1176997634584
 21
123.41340600563851
 31
0.0
  0
LINE
  5
2FA
  8
0
 10
382.1176997634584
 20
123.41340600563851
 30
0.0
 11
365.14713776345837
 21
123.41340600563851
 31
0.0
  0
LINE
  5
2FB
  8
0
 10
365.14713776345837
 20
123.41340600563851
 30
0.0
 11
365.14713776345837
 21
143.41340600563851
 31
0.0
  0
LINE
  5
2FC
  8
0
 10
365.14713776345837
 20
143.41340600563851
 30
0.0
 11
382.1176997634584
 21
143.41340600563851
 31
0.0
  0
ARC
  5
2FD
  8
0
 10
373.63241876345842
 20
112.81384200563851
 30
0.0
 40
31.754265
 50
74.50126700000196
 51
105.498732999998
  0
ARC
  5
2FE
  8
0
 10
373.63241876345842
 20
154.01297000563841
 30
0.0
 40
31.754265
 50
254.50126700000189
 51
285.49873299999803
  0
ARC
  5
2FF
  8
0
 10
396.63241876345842
 20
154.01297000563841
 30
0.0
 40
31.754265
 50
254.50126700000189
 51
285.49873299999803
  0
ARC
  5
300
  8
0
 10
396.63241876345842
 20
112.81384200563851
 30
0.0
 40
31.754265
 50
74.50126700000196
 51
105.498732999998
  0
LINE
  5
301
  8
0
 10
405.11769976345829
 20
143.41340600563851
 30
0.0
 11
388.14713776345837
 21
143.41340600563851
 31
0.0
  0
LINE
  5
302
  8
0
 10
405.11769976345829
 20
123.41340600563851
 30
0.0
 11
405.11769976345829
 21
143.41340600563851
 31
0.0
  0
LINE
  5
303
  8
0
 10
388.14713776345837
 20
123.41340600563851
 30
0.0
 11
405.11769976345829
 21
123.41340600563851
 31
0.0
  0
LINE
  5
304
  8
0
 10
388.14713776345837
 20
143.41340600563851
 30
0.0
 11
388.14713776345837
 21
123.41340600563851
 31
0.0
  0
LINE
  5
305
  8
3
 10
378.23241876345838
 20
109.41340600563851
 30
0.0
 11
378.23241876345838
 21
84.313406005638555
 31
0.0
  0
LINE
  5
306
  8
0
 10
410.13241876345842
 20
212.41340600563851
 30
0.0
 11
410.13241876345842
 21
144.5681070056385
 31
0.0
  0
LINE
  5
307
  8
0
 10
408.13241876345819
 20
143.41340600563851
 30
0.0
 11
408.13241876345819
 21
123.41340600563851
 31
0.0
  0
LINE
  5
308
  8
0
 10
409.13241876345842
 20
213.41340600563859
 30
0.0
 11
410.13241876345842
 21
212.41340600563851
 31
0.0
  0
LINE
  5
309
  8
0
 10
410.13241876345842
 20
114.41340600563851
 30
0.0
 11
409.13241876345842
 21
113.41340600563851
 31
0.0
  0
ARC
  5
30A
  8
0
 10
391.0324187634584
 20
113.0134060056385
 30
0.0
 40
0.4
 50
90.0
 51
180.0
  0
LINE
  5
30B
  8
0
 10
408.13241876345819
 20
143.41340600563851
 30
0.0
 11
410.13241876345842
 21
144.5681070056385
 31
0.0
  0
LINE
  5
30C
  8
0
 10
408.13241876345819
 20
123.41340600563851
 30
0.0
 11
410.13241876345842
 21
122.2587050056385
 31
0.0
  0
LINE
  5
30D
  8
0
 10
410.13241876345842
 20
122.2587050056385
 30
0.0
 11
410.13241876345842
 21
114.41340600563851
 31
0.0
  0
LINE
  5
30E
  8
0
 10
360.13241876345842
 20
122.2587050056385
 30
0.0
 11
360.13241876345842
 21
114.41340600563851
 31
0.0
  0
LINE
  5
30F
  8
0
 10
362.13241876345842
 20
123.41340600563851
 30
0.0
 11
360.13241876345842
 21
122.2587050056385
 31
0.0
  0
LINE
  5
310
  8
0
 10
362.13241876345842
 20
143.41340600563851
 30
0.0
 11
360.13241876345842
 21
144.5681070056385
 31
0.0
  0
ARC
  5
311
  8
0
 10
379.2324187634585
 20
109.8134060056385
 30
0.0
 40
0.4
 50
270.0
 51
0.0
  0
ARC
  5
312
  8
0
 10
379.2324187634585
 20
113.0134060056385
 30
0.0
 40
0.4
 50
0.0
 51
90.0
  0
LINE
  5
313
  8
0
 10
360.13241876345842
 20
114.41340600563851
 30
0.0
 11
361.13241876345842
 21
113.41340600563851
 31
0.0
  0
LINE
  5
314
  8
0
 10
361.13241876345842
 20
213.41340600563859
 30
0.0
 11
360.13241876345842
 21
212.41340600563851
 31
0.0
  0
LINE
  5
315
  8
0
 10
379.63241876345842
 20
113.0134060056385
 30
0.0
 11
379.63241876345842
 21
109.8134060056385
 31
0.0
  0
LINE
  5
316
  8
0
 10
361.13241876345842
 20
113.41340600563851
 30
0.0
 11
409.13241876345842
 21
113.41340600563851
 31
0.0
  0
LINE
  5
317
  8
0
 10
362.13241876345842
 20
143.41340600563851
 30
0.0
 11
362.13241876345842
 21
123.41340600563851
 31
0.0
  0
LINE
  5
318
  8
0
 10
360.13241876345842
 20
212.41340600563851
 30
0.0
 11
360.13241876345842
 21
144.5681070056385
 31
0.0
  0
LINE
  5
319
  8
0
 10
409.13241876345842
 20
213.41340600563859
 30
0.0
 11
361.13241876345842
 21
213.41340600563859
 31
0.0
  0
LINE
  5
31A
  8
1
 10
105.1324187634584
 20
259.41340600563859
 30
0.0
 11
105.1324187634584
 21
73.413406005638535
 31
0.0
  0
LINE
  5
31C
  8
0
 10
88.750004763458364
 20
213.4133960056385
 30
0.0
 11
88.451122763458443
 21
214.41340600563851
 31
0.0
  0
ARC
  5
31F
  8
0
 10
122.33241876345841
 20
215.2134060056384
 30
0.0
 40
0.8
 50
270.0
 51
0.0
  0
LINE
  5
320
  8
0
 10
121.5148327634584
 20
213.4133960056385
 30
0.0
 11
121.81371476345841
 21
214.41340600563851
 31
0.0
  0
LINE
  5
321
  8
0
 10
122.33241876345841
 20
214.41340600563851
 30
0.0
 11
87.932418763458358
 21
214.41340600563851
 31
0.0
  0
LINE
  5
322
  8
0
 10
87.932418763458358
 20
234.41340600563859
 30
0.0
 11
122.33241876345841
 21
234.41340600563859
 31
0.0
  0
ARC
  5
323
  8
0
 10
122.33241876345841
 20
215.2134060056384
 30
0.0
 40
0.8
 50
270.0
 51
0.0
  0
ARC
  5
324
  8
0
 10
122.33241876345841
 20
233.6134060056385
 30
0.0
 40
0.8
 50
0.0
 51
90.0
  0
LINE
  5
325
  8
0
 10
123.1324187634584
 20
233.6134060056385
 30
0.0
 11
123.1324187634584
 21
215.2134060056384
 31
0.0
  0
LINE
  5
326
  8
2
 10
97.132418763458404
 20
150.41340600563851
 30
0.0
 11
99.132418763458446
 21
148.41340600563851
 31
0.0
  0
LINE
  5
327
  8
2
 10
97.132418763458404
 20
174.41340600563851
 30
0.0
 11
97.132418763458404
 21
150.41340600563851
 31
0.0
  0
LINE
  5
328
  8
2
 10
112.0324187634584
 20
174.41340600563851
 30
0.0
 11
112.0324187634584
 21
149.31340600563851
 31
0.0
  0
LINE
  5
329
  8
2
 10
113.1324187634584
 20
150.41340600563851
 30
0.0
 11
111.1324187634584
 21
148.41340600563851
 31
0.0
  0
LINE
  5
32A
  8
2
 10
113.1324187634584
 20
174.41340600563851
 30
0.0
 11
113.1324187634584
 21
150.41340600563851
 31
0.0
  0
LINE
  5
32B
  8
2
 10
89.132418763458404
 20
175.41340600563851
 30
0.0
 11
90.132418763458404
 21
174.41340600563851
 31
0.0
  0
LINE
  5
32C
  8
2
 10
120.1324187634584
 20
174.41340600563851
 30
0.0
 11
121.1324187634584
 21
175.41340600563851
 31
0.0
  0
ARC
  5
32D
  8
0
 10
87.932418763458358
 20
215.2134060056384
 30
0.0
 40
0.8
 50
180.0
 51
270.0
  0
ARC
  5
32E
  8
0
 10
87.932418763458358
 20
233.6134060056385
 30
0.0
 40
0.8
 50
90.0
 51
180.0
  0
ARC
  5
32F
  8
0
 10
89.23241876345844
 20
214.0134060056385
 30
0.0
 40
0.4
 50
0.0
 51
90.0
  0
ARC
  5
330
  8
0
 10
121.0324187634584
 20
214.0134060056385
 30
0.0
 40
0.4
 50
90.0
 51
180.0
  0
LINE
  5
331
  8
0
 10
117.1324187634584
 20
248.41340600563851
 30
0.0
 11
117.1324187634584
 21
234.41340600563859
 31
0.0
  0
LINE
  5
332
  8
0
 10
117.1324187634584
 20
248.41340600563851
 30
0.0
 11
115.40036776345841
 21
249.41340600563851
 31
0.0
  0
LINE
  5
333
  8
0
 10
120.6324187634584
 20
213.41340600563859
 30
0.0
 11
120.6324187634584
 21
214.0134060056385
 31
0.0
  0
LINE
  5
334
  8
2
 10
121.1324187634584
 20
175.41340600563851
 30
0.0
 11
121.1324187634584
 21
212.41340600563851
 31
0.0
  0
LINE
  5
335
  8
2
 10
89.132418763458404
 20
212.41340600563851
 30
0.0
 11
89.132418763458404
 21
175.41340600563851
 31
0.0
  0
LINE
  5
336
  8
0
 10
89.632418763458446
 20
214.0134060056385
 30
0.0
 11
89.632418763458446
 21
213.41340600563859
 31
0.0
  0
LINE
  5
337
  8
0
 10
87.132418763458446
 20
233.6134060056385
 30
0.0
 11
87.132418763458446
 21
215.2134060056384
 31
0.0
  0
LINE
  5
338
  8
0
 10
93.132418763458389
 20
248.41340600563851
 30
0.0
 11
93.132418763458389
 21
234.41340600563859
 31
0.0
  0
LINE
  5
339
  8
0
 10
93.132418763458389
 20
248.41340600563851
 30
0.0
 11
94.864469763458374
 21
249.41340600563851
 31
0.0
  0
LINE
  5
33A
  8
2
 10
98.232418763458455
 20
174.41340600563851
 30
0.0
 11
98.232418763458455
 21
149.31340600563851
 31
0.0
  0
LINE
  5
33B
  8
2
 10
111.1324187634584
 20
148.41340600563851
 30
0.0
 11
99.132418763458446
 21
148.41340600563851
 31
0.0
  0
LINE
  5
33C
  8
2
 10
113.1324187634584
 20
150.41340600563851
 30
0.0
 11
97.132418763458404
 21
150.41340600563851
 31
0.0
  0
LINE
  5
33D
  8
2
 10
121.1324187634584
 20
175.41340600563851
 30
0.0
 11
89.132418763458404
 21
175.41340600563851
 31
0.0
  0
LINE
  5
33E
  8
2
 10
121.1324187634584
 20
212.41340600563851
 30
0.0
 11
89.132418763458404
 21
212.41340600563851
 31
0.0
  0
LINE
  5
33F
  8
0
 10
117.1324187634584
 20
248.41340600563851
 30
0.0
 11
93.132418763458389
 21
248.41340600563851
 31
0.0
  0
LINE
  5
340
  8
0
 10
115.40036776345841
 20
249.41340600563851
 30
0.0
 11
94.864469763458374
 21
249.41340600563851
 31
0.0
  0
LINE
  5
341
  8
2
 10
120.1324187634584
 20
174.41340600563851
 30
0.0
 11
90.132418763458404
 21
174.41340600563851
 31
0.0
  0
LINE
  5
342
  8
0
 10
396.06566576345841
 20
228.5262690056384
 30
0.0
 11
402.33241876345829
 21
233.6134060056385
 31
0.0
  0
LINE
  5
343
  8
0
 10
374.19917176345848
 20
228.5262690056384
 30
0.0
 11
367.93241876345849
 21
233.6134060056385
 31
0.0
  0
ARC
  5
344
  8
0
 10
374.99917176345838
 20
227.7262690056385
 30
0.0
 40
0.8
 50
90.0
 51
180.0
  0
ARC
  5
345
  8
0
 10
395.2656657634584
 20
227.7262690056385
 30
0.0
 40
0.8
 50
0.0
 51
90.0
  0
ARC
  5
346
  8
0
 10
395.2656657634584
 20
214.2133960056384
 30
0.0
 40
0.8
 50
270.0
 51
0.0
  0
ARC
  5
347
  8
0
 10
374.99917176345838
 20
214.2133960056384
 30
0.0
 40
0.8
 50
180.0
 51
270.0
  0
LINE
  5
348
  8
0
 10
395.2656657634584
 20
228.5262690056384
 30
0.0
 11
374.99917176345838
 21
228.5262690056384
 31
0.0
  0
LINE
  5
349
  8
0
 10
396.06566576345841
 20
214.2133960056384
 30
0.0
 11
396.06566576345841
 21
227.7262690056385
 31
0.0
  0
LINE
  5
34A
  8
0
 10
374.19917176345848
 20
227.7262690056385
 30
0.0
 11
374.19917176345848
 21
214.2133960056384
 31
0.0
  0
LINE
  5
34B
  8
0
 10
368.75000476345849
 20
213.4133960056385
 30
0.0
 11
368.4511227634585
 21
214.41340600563851
 31
0.0
  0
LINE
  5
34C
  8
0
 10
401.81371476345828
 20
214.41340600563851
 30
0.0
 11
402.33241876345829
 21
214.41340600563851
 31
0.0
  0
LINE
  5
34D
  8
0
 10
401.5148327634584
 20
213.4133960056385
 30
0.0
 11
401.81371476345828
 21
214.41340600563851
 31
0.0
  0
LINE
  5
34F
  8
0
 10
367.93241876345849
 20
214.41340600563851
 30
0.0
 11
368.4511227634585
 21
214.41340600563851
 31
0.0
  0
LINE
  5
350
  8
0
 10
402.33241876345829
 20
234.41340600563859
 30
0.0
 11
367.93241876345849
 21
234.41340600563859
 31
0.0
  0
ARC
  5
351
  8
0
 10
367.93241876345849
 20
215.2134060056384
 30
0.0
 40
0.8
 50
180.0
 51
270.0
  0
ARC
  5
352
  8
0
 10
367.93241876345849
 20
233.6134060056385
 30
0.0
 40
0.8
 50
90.0
 51
180.0
  0
LINE
  5
353
  8
0
 10
367.13241876345842
 20
233.6134060056385
 30
0.0
 11
367.13241876345842
 21
215.2134060056384
 31
0.0
  0
LINE
  5
354
  8
2
 10
393.13241876345842
 20
150.41340600563851
 30
0.0
 11
391.13241876345842
 21
148.41340600563851
 31
0.0
  0
LINE
  5
355
  8
2
 10
393.13241876345842
 20
174.41340600563851
 30
0.0
 11
393.13241876345842
 21
150.41340600563851
 31
0.0
  0
LINE
  5
356
  8
2
 10
378.23241876345838
 20
174.41340600563851
 30
0.0
 11
378.23241876345838
 21
149.31340600563851
 31
0.0
  0
LINE
  5
357
  8
2
 10
377.13241876345842
 20
150.41340600563851
 30
0.0
 11
379.13241876345842
 21
148.41340600563851
 31
0.0
  0
LINE
  5
358
  8
2
 10
377.13241876345842
 20
174.41340600563851
 30
0.0
 11
377.13241876345842
 21
150.41340600563851
 31
0.0
  0
LINE
  5
359
  8
2
 10
401.13241876345842
 20
175.41340600563851
 30
0.0
 11
400.13241876345842
 21
174.41340600563851
 31
0.0
  0
LINE
  5
35A
  8
2
 10
370.13241876345842
 20
174.41340600563851
 30
0.0
 11
369.13241876345842
 21
175.41340600563851
 31
0.0
  0
ARC
  5
35B
  8
0
 10
402.33241876345829
 20
215.2134060056384
 30
0.0
 40
0.8
 50
270.0
 51
0.0
  0
ARC
  5
35C
  8
0
 10
402.33241876345829
 20
233.6134060056385
 30
0.0
 40
0.8
 50
0.0
 51
90.0
  0
LINE
  5
35D
  8
0
 10
373.13241876345842
 20
248.41340600563851
 30
0.0
 11
373.13241876345842
 21
234.41340600563859
 31
0.0
  0
LINE
  5
35E
  8
0
 10
373.13241876345842
 20
248.41340600563851
 30
0.0
 11
374.86446976345837
 21
249.41340600563851
 31
0.0
  0
LINE
  5
35F
  8
2
 10
369.63241876345842
 20
212.41340600563851
 30
0.0
 11
369.63241876345842
 21
213.4133960056385
 31
0.0
  0
LINE
  5
360
  8
2
 10
369.13241876345842
 20
175.41340600563851
 30
0.0
 11
369.13241876345842
 21
212.41340600563851
 31
0.0
  0
LINE
  5
361
  8
2
 10
401.13241876345842
 20
212.41340600563851
 30
0.0
 11
401.13241876345842
 21
175.41340600563851
 31
0.0
  0
LINE
  5
362
  8
2
 10
400.63241876345842
 20
213.4133960056385
 30
0.0
 11
400.63241876345842
 21
212.41340600563851
 31
0.0
  0
LINE
  5
363
  8
0
 10
403.1324187634583
 20
233.6134060056385
 30
0.0
 11
403.1324187634583
 21
215.2134060056384
 31
0.0
  0
LINE
  5
364
  8
0
 10
397.13241876345842
 20
248.41340600563851
 30
0.0
 11
397.13241876345842
 21
234.41340600563859
 31
0.0
  0
LINE
  5
365
  8
0
 10
397.13241876345842
 20
248.41340600563851
 30
0.0
 11
395.40036776345852
 21
249.41340600563851
 31
0.0
  0
LINE
  5
366
  8
2
 10
392.0324187634584
 20
174.41340600563851
 30
0.0
 11
392.0324187634584
 21
149.31340600563851
 31
0.0
  0
LINE
  5
367
  8
2
 10
379.13241876345842
 20
148.41340600563851
 30
0.0
 11
391.13241876345842
 21
148.41340600563851
 31
0.0
  0
LINE
  5
368
  8
2
 10
377.13241876345842
 20
150.41340600563851
 30
0.0
 11
393.13241876345842
 21
150.41340600563851
 31
0.0
  0
LINE
  5
369
  8
2
 10
369.13241876345842
 20
175.41340600563851
 30
0.0
 11
401.13241876345842
 21
175.41340600563851
 31
0.0
  0
LINE
  5
36A
  8
2
 10
369.13241876345842
 20
212.41340600563851
 30
0.0
 11
401.13241876345842
 21
212.41340600563851
 31
0.0
  0
LINE
  5
36B
  8
0
 10
373.13241876345842
 20
248.41340600563851
 30
0.0
 11
397.13241876345842
 21
248.41340600563851
 31
0.0
  0
LINE
  5
36C
  8
0
 10
374.86446976345837
 20
249.41340600563851
 30
0.0
 11
395.40036776345852
 21
249.41340600563851
 31
0.0
  0
LINE
  5
36D
  8
2
 10
370.13241876345842
 20
174.41340600563851
 30
0.0
 11
400.13241876345842
 21
174.41340600563851
 31
0.0
  0
LINE
  5
36E
  8
1
 10
385.13241876345842
 20
259.41340600563859
 30
0.0
 11
385.13241876345842
 21
73.413406005638535
 31
0.0
  0
CIRCLE
  5
370
  8
0
 10
283.13241876345842
 20
358.41340600563848
 30
0.0
 40
5.0
  0
CIRCLE
  5
371
  8
3
 10
283.13241876345842
 20
358.41340600563848
 30
0.0
 40
6.0
  0
LINE
  5
372
  8
1
 10
283.13241876345842
 20
348.41340600563848
 30
0.0
 11
283.13241876345842
 21
368.41340600563848
 31
0.0
  0
LINE
  5
373
  8
1
 10
245.13241876345839
 20
259.41340600563859
 30
0.0
 11
245.13241876345839
 21
73.413406005638535
 31
0.0
  0
LINE
  5
374
  8
2
 10
260.13241876345842
 20
174.41340600563851
 30
0.0
 11
230.13241876345839
 21
174.41340600563851
 31
0.0
  0
LINE
  5
375
  8
0
 10
255.40036776345841
 20
249.41340600563851
 30
0.0
 11
234.8644697634584
 21
249.41340600563851
 31
0.0
  0
LINE
  5
376
  8
0
 10
257.13241876345842
 20
248.41340600563851
 30
0.0
 11
233.13241876345839
 21
248.41340600563851
 31
0.0
  0
LINE
  5
377
  8
0
 10
271.84479976345841
 20
234.41340600563859
 30
0.0
 11
227.9324187634584
 21
234.41340600563859
 31
0.0
  0
LINE
  5
378
  8
0
 10
263.75322276345838
 20
214.41340600563851
 30
0.0
 11
227.9324187634584
 21
214.41340600563851
 31
0.0
  0
LINE
  5
379
  8
2
 10
261.13241876345842
 20
212.41340600563851
 30
0.0
 11
229.13241876345839
 21
212.41340600563851
 31
0.0
  0
LINE
  5
37A
  8
2
 10
261.13241876345842
 20
175.41340600563851
 30
0.0
 11
229.13241876345839
 21
175.41340600563851
 31
0.0
  0
LINE
  5
37B
  8
2
 10
253.13241876345839
 20
150.41340600563851
 30
0.0
 11
237.13241876345839
 21
150.41340600563851
 31
0.0
  0
LINE
  5
37C
  8
2
 10
251.13241876345839
 20
148.41340600563851
 30
0.0
 11
239.13241876345839
 21
148.41340600563851
 31
0.0
  0
LINE
  5
37D
  8
2
 10
238.23241876345841
 20
174.41340600563851
 30
0.0
 11
238.23241876345841
 21
149.31340600563851
 31
0.0
  0
ARC
  5
37E
  8
0
 10
293.1324187634583
 20
215.4133960056385
 30
0.0
 40
2.0
 50
270.0
 51
0.0
  0
LINE
  5
37F
  8
0
 10
295.1324187634583
 20
215.4133960056385
 30
0.0
 11
295.1324187634583
 21
226.99161500563849
 31
0.0
  0
ARC
  5
381
  8
0
 10
293.1324187634583
 20
226.99161500563849
 30
0.0
 40
2.0
 50
0.0
 51
74.999999999998778
  0
LINE
  5
382
  8
0
 10
263.75322276345838
 20
214.41340600563851
 30
0.0
 11
264.75323376345841
 21
213.4133960056385
 31
0.0
  0
ARC
  5
383
  8
0
 10
271.84479976345841
 20
224.41340600563851
 30
0.0
 40
10.0
 50
74.999999999998778
 51
90.0
  0
LINE
  5
384
  8
0
 10
274.43299076345841
 20
234.07266400563859
 30
0.0
 11
293.65005676345839
 21
228.92346700563851
 31
0.0
  0
LINE
  5
386
  8
0
 10
233.13241876345839
 20
248.41340600563851
 30
0.0
 11
234.8644697634584
 21
249.41340600563851
 31
0.0
  0
LINE
  5
387
  8
0
 10
233.13241876345839
 20
248.41340600563851
 30
0.0
 11
233.13241876345839
 21
234.41340600563859
 31
0.0
  0
LINE
  5
389
  8
0
 10
227.13241876345839
 20
233.6134060056385
 30
0.0
 11
227.13241876345839
 21
215.2134060056384
 31
0.0
  0
LINE
  5
38A
  8
0
 10
229.63241876345839
 20
214.0134060056385
 30
0.0
 11
229.632418680125
 21
213.41340482508301
 31
0.0
  0
LINE
  5
38B
  8
2
 10
229.13241876345839
 20
212.41340600563851
 30
0.0
 11
229.13241876345839
 21
175.41340600563851
 31
0.0
  0
LINE
  5
38C
  8
2
 10
261.13241876345842
 20
175.41340600563851
 30
0.0
 11
261.13241876345842
 21
212.41340600563851
 31
0.0
  0
LINE
  5
38D
  8
0
 10
260.6324189023465
 20
213.41340051952741
 30
0.0
 11
260.63241876345842
 21
214.0134060056385
 31
0.0
  0
LINE
  5
38E
  8
0
 10
257.13241876345842
 20
248.41340600563851
 30
0.0
 11
255.40036776345841
 21
249.41340600563851
 31
0.0
  0
LINE
  5
38F
  8
0
 10
257.13241876345842
 20
248.41340600563851
 30
0.0
 11
257.13241876345842
 21
234.41340600563859
 31
0.0
  0
ARC
  5
391
  8
0
 10
261.0324187634584
 20
214.0134060056385
 30
0.0
 40
0.4
 50
90.0
 51
180.0
  0
ARC
  5
392
  8
0
 10
229.2324187634585
 20
214.0134060056385
 30
0.0
 40
0.4
 50
0.0
 51
90.0
  0
ARC
  5
393
  8
0
 10
227.9324187634584
 20
233.6134060056385
 30
0.0
 40
0.8
 50
90.0
 51
180.0
  0
ARC
  5
394
  8
0
 10
227.9324187634584
 20
215.2134060056384
 30
0.0
 40
0.8
 50
180.0
 51
270.0
  0
LINE
  5
395
  8
2
 10
260.13241876345842
 20
174.41340600563851
 30
0.0
 11
261.13241876345842
 21
175.41340600563851
 31
0.0
  0
LINE
  5
396
  8
2
 10
229.13241876345839
 20
175.41340600563851
 30
0.0
 11
230.13241876345839
 21
174.41340600563851
 31
0.0
  0
LINE
  5
397
  8
2
 10
253.13241876345839
 20
174.41340600563851
 30
0.0
 11
253.13241876345839
 21
150.41340600563851
 31
0.0
  0
LINE
  5
398
  8
2
 10
253.13241876345839
 20
150.41340600563851
 30
0.0
 11
251.13241876345839
 21
148.41340600563851
 31
0.0
  0
LINE
  5
399
  8
2
 10
252.0324187634584
 20
174.41340600563851
 30
0.0
 11
252.0324187634584
 21
149.31340600563851
 31
0.0
  0
LINE
  5
39A
  8
2
 10
237.13241876345839
 20
174.41340600563851
 30
0.0
 11
237.13241876345839
 21
150.41340600563851
 31
0.0
  0
LINE
  5
39B
  8
2
 10
237.13241876345839
 20
150.41340600563851
 30
0.0
 11
239.13241876345839
 21
148.41340600563851
 31
0.0
  0
LINE
  5
39C
  8
1
 10
283.13241876345842
 20
208.4133960056385
 30
0.0
 11
283.13241876345842
 21
236.74166000563841
 31
0.0
  0
LINE
  5
39D
  8
0
 10
220.31485476345841
 20
143.41340600563851
 30
0.0
 11
220.31485476345841
 21
123.41340600563851
 31
0.0
  0
LINE
  5
39E
  8
0
 10
230.1128137634584
 20
143.41340600563851
 30
0.0
 11
230.1128137634584
 21
123.41340600563851
 31
0.0
  0
LINE
  5
39F
  8
0
 10
235.3344597634584
 20
143.41340600563851
 30
0.0
 11
235.3344597634584
 21
123.41340600563851
 31
0.0
  0
LINE
  5
3A0
  8
0
 10
254.93037776345841
 20
143.41340600563851
 30
0.0
 11
254.93037776345841
 21
123.41340600563851
 31
0.0
  0
LINE
  5
3A1
  8
0
 10
254.93037776345841
 20
123.41340600563851
 30
0.0
 11
235.3344597634584
 21
123.41340600563851
 31
0.0
  0
LINE
  5
3A2
  8
0
 10
254.93037776345841
 20
143.41340600563851
 30
0.0
 11
235.3344597634584
 21
143.41340600563851
 31
0.0
  0
ARC
  5
3A3
  8
0
 10
245.13241876345839
 20
102.4215370056385
 30
0.0
 40
42.14656999999999
 50
76.557261000000807
 51
103.44273899999919
  0
ARC
  5
3A4
  8
0
 10
245.13241876345839
 20
164.4052750056384
 30
0.0
 40
42.14656999999999
 50
256.55726100000078
 51
283.44273899999922
  0
ARC
  5
3A5
  8
0
 10
225.21383476345841
 20
133.2283610056385
 30
0.0
 40
10.969654999999999
 50
243.47464799999801
 51
296.52535200000199
  0
ARC
  5
3A6
  8
0
 10
225.21383476345841
 20
133.59845100563851
 30
0.0
 40
10.969654999999999
 50
63.47464799999797
 51
116.525352000002
  0
LINE
  5
3A7
  8
0
 10
230.1128137634584
 20
143.41340600563851
 30
0.0
 11
220.31485476345841
 21
143.41340600563851
 31
0.0
  0
LINE
  5
3A8
  8
0
 10
230.1128137634584
 20
123.41340600563851
 30
0.0
 11
220.31485476345841
 21
123.41340600563851
 31
0.0
  0
LINE
  5
3A9
  8
0
 10
260.15202376345837
 20
123.41340600563851
 30
0.0
 11
269.94998276345842
 21
123.41340600563851
 31
0.0
  0
LINE
  5
3AA
  8
0
 10
260.15202376345837
 20
143.41340600563851
 30
0.0
 11
269.94998276345842
 21
143.41340600563851
 31
0.0
  0
ARC
  5
3AB
  8
0
 10
265.05100276345843
 20
133.59845100563851
 30
0.0
 40
10.969654999999999
 50
63.47464799999797
 51
116.525352000002
  0
ARC
  5
3AC
  8
0
 10
265.05100276345843
 20
133.2283610056385
 30
0.0
 40
10.969654999999999
 50
243.47464799999801
 51
296.52535200000199
  0
LINE
  5
3AD
  8
0
 10
260.15202376345837
 20
143.41340600563851
 30
0.0
 11
260.15202376345837
 21
123.41340600563851
 31
0.0
  0
LINE
  5
3AE
  8
0
 10
269.94998276345842
 20
143.41340600563851
 30
0.0
 11
269.94998276345842
 21
123.41340600563851
 31
0.0
  0
LINE
  5
3AF
  8
0
 10
293.13241793012497
 20
213.4133960056387
 30
0.0
 11
221.13241876345839
 21
213.41340600563859
 31
0.0
  0
LINE
  5
3B0
  8
0
 10
220.13241876345839
 20
212.41340600563851
 30
0.0
 11
220.13241876345839
 21
114.41340600563851
 31
0.0
  0
LINE
  5
3B1
  8
0
 10
221.13241876345839
 20
113.41340600563851
 30
0.0
 11
269.13241876345842
 21
113.41340600563851
 31
0.0
  0
LINE
  5
3B2
  8
0
 10
239.63241876345839
 20
113.0134060056385
 30
0.0
 11
239.63241876345839
 21
109.8134060056385
 31
0.0
  0
LINE
  5
3B3
  8
0
 10
221.13241876345839
 20
213.41340600563859
 30
0.0
 11
220.13241876345839
 21
212.41340600563851
 31
0.0
  0
LINE
  5
3B4
  8
0
 10
220.13241876345839
 20
114.41340600563851
 30
0.0
 11
221.13241876345839
 21
113.41340600563851
 31
0.0
  0
ARC
  5
3B5
  8
0
 10
239.2324187634585
 20
113.0134060056385
 30
0.0
 40
0.4
 50
0.0
 51
90.0
  0
ARC
  5
3B6
  8
0
 10
239.2324187634585
 20
109.8134060056385
 30
0.0
 40
0.4
 50
270.0
 51
0.0
  0
ARC
  5
3B7
  8
0
 10
251.0324187634584
 20
113.0134060056385
 30
0.0
 40
0.4
 50
90.0
 51
180.0
  0
LINE
  5
3B8
  8
0
 10
270.13241876345842
 20
114.41340600563851
 30
0.0
 11
269.13241876345842
 21
113.41340600563851
 31
0.0
  0
LINE
  5
3B9
  8
0
 10
269.13241876345842
 20
213.41340600563859
 30
0.0
 11
270.13241876345842
 21
212.41340600563851
 31
0.0
  0
LINE
  5
3BA
  8
0
 10
270.13241876345842
 20
212.41340600563851
 30
0.0
 11
270.13241876345842
 21
114.41340600563851
 31
0.0
  0
LINE
  5
3BB
  8
3
 10
238.23241876345841
 20
109.41340600563851
 30
0.0
 11
238.23241876345841
 21
84.313406005638555
 31
0.0
  0
LINE
  5
3BC
  8
0
 10
237.13241876345839
 20
109.41340600563851
 30
0.0
 11
237.13241876345839
 21
85.413406005638535
 31
0.0
  0
LINE
  5
3BD
  8
0
 10
239.13241876345839
 20
83.413406005638535
 30
0.0
 11
237.13241876345839
 21
85.413406005638535
 31
0.0
  0
LINE
  5
3BE
  8
0
 10
251.13241876345839
 20
83.413406005638535
 30
0.0
 11
253.13241876345839
 21
85.413406005638535
 31
0.0
  0
LINE
  5
3BF
  8
0
 10
253.13241876345839
 20
109.41340600563851
 30
0.0
 11
253.13241876345839
 21
85.413406005638535
 31
0.0
  0
LINE
  5
3C0
  8
3
 10
252.0324187634584
 20
109.41340600563851
 30
0.0
 11
252.0324187634584
 21
84.313406005638555
 31
0.0
  0
ARC
  5
3C1
  8
0
 10
251.0324187634584
 20
109.8134060056385
 30
0.0
 40
0.4
 50
180.0
 51
270.0
  0
LINE
  5
3C2
  8
0
 10
250.63241876345839
 20
113.0134060056385
 30
0.0
 11
250.63241876345839
 21
109.8134060056385
 31
0.0
  0
LINE
  5
3C3
  8
0
 10
253.13241876345839
 20
85.413406005638535
 30
0.0
 11
237.13241876345839
 21
85.413406005638535
 31
0.0
  0
LINE
  5
3C4
  8
0
 10
251.13241876345839
 20
83.413406005638535
 30
0.0
 11
239.13241876345839
 21
83.413406005638535
 31
0.0
  0
LINE
  5
3C5
  8
0
 10
253.13241876345839
 20
109.41340600563851
 30
0.0
 11
237.13241876345839
 21
109.41340600563851
 31
0.0
  0
CIRCLE
  5
3F2
  8
0
 10
245.13241876345839
 20
358.41340600563848
 30
0.0
 40
12.0
  0
LINE
  5
3F3
  8
0
 10
253.2153227634584
 20
358.41340600563848
 30
0.0
 11
249.17387076345841
 21
365.41340600563859
 31
0.0
  0
LINE
  5
3F4
  8
0
 10
249.17387076345841
 20
351.41340600563848
 30
0.0
 11
253.2153227634584
 21
358.41340600563848
 31
0.0
  0
LINE
  5
3F5
  8
0
 10
241.0909667634584
 20
351.41340600563848
 30
0.0
 11
249.17387076345841
 21
351.41340600563848
 31
0.0
  0
LINE
  5
3F6
  8
0
 10
237.04951476345849
 20
358.41340600563848
 30
0.0
 11
241.0909667634584
 21
351.41340600563848
 31
0.0
  0
LINE
  5
3F7
  8
0
 10
241.0909667634584
 20
365.41340600563859
 30
0.0
 11
237.04951476345849
 21
358.41340600563848
 31
0.0
  0
LINE
  5
3F8
  8
0
 10
249.17387076345841
 20
365.41340600563859
 30
0.0
 11
241.0909667634584
 21
365.41340600563859
 31
0.0
  0
CIRCLE
  5
3FA
  8
0
 10
245.13241876345839
 20
358.41340600563848
 30
0.0
 40
13.0
  0
ARC
  5
3FB
  8
0
 10
245.13241876345839
 20
358.41340600563848
 30
0.0
 40
18.0
 50
90.0
 51
270.0
  0
ARC
  5
3FC
  8
0
 10
255.13241876345839
 20
358.41340600563848
 30
0.0
 40
18.0
 50
270.0
 51
90.0
  0
LINE
  5
3FD
  8
0
 10
255.13241876345839
 20
340.41340600563859
 30
0.0
 11
245.13241876345839
 21
340.41340600563859
 31
0.0
  0
LINE
  5
3FE
  8
0
 10
255.13241876345839
 20
376.41340600563848
 30
0.0
 11
245.13241876345839
 21
376.41340600563848
 31
0.0
  0
LINE
  5
3FF
  8
0
 10
292.65492076345851
 20
369.58814600563852
 30
0.0
 11
258.50130476345839
 21
376.0953350056385
 31
0.0
  0
ARC
  5
400
  8
0
 10
292.23911876345841
 20
367.63184600563852
 30
0.0
 40
2.0
 50
10.210900000000141
 51
78.000642000000354
  0
LINE
  5
401
  8
0
 10
292.65492076345851
 20
347.23866600563872
 30
0.0
 11
258.50130476345839
 21
340.73147700563862
 31
0.0
  0
ARC
  5
402
  8
0
 10
292.23911876345841
 20
349.19496600563849
 30
0.0
 40
2.0
 50
281.99935799999957
 51
349.78909999999991
  0
ARC
  5
403
  8
0
 10
245.13241876345839
 20
358.41340600563848
 30
0.0
 40
50.0
 50
348.9620179999996
 51
11.037982000000429
  0
LINE
  5
43B
  8
2
 10
260.6324189023465
 20
213.41340051952741
 30
0.0
 11
260.6324189023465
 21
212.41340600563851
 31
0.0
  0
LINE
  5
43C
  8
2
 10
229.632418680125
 20
213.41340482508301
 30
0.0
 11
229.632418680125
 21
212.41340600563851
 31
0.0
  0
LINE
  5
43D
  8
2
 10
120.6324187634584
 20
213.41340600563859
 30
0.0
 11
120.6324187634584
 21
212.41340600563851
 31
0.0
  0
LINE
  5
43E
  8
2
 10
89.632418763458446
 20
213.41340600563859
 30
0.0
 11
89.632418763458446
 21
212.41340600563851
 31
0.0
  0
TEXT
  5
59E
  8
0
 62
     3
 10
0.0
 20
0.0
 30
0.0
 40
10.0
  1
BJ130-16150A2
  7
STANDARD1
  0
ENDSEC
  0
EOF
