  0
SECTION
  2
HEADER
  9
$ACADVER
  1
AC1009
  9
$INSBASE
 10
0.0
 20
0.0
 30
0.0
  9
$EXTMIN
 10
0.0
 20
-2.960436562073669
 30
0.0
  9
$EXTMAX
 10
378.36781254964308
 20
374.1206087083404
 30
0.0
  9
$LIMMIN
 10
0.0
 20
0.0
  9
$LIMMAX
 10
780.0
 20
540.0
  9
$ORTHOMODE
 70
     0
  9
$REGENMODE
 70
     1
  9
$FILLMODE
 70
     1
  9
$QTEXTMODE
 70
     0
  9
$MIRRTEXT
 70
     0
  9
$DRAGMODE
 70
     2
  9
$LTSCALE
 40
20.0
  9
$OSMODE
 70
  3071
  9
$ATTMODE
 70
     1
  9
$TEXTSIZE
 40
0.2
  9
$TRACEWID
 40
0.05
  9
$TEXTSTYLE
  7
STANDARD
  9
$CLAYER
  8
0
  9
$CELTYPE
  6
BYLAYER
  9
$CECOLOR
 62
   256
  9
$DIMSCALE
 40
2.0
  9
$DIMASZ
 40
3.0
  9
$DIMEXO
 40
2.0
  9
$DIMDLI
 40
0.38
  9
$DIMRND
 40
0.0
  9
$DIMDLE
 40
0.0
  9
$DIMEXE
 40
2.0
  9
$DIMTP
 40
0.0
  9
$DIMTM
 40
0.0
  9
$DIMTXT
 40
3.0
  9
$DIMCEN
 40
0.0
  9
$DIMTSZ
 40
0.0
  9
$DIMTOL
 70
     0
  9
$DIMLIM
 70
     0
  9
$DIMTIH
 70
     0
  9
$DIMTOH
 70
     0
  9
$DIMSE1
 70
     0
  9
$DIMSE2
 70
     0
  9
$DIMTAD
 70
     1
  9
$DIMZIN
 70
     0
  9
$DIMBLK
  1

  9
$DIMASO
 70
     0
  9
$DIMSHO
 70
     0
  9
$DIMPOST
  1

  9
$DIMAPOST
  1

  9
$DIMALT
 70
     0
  9
$DIMALTD
 70
     2
  9
$DIMALTF
 40
25.399999999999999
  9
$DIMLFAC
 40
1.0
  9
$DIMTOFL
 70
     1
  9
$DIMTVP
 40
1.6000000000000001
  9
$DIMTIX
 70
     1
  9
$DIMSOXD
 70
     0
  9
$DIMSAH
 70
     0
  9
$DIMBLK1
  1

  9
$DIMBLK2
  1

  9
$DIMSTYLE
  2
STANDARD
  9
$DIMCLRD
 70
     0
  9
$DIMCLRE
 70
     0
  9
$DIMCLRT
 70
     0
  9
$DIMTFAC
 40
1.0
  9
$DIMGAP
 40
0.09
  9
$LUNITS
 70
     2
  9
$LUPREC
 70
     4
  9
$SKETCHINC
 40
0.1
  9
$FILLETRAD
 40
0.0
  9
$AUNITS
 70
     0
  9
$AUPREC
 70
     4
  9
$MENU
  1
E:\r13\win\SUPPORT\ACAD
  9
$ELEVATION
 40
0.0
  9
$PELEVATION
 40
0.0
  9
$THICKNESS
 40
0.0
  9
$LIMCHECK
 70
     0
  9
$BLIPMODE
 70
     0
  9
$CHAMFERA
 40
0.0
  9
$CHAMFERB
 40
0.0
  9
$SKPOLY
 70
     0
  9
$TDCREATE
 40
2449840.3509490741
  9
$TDUPDATE
 40
2456597.6218348732
  9
$TDINDWG
 40
0.0203473148
  9
$TDUSRTIMER
 40
2456518.2150029051
  9
$USRTIMER
 70
     1
  9
$ANGBASE
 50
0.0
  9
$ANGDIR
 70
     0
  9
$PDMODE
 70
     0
  9
$PDSIZE
 40
0.0
  9
$PLINEWID
 40
0.0
  9
$COORDS
 70
     1
  9
$SPLFRAME
 70
     0
  9
$SPLINETYPE
 70
     6
  9
$SPLINESEGS
 70
     8
  9
$ATTDIA
 70
     0
  9
$ATTREQ
 70
     1
  9
$HANDLING
 70
     1
  9
$HANDSEED
  5
5C7
  9
$SURFTAB1
 70
     6
  9
$SURFTAB2
 70
     6
  9
$SURFTYPE
 70
     6
  9
$SURFU
 70
     6
  9
$SURFV
 70
     6
  9
$UCSNAME
  2

  9
$UCSORG
 10
0.0
 20
0.0
 30
0.0
  9
$UCSXDIR
 10
1.0
 20
0.0
 30
0.0
  9
$UCSYDIR
 10
0.0
 20
1.0
 30
0.0
  9
$PUCSNAME
  2

  9
$PUCSORG
 10
0.0
 20
0.0
 30
0.0
  9
$PUCSXDIR
 10
1.0
 20
0.0
 30
0.0
  9
$PUCSYDIR
 10
0.0
 20
1.0
 30
0.0
  9
$USERI1
 70
     3
  9
$USERI2
 70
     1
  9
$USERI3
 70
     0
  9
$USERI4
 70
     0
  9
$USERI5
 70
     0
  9
$USERR1
 40
2.0
  9
$USERR2
 40
3.0
  9
$USERR3
 40
3.0
  9
$USERR4
 40
3.0
  9
$USERR5
 40
10.0
  9
$WORLDVIEW
 70
     1
  9
$SHADEDGE
 70
     3
  9
$SHADEDIF
 70
    70
  9
$TILEMODE
 70
     1
  9
$MAXACTVP
 70
    16
  9
$PLIMCHECK
 70
     0
  9
$PEXTMIN
 10
1.0000000000000000E+020
 20
1.0000000000000000E+020
 30
1.0000000000000000E+020
  9
$PEXTMAX
 10
-1.0000000000000000E+020
 20
-1.0000000000000000E+020
 30
-1.0000000000000000E+020
  9
$PLIMMIN
 10
0.0
 20
0.0
  9
$PLIMMAX
 10
12.0
 20
9.0
  9
$UNITMODE
 70
     0
  9
$VISRETAIN
 70
     0
  9
$PLINEGEN
 70
     0
  9
$PSLTSCALE
 70
     0
  0
ENDSEC
  0
SECTION
  2
TABLES
  0
TABLE
  2
VPORT
 70
     1
  0
VPORT
  2
*ACTIVE
 70
     0
 10
0.0
 20
0.0
 11
1.0
 21
1.0
 12
389.988099052557
 22
383.6881458164155
 13
0.0
 23
0.0
 14
5.0
 24
5.0
 15
10.0
 25
10.0
 16
0.0
 26
0.0
 36
1.0
 17
0.0
 27
0.0
 37
0.0
 40
780.34809480459126
 41
1.831871345029239
 42
50.0
 43
0.0
 44
0.0
 50
0.0
 51
0.0
 71
    16
 72
   100
 73
     1
 74
     0
 75
     0
 76
     0
 77
     0
 78
     2
  0
ENDTAB
  0
TABLE
  2
LTYPE
 70
     4
  0
LTYPE
  2
CONTINUOUS
 70
     0
  3
Solid Line
 72
    65
 73
     0
 40
0.0
  0
LTYPE
  2
PHANTOM2
 70
     0
  3
___ _ _ ___ _ _ ___ _ _ ___ _ _
 72
    65
 73
     6
 40
1.25
 49
0.625
 49
-0.125
 49
0.125
 49
-0.125
 49
0.125
 49
-0.125
  0
LTYPE
  2
CENTER
 70
     0
  3
____ _ ____ _ ____ _ ____ _ ____ _ ____ _ ____
 72
    65
 73
     4
 40
2.0
 49
1.25
 49
-0.25
 49
0.25
 49
-0.25
  0
LTYPE
  2
HIDDEN
 70
     0
  3
_ _ _ _ _ _ _ _ _ _ _ _ _ _ _ _ _ _ _ _ _ _ _
 72
    65
 73
     2
 40
0.375
 49
0.25
 49
-0.125
  0
ENDTAB
  0
TABLE
  2
LAYER
 70
     4
  0
LAYER
  2
0
 70
     0
 62
     7
  6
CONTINUOUS
  0
LAYER
  2
1
 70
     0
 62
     1
  6
CENTER
  0
LAYER
  2
3
 70
     0
 62
     3
  6
CONTINUOUS
  0
LAYER
  2
2
 70
     0
 62
     2
  6
HIDDEN
  0
ENDTAB
  0
TABLE
  2
STYLE
 70
     3
  0
STYLE
  2
STANDARD
 70
     0
 40
0.0
 41
1.0
 50
0.0
 71
     0
 42
0.2
  3
TXT
  4
BIGFONT
  0
STYLE
  2
ANNOTATIVE
 70
     0
 40
0.0
 41
1.0
 50
0.0
 71
     0
 42
0.2
  3
txt
  4

  0
STYLE
  2
STANDARD1
 70
     0
 40
0.0
 41
1.0
 50
0.0
 71
     0
 42
3.0
  3
txt
  4

  0
ENDTAB
  0
TABLE
  2
VIEW
 70
     1
  0
VIEW
  2
ALL
 70
     0
 40
270.0
 10
220.99159700000001
 20
135.0
 41
0.0
 11
0.0
 21
0.0
 31
1.0
 12
0.0
 22
0.0
 32
0.0
 42
0.0
 43
0.0
 44
0.0
 50
0.0
 71
     0
  0
ENDTAB
  0
TABLE
  2
UCS
 70
     0
  0
ENDTAB
  0
TABLE
  2
APPID
 70
     5
  0
APPID
  2
ACAD
 70
     0
  0
APPID
  2
ACADANNOTATIVE
 70
     0
  0
APPID
  2
ACAD_MLEADERVER
 70
     0
  0
APPID
  2
ACAD_EXEMPT_FROM_CAD_STANDARDS
 70
     0
  0
APPID
  2
ACAD_NAV_VCDISPLAY
 70
     0
  0
ENDTAB
  0
TABLE
  2
DIMSTYLE
 70
     2
  0
DIMSTYLE
  2
STANDARD
 70
     0
  3

  4

  5

  6

  7

 40
1.0
 41
0.18
 42
0.0625
 43
0.38
 44
0.18
 45
0.0
 46
0.0
 47
0.0
 48
0.0
140
0.18
141
0.09
142
0.0
143
25.399999999999999
144
1.0
145
0.0
146
1.0
147
0.09
 71
     0
 72
     0
 73
     1
 74
     1
 75
     0
 76
     0
 77
     0
 78
     0
170
     0
171
     2
172
     0
173
     0
174
     0
175
     0
176
     0
177
     0
178
     0
  0
DIMSTYLE
  2
ANNOTATIVE
 70
     0
  3

  4

  5

  6

  7

 40
1.0
 41
0.18
 42
0.0625
 43
0.38
 44
0.18
 45
0.0
 46
0.0
 47
0.0
 48
0.0
140
0.18
141
0.09
142
0.0
143
25.399999999999999
144
1.0
145
0.0
146
1.0
147
0.09
 71
     0
 72
     0
 73
     1
 74
     1
 75
     0
 76
     0
 77
     0
 78
     0
170
     0
171
     2
172
     0
173
     0
174
     0
175
     0
176
     0
177
     0
178
     0
  0
ENDTAB
  0
ENDSEC
  0
SECTION
  2
BLOCKS
  0
BLOCK
  8
0
  2
$MODEL_SPACE
 70
     0
 10
0.0
 20
0.0
 30
0.0
  3
$MODEL_SPACE
  1

  0
ENDBLK
  5
4F9
  8
0
  0
BLOCK
 67
     1
  8
0
  2
$PAPER_SPACE
 70
     0
 10
0.0
 20
0.0
 30
0.0
  3
$PAPER_SPACE
  1

  0
ENDBLK
  5
4F5
 67
     1
  8
0
  0
BLOCK
  8
0
  2
STDGX5
 70
     0
 10
0.0
 20
0.0
 30
0.0
  3
STDGX5
  1

  0
ENDBLK
  5
3D
  8
0
  0
ENDSEC
  0
SECTION
  2
ENTITIES
  0
INSERT
  5
148
  8
0
  2
STDGX5
 10
0.0
 20
0.0
 30
0.0
  0
INSERT
  5
14F
  8
0
  2
STDGX5
 10
0.0
 20
0.0
 30
0.0
  0
INSERT
  5
150
  8
0
  2
STDGX5
 10
0.0
 20
0.0
 30
0.0
  0
INSERT
  5
151
  8
0
  2
STDGX5
 10
0.0
 20
0.0
 30
0.0
  0
LINE
  5
2B2
  8
1
 10
283.36781254964308
 20
334.12060870834051
 30
0.0
 11
173.36781254964311
 21
334.12060870834051
 31
0.0
  0
LINE
  5
2B3
  8
1
 10
213.36781254964311
 20
294.12060870834051
 30
0.0
 11
213.36781254964311
 21
374.1206087083404
 31
0.0
  0
ARC
  5
2B7
  8
0
 10
213.36781254964311
 20
334.12060870834051
 30
0.0
 40
25.0
 50
42.734341368984012
 51
317.26565863101598
  0
LINE
  5
2B8
  8
0
 10
97.367812549643077
 20
189.1206087083404
 30
0.0
 11
49.367812549643077
 21
189.1206087083404
 31
0.0
  0
LINE
  5
2B9
  8
0
 10
48.36781254964307
 20
188.1206087083404
 30
0.0
 11
48.36781254964307
 21
140.27530970834039
 31
0.0
  0
LINE
  5
2BA
  8
0
 10
50.367812549643062
 20
139.1206087083404
 30
0.0
 11
50.367812549643062
 21
119.1206087083404
 31
0.0
  0
LINE
  5
2BB
  8
0
 10
67.867812549643077
 20
108.72060870834039
 30
0.0
 11
67.867812549643077
 21
105.5206087083404
 31
0.0
  0
LINE
  5
2BC
  8
0
 10
49.367812549643077
 20
189.1206087083404
 30
0.0
 11
48.36781254964307
 21
188.1206087083404
 31
0.0
  0
LINE
  5
2BD
  8
0
 10
48.36781254964307
 20
110.1206087083404
 30
0.0
 11
49.367812549643077
 21
109.1206087083404
 31
0.0
  0
LINE
  5
2BE
  8
0
 10
65.367812549643077
 20
81.120608708340455
 30
0.0
 11
67.367812549643077
 21
79.120608708340455
 31
0.0
  0
ARC
  5
2BF
  8
0
 10
67.467812549643099
 20
108.72060870834039
 30
0.0
 40
0.4
 50
0.000000000000007
 51
90.0
  0
ARC
  5
2C0
  8
0
 10
67.467812549643099
 20
105.5206087083404
 30
0.0
 40
0.4
 50
270.0
 51
0.000000000000007
  0
LINE
  5
2C1
  8
0
 10
50.367812549643062
 20
139.1206087083404
 30
0.0
 11
48.36781254964307
 21
140.27530970834039
 31
0.0
  0
LINE
  5
2C2
  8
0
 10
50.367812549643062
 20
119.1206087083404
 30
0.0
 11
48.36781254964307
 21
117.9659077083405
 31
0.0
  0
LINE
  5
2C3
  8
0
 10
48.36781254964307
 20
117.9659077083405
 30
0.0
 11
48.36781254964307
 21
110.1206087083404
 31
0.0
  0
LINE
  5
2C4
  8
0
 10
98.367812549643077
 20
117.9659077083405
 30
0.0
 11
98.367812549643077
 21
110.1206087083404
 31
0.0
  0
LINE
  5
2C5
  8
0
 10
96.367812549643077
 20
119.1206087083404
 30
0.0
 11
98.367812549643077
 21
117.9659077083405
 31
0.0
  0
LINE
  5
2C6
  8
0
 10
96.367812549643077
 20
139.1206087083404
 30
0.0
 11
98.367812549643077
 21
140.27530970834039
 31
0.0
  0
ARC
  5
2C7
  8
0
 10
79.267812549643054
 20
108.72060870834039
 30
0.0
 40
0.4
 50
90.0
 51
180.0
  0
LINE
  5
2C8
  8
0
 10
98.367812549643077
 20
110.1206087083404
 30
0.0
 11
97.367812549643077
 21
109.1206087083404
 31
0.0
  0
LINE
  5
2C9
  8
0
 10
97.367812549643077
 20
189.1206087083404
 30
0.0
 11
98.367812549643077
 21
188.1206087083404
 31
0.0
  0
LINE
  5
2CA
  8
0
 10
78.867812549643062
 20
108.72060870834039
 30
0.0
 11
78.867812549643062
 21
105.5206087083404
 31
0.0
  0
LINE
  5
2CB
  8
0
 10
97.367812549643077
 20
109.1206087083404
 30
0.0
 11
49.367812549643077
 21
109.1206087083404
 31
0.0
  0
LINE
  5
2CC
  8
0
 10
96.367812549643077
 20
139.1206087083404
 30
0.0
 11
96.367812549643077
 21
119.1206087083404
 31
0.0
  0
LINE
  5
2CD
  8
0
 10
98.367812549643077
 20
188.1206087083404
 30
0.0
 11
98.367812549643077
 21
140.27530970834039
 31
0.0
  0
LINE
  5
2CE
  8
3
 10
66.467812549643085
 20
105.1206087083404
 30
0.0
 11
66.467812549643085
 21
80.020608708340461
 31
0.0
  0
LINE
  5
2CF
  8
0
 10
76.38253154964309
 20
139.1206087083404
 30
0.0
 11
76.38253154964309
 21
119.1206087083404
 31
0.0
  0
LINE
  5
2D0
  8
0
 10
76.38253154964309
 20
119.1206087083404
 30
0.0
 11
93.353093549643063
 21
119.1206087083404
 31
0.0
  0
LINE
  5
2D1
  8
0
 10
93.353093549643063
 20
119.1206087083404
 30
0.0
 11
93.353093549643063
 21
139.1206087083404
 31
0.0
  0
LINE
  5
2D2
  8
0
 10
93.353093549643063
 20
139.1206087083404
 30
0.0
 11
76.38253154964309
 21
139.1206087083404
 31
0.0
  0
ARC
  5
2D3
  8
0
 10
84.867812549643062
 20
108.5210447083404
 30
0.0
 40
31.754265
 50
74.501267000001818
 51
105.4987329999981
  0
ARC
  5
2D4
  8
0
 10
84.867812549643062
 20
149.72017270834041
 30
0.0
 40
31.754265
 50
254.5012670000018
 51
285.4987329999982
  0
ARC
  5
2D5
  8
0
 10
61.867812549643077
 20
149.72017270834041
 30
0.0
 40
31.754265
 50
254.5012670000018
 51
285.4987329999982
  0
ARC
  5
2D6
  8
0
 10
61.867812549643077
 20
108.5210447083404
 30
0.0
 40
31.754265
 50
74.501267000001818
 51
105.4987329999981
  0
LINE
  5
2D7
  8
0
 10
53.38253154964309
 20
139.1206087083404
 30
0.0
 11
70.353093549643063
 21
139.1206087083404
 31
0.0
  0
LINE
  5
2D8
  8
0
 10
53.38253154964309
 20
119.1206087083404
 30
0.0
 11
53.38253154964309
 21
139.1206087083404
 31
0.0
  0
LINE
  5
2D9
  8
0
 10
70.353093549643063
 20
119.1206087083404
 30
0.0
 11
53.38253154964309
 21
119.1206087083404
 31
0.0
  0
LINE
  5
2DA
  8
0
 10
70.353093549643063
 20
139.1206087083404
 30
0.0
 11
70.353093549643063
 21
119.1206087083404
 31
0.0
  0
LINE
  5
2DB
  8
0
 10
65.367812549643077
 20
105.1206087083404
 30
0.0
 11
65.367812549643077
 21
81.120608708340455
 31
0.0
  0
LINE
  5
2DC
  8
0
 10
81.367812549643062
 20
105.1206087083404
 30
0.0
 11
81.367812549643062
 21
81.120608708340455
 31
0.0
  0
LINE
  5
2DD
  8
3
 10
80.267812549643054
 20
105.1206087083404
 30
0.0
 11
80.267812549643054
 21
80.020608708340461
 31
0.0
  0
LINE
  5
2DE
  8
0
 10
81.367812549643062
 20
81.120608708340455
 30
0.0
 11
79.367812549643062
 21
79.120608708340455
 31
0.0
  0
ARC
  5
2DF
  8
0
 10
79.267812549643054
 20
105.5206087083404
 30
0.0
 40
0.4
 50
180.0
 51
270.0
  0
LINE
  5
2E0
  8
0
 10
81.367812549643062
 20
81.120608708340455
 30
0.0
 11
65.367812549643077
 21
81.120608708340455
 31
0.0
  0
LINE
  5
2E1
  8
0
 10
79.367812549643062
 20
79.120608708340455
 30
0.0
 11
67.367812549643077
 21
79.120608708340455
 31
0.0
  0
LINE
  5
2E2
  8
0
 10
81.367812549643062
 20
105.1206087083404
 30
0.0
 11
65.367812549643077
 21
105.1206087083404
 31
0.0
  0
LINE
  5
2E4
  8
0
 10
377.36781254964308
 20
189.1206087083404
 30
0.0
 11
329.36781254964308
 21
189.1206087083404
 31
0.0
  0
LINE
  5
2E5
  8
0
 10
328.36781254964308
 20
188.1206087083404
 30
0.0
 11
328.36781254964308
 21
140.27530970834039
 31
0.0
  0
LINE
  5
2E6
  8
0
 10
330.36781254964308
 20
139.1206087083404
 30
0.0
 11
330.36781254964308
 21
119.1206087083404
 31
0.0
  0
LINE
  5
2E7
  8
0
 10
347.86781254964308
 20
108.72060870834039
 30
0.0
 11
347.86781254964308
 21
105.5206087083404
 31
0.0
  0
LINE
  5
2E8
  8
0
 10
329.36781254964308
 20
189.1206087083404
 30
0.0
 11
328.36781254964308
 21
188.1206087083404
 31
0.0
  0
LINE
  5
2E9
  8
0
 10
328.36781254964308
 20
110.1206087083404
 30
0.0
 11
329.36781254964308
 21
109.1206087083404
 31
0.0
  0
LINE
  5
2EA
  8
0
 10
345.36781254964308
 20
81.120608708340455
 30
0.0
 11
347.36781254964308
 21
79.120608708340455
 31
0.0
  0
ARC
  5
2EB
  8
0
 10
347.4678125496431
 20
108.72060870834039
 30
0.0
 40
0.4
 50
0.000000000000007
 51
90.0
  0
ARC
  5
2EC
  8
0
 10
347.4678125496431
 20
105.5206087083404
 30
0.0
 40
0.4
 50
270.0
 51
0.000000000000007
  0
LINE
  5
2ED
  8
0
 10
330.36781254964308
 20
139.1206087083404
 30
0.0
 11
328.36781254964308
 21
140.27530970834039
 31
0.0
  0
LINE
  5
2EE
  8
0
 10
330.36781254964308
 20
119.1206087083404
 30
0.0
 11
328.36781254964308
 21
117.9659077083405
 31
0.0
  0
LINE
  5
2EF
  8
0
 10
328.36781254964308
 20
117.9659077083405
 30
0.0
 11
328.36781254964308
 21
110.1206087083404
 31
0.0
  0
LINE
  5
2F0
  8
0
 10
378.36781254964308
 20
117.9659077083405
 30
0.0
 11
378.36781254964308
 21
110.1206087083404
 31
0.0
  0
LINE
  5
2F1
  8
0
 10
376.36781254964308
 20
119.1206087083404
 30
0.0
 11
378.36781254964308
 21
117.9659077083405
 31
0.0
  0
LINE
  5
2F2
  8
0
 10
376.36781254964308
 20
139.1206087083404
 30
0.0
 11
378.36781254964308
 21
140.27530970834039
 31
0.0
  0
ARC
  5
2F3
  8
0
 10
359.267812549643
 20
108.72060870834039
 30
0.0
 40
0.4
 50
90.0
 51
180.0
  0
LINE
  5
2F4
  8
0
 10
378.36781254964308
 20
110.1206087083404
 30
0.0
 11
377.36781254964308
 21
109.1206087083404
 31
0.0
  0
LINE
  5
2F5
  8
0
 10
377.36781254964308
 20
189.1206087083404
 30
0.0
 11
378.36781254964308
 21
188.1206087083404
 31
0.0
  0
LINE
  5
2F6
  8
0
 10
358.86781254964308
 20
108.72060870834039
 30
0.0
 11
358.86781254964308
 21
105.5206087083404
 31
0.0
  0
LINE
  5
2F7
  8
0
 10
377.36781254964308
 20
109.1206087083404
 30
0.0
 11
329.36781254964308
 21
109.1206087083404
 31
0.0
  0
LINE
  5
2F8
  8
0
 10
376.36781254964308
 20
139.1206087083404
 30
0.0
 11
376.36781254964308
 21
119.1206087083404
 31
0.0
  0
LINE
  5
2F9
  8
0
 10
378.36781254964308
 20
188.1206087083404
 30
0.0
 11
378.36781254964308
 21
140.27530970834039
 31
0.0
  0
LINE
  5
2FA
  8
3
 10
346.4678125496431
 20
105.1206087083404
 30
0.0
 11
346.4678125496431
 21
80.020608708340461
 31
0.0
  0
LINE
  5
2FB
  8
0
 10
356.38253154964309
 20
139.1206087083404
 30
0.0
 11
356.38253154964309
 21
119.1206087083404
 31
0.0
  0
LINE
  5
2FC
  8
0
 10
356.38253154964309
 20
119.1206087083404
 30
0.0
 11
373.35309354964312
 21
119.1206087083404
 31
0.0
  0
LINE
  5
2FD
  8
0
 10
373.35309354964312
 20
119.1206087083404
 30
0.0
 11
373.35309354964312
 21
139.1206087083404
 31
0.0
  0
LINE
  5
2FE
  8
0
 10
373.35309354964312
 20
139.1206087083404
 30
0.0
 11
356.38253154964309
 21
139.1206087083404
 31
0.0
  0
ARC
  5
2FF
  8
0
 10
364.86781254964308
 20
108.5210447083404
 30
0.0
 40
31.754265
 50
74.501267000001818
 51
105.4987329999981
  0
ARC
  5
300
  8
0
 10
364.86781254964308
 20
149.72017270834041
 30
0.0
 40
31.754265
 50
254.5012670000018
 51
285.4987329999982
  0
ARC
  5
301
  8
0
 10
341.86781254964308
 20
149.72017270834041
 30
0.0
 40
31.754265
 50
254.5012670000018
 51
285.4987329999982
  0
ARC
  5
302
  8
0
 10
341.86781254964308
 20
108.5210447083404
 30
0.0
 40
31.754265
 50
74.501267000001818
 51
105.4987329999981
  0
LINE
  5
303
  8
0
 10
333.38253154964298
 20
139.1206087083404
 30
0.0
 11
350.35309354964312
 21
139.1206087083404
 31
0.0
  0
LINE
  5
304
  8
0
 10
333.38253154964298
 20
119.1206087083404
 30
0.0
 11
333.38253154964298
 21
139.1206087083404
 31
0.0
  0
LINE
  5
305
  8
0
 10
350.35309354964312
 20
119.1206087083404
 30
0.0
 11
333.38253154964298
 21
119.1206087083404
 31
0.0
  0
LINE
  5
306
  8
0
 10
350.35309354964312
 20
139.1206087083404
 30
0.0
 11
350.35309354964312
 21
119.1206087083404
 31
0.0
  0
LINE
  5
307
  8
0
 10
345.36781254964308
 20
105.1206087083404
 30
0.0
 11
345.36781254964308
 21
81.120608708340455
 31
0.0
  0
LINE
  5
308
  8
0
 10
361.36781254964308
 20
105.1206087083404
 30
0.0
 11
361.36781254964308
 21
81.120608708340455
 31
0.0
  0
LINE
  5
309
  8
3
 10
360.26781254964311
 20
105.1206087083404
 30
0.0
 11
360.26781254964311
 21
80.020608708340461
 31
0.0
  0
LINE
  5
30A
  8
0
 10
361.36781254964308
 20
81.120608708340455
 30
0.0
 11
359.36781254964308
 21
79.120608708340455
 31
0.0
  0
ARC
  5
30B
  8
0
 10
359.267812549643
 20
105.5206087083404
 30
0.0
 40
0.4
 50
180.0
 51
270.0
  0
LINE
  5
30C
  8
0
 10
361.36781254964308
 20
81.120608708340455
 30
0.0
 11
345.36781254964308
 21
81.120608708340455
 31
0.0
  0
LINE
  5
30D
  8
0
 10
359.36781254964308
 20
79.120608708340455
 30
0.0
 11
347.36781254964308
 21
79.120608708340455
 31
0.0
  0
LINE
  5
30E
  8
0
 10
361.36781254964308
 20
105.1206087083404
 30
0.0
 11
345.36781254964308
 21
105.1206087083404
 31
0.0
  0
LINE
  5
310
  8
1
 10
73.367812549643062
 20
235.1206087083404
 30
0.0
 11
73.367812549643062
 21
69.120608708340455
 31
0.0
  0
LINE
  5
312
  8
0
 10
56.985398549643037
 20
189.1205987083404
 30
0.0
 11
56.686516549643102
 21
190.1206087083404
 31
0.0
  0
ARC
  5
315
  8
0
 10
90.567812549643094
 20
190.92060870834041
 30
0.0
 40
0.8
 50
270.0
 51
0.000000000000007
  0
LINE
  5
316
  8
0
 10
89.750226549643116
 20
189.1205987083404
 30
0.0
 11
90.049108549643066
 21
190.1206087083404
 31
0.0
  0
LINE
  5
317
  8
0
 10
90.567812549643094
 20
190.1206087083404
 30
0.0
 11
56.167812549643031
 21
190.1206087083404
 31
0.0
  0
LINE
  5
318
  8
0
 10
56.167812549643031
 20
210.1206087083404
 30
0.0
 11
90.567812549643094
 21
210.1206087083404
 31
0.0
  0
ARC
  5
319
  8
0
 10
90.567812549643094
 20
190.92060870834041
 30
0.0
 40
0.8
 50
270.0
 51
0.000000000000007
  0
ARC
  5
31A
  8
0
 10
90.567812549643094
 20
209.32060870834039
 30
0.0
 40
0.8
 50
0.000000000000007
 51
90.0
  0
LINE
  5
31B
  8
0
 10
91.367812549643077
 20
209.32060870834039
 30
0.0
 11
91.367812549643077
 21
190.92060870834041
 31
0.0
  0
LINE
  5
31C
  8
2
 10
65.367812549643077
 20
126.1206087083404
 30
0.0
 11
67.367812549643077
 21
124.1206087083404
 31
0.0
  0
LINE
  5
31D
  8
2
 10
65.367812549643077
 20
150.1206087083404
 30
0.0
 11
65.367812549643077
 21
126.1206087083404
 31
0.0
  0
LINE
  5
31E
  8
2
 10
80.267812549643054
 20
150.1206087083404
 30
0.0
 11
80.267812549643054
 21
125.0206087083404
 31
0.0
  0
LINE
  5
31F
  8
2
 10
81.367812549643062
 20
126.1206087083404
 30
0.0
 11
79.367812549643062
 21
124.1206087083404
 31
0.0
  0
LINE
  5
320
  8
2
 10
81.367812549643062
 20
150.1206087083404
 30
0.0
 11
81.367812549643062
 21
126.1206087083404
 31
0.0
  0
LINE
  5
321
  8
2
 10
57.367812549643077
 20
151.1206087083404
 30
0.0
 11
58.36781254964307
 21
150.1206087083404
 31
0.0
  0
LINE
  5
322
  8
2
 10
88.367812549643048
 20
150.1206087083404
 30
0.0
 11
89.367812549643077
 21
151.1206087083404
 31
0.0
  0
ARC
  5
323
  8
0
 10
56.167812549643031
 20
190.92060870834041
 30
0.0
 40
0.8
 50
180.0
 51
270.0
  0
ARC
  5
324
  8
0
 10
56.167812549643031
 20
209.32060870834039
 30
0.0
 40
0.8
 50
90.0
 51
180.0
  0
ARC
  5
325
  8
0
 10
57.467812549643099
 20
189.72060870834039
 30
0.0
 40
0.4
 50
0.000000000000007
 51
90.0
  0
ARC
  5
326
  8
0
 10
89.267812549643054
 20
189.72060870834039
 30
0.0
 40
0.4
 50
90.0
 51
180.0
  0
LINE
  5
327
  8
0
 10
85.367812549643062
 20
224.1206087083404
 30
0.0
 11
85.367812549643062
 21
210.1206087083404
 31
0.0
  0
LINE
  5
328
  8
0
 10
85.367812549643062
 20
224.1206087083404
 30
0.0
 11
83.635761549643092
 21
225.12060870834051
 31
0.0
  0
LINE
  5
329
  8
0
 10
88.867812549643062
 20
189.1206087083404
 30
0.0
 11
88.867812549643062
 21
189.72060870834039
 31
0.0
  0
LINE
  5
32A
  8
2
 10
89.367812549643077
 20
151.1206087083404
 30
0.0
 11
89.367812549643077
 21
188.1206087083404
 31
0.0
  0
LINE
  5
32B
  8
2
 10
57.367812549643077
 20
188.1206087083404
 30
0.0
 11
57.367812549643077
 21
151.1206087083404
 31
0.0
  0
LINE
  5
32C
  8
0
 10
57.867812549643062
 20
189.72060870834039
 30
0.0
 11
57.867812549643062
 21
189.1206087083404
 31
0.0
  0
LINE
  5
32D
  8
0
 10
55.367812549643062
 20
209.32060870834039
 30
0.0
 11
55.367812549643062
 21
190.92060870834041
 31
0.0
  0
LINE
  5
32E
  8
0
 10
61.367812549643077
 20
224.1206087083404
 30
0.0
 11
61.367812549643077
 21
210.1206087083404
 31
0.0
  0
LINE
  5
32F
  8
0
 10
61.367812549643077
 20
224.1206087083404
 30
0.0
 11
63.099863549643032
 21
225.12060870834051
 31
0.0
  0
LINE
  5
330
  8
2
 10
66.467812549643085
 20
150.1206087083404
 30
0.0
 11
66.467812549643085
 21
125.0206087083404
 31
0.0
  0
LINE
  5
331
  8
2
 10
79.367812549643062
 20
124.1206087083404
 30
0.0
 11
67.367812549643077
 21
124.1206087083404
 31
0.0
  0
LINE
  5
332
  8
2
 10
81.367812549643062
 20
126.1206087083404
 30
0.0
 11
65.367812549643077
 21
126.1206087083404
 31
0.0
  0
LINE
  5
333
  8
2
 10
89.367812549643077
 20
151.1206087083404
 30
0.0
 11
57.367812549643077
 21
151.1206087083404
 31
0.0
  0
LINE
  5
334
  8
2
 10
89.367812549643077
 20
188.1206087083404
 30
0.0
 11
57.367812549643077
 21
188.1206087083404
 31
0.0
  0
LINE
  5
335
  8
0
 10
85.367812549643062
 20
224.1206087083404
 30
0.0
 11
61.367812549643077
 21
224.1206087083404
 31
0.0
  0
LINE
  5
336
  8
0
 10
83.635761549643092
 20
225.12060870834051
 30
0.0
 11
63.099863549643032
 21
225.12060870834051
 31
0.0
  0
LINE
  5
337
  8
2
 10
88.367812549643048
 20
150.1206087083404
 30
0.0
 11
58.36781254964307
 21
150.1206087083404
 31
0.0
  0
LINE
  5
338
  8
0
 10
364.30105954964313
 20
204.2334717083404
 30
0.0
 11
370.56781254964312
 21
209.32060870834039
 31
0.0
  0
LINE
  5
339
  8
0
 10
342.43456554964308
 20
204.2334717083404
 30
0.0
 11
336.16781254964297
 21
209.32060870834039
 31
0.0
  0
ARC
  5
33A
  8
0
 10
343.23456554964298
 20
203.43347170834039
 30
0.0
 40
0.8
 50
90.0
 51
180.0
  0
ARC
  5
33B
  8
0
 10
363.50105954964312
 20
203.43347170834039
 30
0.0
 40
0.8
 50
0.000000000000007
 51
90.0
  0
ARC
  5
33C
  8
0
 10
363.50105954964312
 20
189.92059870834041
 30
0.0
 40
0.8
 50
270.0
 51
0.000000000000007
  0
ARC
  5
33D
  8
0
 10
343.23456554964298
 20
189.92059870834041
 30
0.0
 40
0.8
 50
180.0
 51
270.0
  0
LINE
  5
33E
  8
0
 10
363.50105954964312
 20
204.2334717083404
 30
0.0
 11
343.23456554964298
 21
204.2334717083404
 31
0.0
  0
LINE
  5
33F
  8
0
 10
364.30105954964313
 20
189.92059870834041
 30
0.0
 11
364.30105954964313
 21
203.43347170834039
 31
0.0
  0
LINE
  5
340
  8
0
 10
342.43456554964308
 20
203.43347170834039
 30
0.0
 11
342.43456554964308
 21
189.92059870834041
 31
0.0
  0
LINE
  5
341
  8
0
 10
336.98539854964298
 20
189.1205987083404
 30
0.0
 11
336.6865165496431
 21
190.1206087083404
 31
0.0
  0
LINE
  5
342
  8
0
 10
370.04910854964311
 20
190.1206087083404
 30
0.0
 11
370.56781254964312
 21
190.1206087083404
 31
0.0
  0
LINE
  5
343
  8
0
 10
369.75022654964312
 20
189.1205987083404
 30
0.0
 11
370.04910854964311
 21
190.1206087083404
 31
0.0
  0
LINE
  5
345
  8
0
 10
336.16781254964297
 20
190.1206087083404
 30
0.0
 11
336.6865165496431
 21
190.1206087083404
 31
0.0
  0
LINE
  5
346
  8
0
 10
370.56781254964312
 20
210.1206087083404
 30
0.0
 11
336.16781254964297
 21
210.1206087083404
 31
0.0
  0
ARC
  5
347
  8
0
 10
336.16781254964297
 20
190.92060870834041
 30
0.0
 40
0.8
 50
180.0
 51
270.0
  0
ARC
  5
348
  8
0
 10
336.16781254964297
 20
209.32060870834039
 30
0.0
 40
0.8
 50
90.0
 51
180.0
  0
LINE
  5
349
  8
0
 10
335.36781254964308
 20
209.32060870834039
 30
0.0
 11
335.36781254964308
 21
190.92060870834041
 31
0.0
  0
LINE
  5
34A
  8
2
 10
361.36781254964308
 20
126.1206087083404
 30
0.0
 11
359.36781254964308
 21
124.1206087083404
 31
0.0
  0
LINE
  5
34B
  8
2
 10
361.36781254964308
 20
150.1206087083404
 30
0.0
 11
361.36781254964308
 21
126.1206087083404
 31
0.0
  0
LINE
  5
34C
  8
2
 10
346.4678125496431
 20
150.1206087083404
 30
0.0
 11
346.4678125496431
 21
125.0206087083404
 31
0.0
  0
LINE
  5
34D
  8
2
 10
345.36781254964308
 20
126.1206087083404
 30
0.0
 11
347.36781254964308
 21
124.1206087083404
 31
0.0
  0
LINE
  5
34E
  8
2
 10
345.36781254964308
 20
150.1206087083404
 30
0.0
 11
345.36781254964308
 21
126.1206087083404
 31
0.0
  0
LINE
  5
34F
  8
2
 10
369.36781254964308
 20
151.1206087083404
 30
0.0
 11
368.36781254964308
 21
150.1206087083404
 31
0.0
  0
LINE
  5
350
  8
2
 10
338.36781254964308
 20
150.1206087083404
 30
0.0
 11
337.36781254964308
 21
151.1206087083404
 31
0.0
  0
ARC
  5
351
  8
0
 10
370.56781254964312
 20
190.92060870834041
 30
0.0
 40
0.8
 50
270.0
 51
0.000000000000007
  0
ARC
  5
352
  8
0
 10
370.56781254964312
 20
209.32060870834039
 30
0.0
 40
0.8
 50
0.000000000000007
 51
90.0
  0
LINE
  5
353
  8
0
 10
341.36781254964308
 20
224.1206087083404
 30
0.0
 11
341.36781254964308
 21
210.1206087083404
 31
0.0
  0
LINE
  5
354
  8
0
 10
341.36781254964308
 20
224.1206087083404
 30
0.0
 11
343.09986354964298
 21
225.12060870834051
 31
0.0
  0
LINE
  5
355
  8
2
 10
337.86781254964308
 20
188.1206087083404
 30
0.0
 11
337.86781254964308
 21
189.1205987083404
 31
0.0
  0
LINE
  5
356
  8
2
 10
337.36781254964308
 20
151.1206087083404
 30
0.0
 11
337.36781254964308
 21
188.1206087083404
 31
0.0
  0
LINE
  5
357
  8
2
 10
369.36781254964308
 20
188.1206087083404
 30
0.0
 11
369.36781254964308
 21
151.1206087083404
 31
0.0
  0
LINE
  5
358
  8
2
 10
368.86781254964308
 20
189.1205987083404
 30
0.0
 11
368.86781254964308
 21
188.1206087083404
 31
0.0
  0
LINE
  5
359
  8
0
 10
371.36781254964308
 20
209.32060870834039
 30
0.0
 11
371.36781254964308
 21
190.92060870834041
 31
0.0
  0
LINE
  5
35A
  8
0
 10
365.36781254964308
 20
224.1206087083404
 30
0.0
 11
365.36781254964308
 21
210.1206087083404
 31
0.0
  0
LINE
  5
35B
  8
0
 10
365.36781254964308
 20
224.1206087083404
 30
0.0
 11
363.63576154964312
 21
225.12060870834051
 31
0.0
  0
LINE
  5
35C
  8
2
 10
360.26781254964311
 20
150.1206087083404
 30
0.0
 11
360.26781254964311
 21
125.0206087083404
 31
0.0
  0
LINE
  5
35D
  8
2
 10
347.36781254964308
 20
124.1206087083404
 30
0.0
 11
359.36781254964308
 21
124.1206087083404
 31
0.0
  0
LINE
  5
35E
  8
2
 10
345.36781254964308
 20
126.1206087083404
 30
0.0
 11
361.36781254964308
 21
126.1206087083404
 31
0.0
  0
LINE
  5
35F
  8
2
 10
337.36781254964308
 20
151.1206087083404
 30
0.0
 11
369.36781254964308
 21
151.1206087083404
 31
0.0
  0
LINE
  5
360
  8
2
 10
337.36781254964308
 20
188.1206087083404
 30
0.0
 11
369.36781254964308
 21
188.1206087083404
 31
0.0
  0
LINE
  5
361
  8
0
 10
341.36781254964308
 20
224.1206087083404
 30
0.0
 11
365.36781254964308
 21
224.1206087083404
 31
0.0
  0
LINE
  5
362
  8
0
 10
343.09986354964298
 20
225.12060870834051
 30
0.0
 11
363.63576154964312
 21
225.12060870834051
 31
0.0
  0
LINE
  5
363
  8
2
 10
338.36781254964308
 20
150.1206087083404
 30
0.0
 11
368.36781254964308
 21
150.1206087083404
 31
0.0
  0
LINE
  5
364
  8
1
 10
353.36781254964308
 20
235.1206087083404
 30
0.0
 11
353.36781254964308
 21
69.120608708340455
 31
0.0
  0
CIRCLE
  5
366
  8
0
 10
213.36781254964311
 20
334.12060870834051
 30
0.0
 40
13.0
  0
ARC
  5
368
  8
0
 10
223.36781254964311
 20
334.12060870834051
 30
0.0
 40
18.0
 50
270.0
 51
90.0
  0
ARC
  5
369
  8
0
 10
213.36781254964311
 20
334.12060870834051
 30
0.0
 40
18.0
 50
90.0
 51
270.0
  0
LINE
  5
36A
  8
0
 10
223.36781254964311
 20
352.12060870834051
 30
0.0
 11
213.36781254964311
 21
352.12060870834051
 31
0.0
  0
LINE
  5
36B
  8
0
 10
223.36781254964311
 20
316.1206087083404
 30
0.0
 11
213.36781254964311
 21
316.1206087083404
 31
0.0
  0
ARC
  5
36C
  8
0
 10
270.62844254964318
 20
343.35209270834048
 30
0.0
 40
2.0
 50
9.1583469999994183
 51
90.0
  0
LINE
  5
36D
  8
0
 10
270.63152554964307
 20
345.3730887083405
 30
0.0
 11
225.9830225496431
 21
351.92961470834052
 31
0.0
  0
ARC
  5
36E
  8
0
 10
270.62844254964318
 20
324.88912470834038
 30
0.0
 40
2.0
 50
270.0
 51
350.84165300000052
  0
ARC
  5
36F
  8
0
 10
213.36781254964311
 20
334.12060870834051
 30
0.0
 40
60.0
 50
350.84165300000018
 51
9.1583470000001892
  0
LINE
  5
370
  8
0
 10
270.63152554964307
 20
322.86812870834041
 30
0.0
 11
225.9830225496431
 21
316.31160270834039
 31
0.0
  0
LINE
  5
371
  8
0
 10
221.45071654964309
 20
334.12060870834051
 30
0.0
 11
217.4092645496431
 21
341.1206087083404
 31
0.0
  0
LINE
  5
372
  8
0
 10
217.4092645496431
 20
327.12060870834051
 30
0.0
 11
221.45071654964309
 21
334.12060870834051
 31
0.0
  0
LINE
  5
373
  8
0
 10
209.32636054964311
 20
327.12060870834051
 30
0.0
 11
217.4092645496431
 21
327.12060870834051
 31
0.0
  0
LINE
  5
374
  8
0
 10
205.28490854964309
 20
334.12060870834051
 30
0.0
 11
209.32636054964311
 21
327.12060870834051
 31
0.0
  0
LINE
  5
375
  8
0
 10
209.32636054964311
 20
341.1206087083404
 30
0.0
 11
205.28490854964309
 21
334.12060870834051
 31
0.0
  0
LINE
  5
376
  8
0
 10
217.4092645496431
 20
341.1206087083404
 30
0.0
 11
209.32636054964311
 21
341.1206087083404
 31
0.0
  0
CIRCLE
  5
378
  8
0
 10
213.36781254964311
 20
334.12060870834051
 30
0.0
 40
12.0
  0
CIRCLE
  5
379
  8
0
 10
259.36781254964308
 20
334.12060870834051
 30
0.0
 40
5.0
  0
CIRCLE
  5
37A
  8
3
 10
259.36781254964308
 20
334.12060870834051
 30
0.0
 40
6.0
  0
LINE
  5
37B
  8
1
 10
259.36781254964308
 20
324.1206087083404
 30
0.0
 11
259.36781254964308
 21
344.12060870834051
 31
0.0
  0
LINE
  5
37C
  8
2
 10
197.36781254964299
 20
151.1206087083404
 30
0.0
 11
198.36781254964311
 21
150.1206087083404
 31
0.0
  0
LINE
  5
37D
  8
2
 10
228.36781254964319
 20
150.1206087083404
 30
0.0
 11
229.36781254964311
 21
151.1206087083404
 31
0.0
  0
ARC
  5
37E
  8
0
 10
197.4678125496431
 20
189.72060870834039
 30
0.0
 40
0.4
 50
0.000000000000007
 51
90.0
  0
ARC
  5
37F
  8
0
 10
229.26781254964311
 20
189.72060870834039
 30
0.0
 40
0.4
 50
90.0
 51
180.0
  0
LINE
  5
380
  8
0
 10
228.8678127935431
 20
189.12059907419399
 30
0.0
 11
228.86781254964311
 21
189.72060870834039
 31
0.0
  0
LINE
  5
381
  8
2
 10
229.36781254964311
 20
151.1206087083404
 30
0.0
 11
229.36781254964311
 21
188.1206087083404
 31
0.0
  0
LINE
  5
382
  8
2
 10
197.36781254964299
 20
188.1206087083404
 30
0.0
 11
197.36781254964299
 21
151.1206087083404
 31
0.0
  0
LINE
  5
383
  8
0
 10
197.86781254964311
 20
189.72060870834039
 30
0.0
 11
197.867812793545
 21
189.12060663516959
 31
0.0
  0
LINE
  5
384
  8
2
 10
229.36781254964311
 20
151.1206087083404
 30
0.0
 11
197.36781254964299
 21
151.1206087083404
 31
0.0
  0
LINE
  5
385
  8
2
 10
229.36781254964311
 20
188.1206087083404
 30
0.0
 11
197.36781254964299
 21
188.1206087083404
 31
0.0
  0
LINE
  5
386
  8
2
 10
228.36781254964319
 20
150.1206087083404
 30
0.0
 11
198.36781254964311
 21
150.1206087083404
 31
0.0
  0
LINE
  5
387
  8
2
 10
205.36781254964319
 20
126.1206087083404
 30
0.0
 11
207.36781254964311
 21
124.1206087083404
 31
0.0
  0
LINE
  5
388
  8
2
 10
205.36781254964319
 20
150.1206087083404
 30
0.0
 11
205.36781254964319
 21
126.1206087083404
 31
0.0
  0
LINE
  5
389
  8
2
 10
220.2678125496432
 20
150.1206087083404
 30
0.0
 11
220.2678125496432
 21
125.0206087083404
 31
0.0
  0
LINE
  5
38A
  8
2
 10
221.36781254964311
 20
126.1206087083404
 30
0.0
 11
219.36781254964311
 21
124.1206087083404
 31
0.0
  0
LINE
  5
38B
  8
2
 10
221.36781254964311
 20
150.1206087083404
 30
0.0
 11
221.36781254964311
 21
126.1206087083404
 31
0.0
  0
LINE
  5
38C
  8
2
 10
206.4678125496431
 20
150.1206087083404
 30
0.0
 11
206.4678125496431
 21
125.0206087083404
 31
0.0
  0
LINE
  5
38D
  8
2
 10
219.36781254964311
 20
124.1206087083404
 30
0.0
 11
207.36781254964311
 21
124.1206087083404
 31
0.0
  0
LINE
  5
38E
  8
2
 10
221.36781254964311
 20
126.1206087083404
 30
0.0
 11
205.36781254964319
 21
126.1206087083404
 31
0.0
  0
LINE
  5
38F
  8
0
 10
231.8746085496432
 20
190.12060570834041
 30
0.0
 11
233.25655154964309
 21
189.1231617083404
 31
0.0
  0
LINE
  5
390
  8
0
 10
189.36781254964299
 20
189.1206087083404
 30
0.0
 11
271.36781254964308
 21
189.12058870834039
 31
0.0
  0
LINE
  5
391
  8
0
 10
195.36781254964311
 20
209.32060870834039
 30
0.0
 11
195.36781254964311
 21
190.92047370834041
 31
0.0
  0
LINE
  5
392
  8
0
 10
273.36781254964308
 20
203.40882270834049
 30
0.0
 11
273.36781254964308
 21
191.12058870834039
 31
0.0
  0
ARC
  5
393
  8
0
 10
196.16781254964309
 20
209.32060870834039
 30
0.0
 40
0.8
 50
90.0
 51
180.0
  0
ARC
  5
394
  8
0
 10
271.36781254964308
 20
191.12058870834039
 30
0.0
 40
2.0
 50
270.0
 51
0.000000000000007
  0
LINE
  5
395
  8
0
 10
196.16781254964309
 20
210.1206087083404
 30
0.0
 11
240.5912705496431
 21
210.1206087083404
 31
0.0
  0
ARC
  5
397
  8
0
 10
196.16781254964309
 20
190.92047370834041
 30
0.0
 40
0.8
 50
180.0
 51
268.97504823635308
  0
LINE
  5
39C
  8
0
 10
271.6765675496431
 20
205.3848467083404
 30
0.0
 11
242.13504554964319
 21
210.00072770834041
 31
0.0
  0
ARC
  5
39D
  8
0
 10
240.5912705496431
 20
200.12060870834051
 30
0.0
 40
10.0
 50
81.119306000000705
 51
90.0
  0
ARC
  5
39E
  8
0
 10
271.36781254964308
 20
203.40882270834049
 30
0.0
 40
2.0
 50
0.000000000000007
 51
81.119306000000705
  0
LINE
  5
39F
  8
0
 10
231.8746145496431
 20
190.12060170834039
 30
0.0
 11
196.15350228703409
 21
190.12060170834039
 31
0.0
  0
LINE
  5
3A0
  8
1
 10
213.36781254964311
 20
235.1206087083404
 30
0.0
 11
213.36781254964311
 21
69.120608708340455
 31
0.0
  0
LINE
  5
3A1
  8
0
 10
202.36781254964311
 20
225.12060870834051
 30
0.0
 11
201.36781254964311
 21
224.1206087083404
 31
0.0
  0
LINE
  5
3A2
  8
0
 10
224.36781254964311
 20
225.12060870834051
 30
0.0
 11
202.36781254964311
 21
225.12060870834051
 31
0.0
  0
LINE
  5
3A3
  8
0
 10
225.36781254964311
 20
224.1206087083404
 30
0.0
 11
224.36781254964311
 21
225.12060870834051
 31
0.0
  0
LINE
  5
3A4
  8
0
 10
225.36781254964311
 20
210.1206087083404
 30
0.0
 11
225.36781254964311
 21
224.1206087083404
 31
0.0
  0
LINE
  5
3A5
  8
0
 10
201.36781254964311
 20
224.1206087083404
 30
0.0
 11
201.36781254964311
 21
210.1206087083404
 31
0.0
  0
LINE
  5
3A6
  8
0
 10
225.36781254964311
 20
224.1206087083404
 30
0.0
 11
201.36781254964311
 21
224.1206087083404
 31
0.0
  0
LINE
  5
3A7
  8
1
 10
259.36781254964308
 20
212.30809770834051
 30
0.0
 11
259.36781254964308
 21
184.12058870834039
 31
0.0
  0
LINE
  5
3A8
  8
0
 10
238.18537654964319
 20
139.1206087083404
 30
0.0
 11
238.18537654964319
 21
119.1206087083404
 31
0.0
  0
LINE
  5
3A9
  8
0
 10
228.38741754964309
 20
139.1206087083404
 30
0.0
 11
228.38741754964309
 21
119.1206087083404
 31
0.0
  0
ARC
  5
3AA
  8
0
 10
233.28639654964309
 20
128.9355637083404
 30
0.0
 40
10.969654999999999
 50
243.4746480000012
 51
296.5253519999988
  0
ARC
  5
3AB
  8
0
 10
233.28639654964309
 20
129.3056537083404
 30
0.0
 40
10.969654999999999
 50
63.474648000001189
 51
116.5253519999988
  0
LINE
  5
3AC
  8
0
 10
228.38741754964309
 20
139.1206087083404
 30
0.0
 11
238.18537654964319
 21
139.1206087083404
 31
0.0
  0
LINE
  5
3AD
  8
0
 10
228.38741754964309
 20
119.1206087083404
 30
0.0
 11
238.18537654964319
 21
119.1206087083404
 31
0.0
  0
LINE
  5
3AE
  8
0
 10
198.34820754964289
 20
119.1206087083404
 30
0.0
 11
188.5502485496431
 21
119.1206087083404
 31
0.0
  0
LINE
  5
3AF
  8
0
 10
198.34820754964289
 20
139.1206087083404
 30
0.0
 11
188.5502485496431
 21
139.1206087083404
 31
0.0
  0
ARC
  5
3B0
  8
0
 10
193.44922854964301
 20
129.3056537083404
 30
0.0
 40
10.969654999999999
 50
63.474648000001189
 51
116.5253519999988
  0
ARC
  5
3B1
  8
0
 10
193.44922854964301
 20
128.9355637083404
 30
0.0
 40
10.969654999999999
 50
243.4746480000012
 51
296.5253519999988
  0
ARC
  5
3B2
  8
0
 10
213.36781254964311
 20
160.11247770834041
 30
0.0
 40
42.14656999999999
 50
256.55726100000072
 51
283.4427390000024
  0
ARC
  5
3B3
  8
0
 10
213.36781254964311
 20
98.128739708340433
 30
0.0
 40
42.14656999999999
 50
76.557261000000807
 51
103.44273899999919
  0
LINE
  5
3B4
  8
0
 10
223.1657715496431
 20
139.1206087083404
 30
0.0
 11
203.5698535496432
 21
139.1206087083404
 31
0.0
  0
LINE
  5
3B5
  8
0
 10
223.1657715496431
 20
119.1206087083404
 30
0.0
 11
203.5698535496432
 21
119.1206087083404
 31
0.0
  0
LINE
  5
3B6
  8
0
 10
223.1657715496431
 20
139.1206087083404
 30
0.0
 11
223.1657715496431
 21
119.1206087083404
 31
0.0
  0
LINE
  5
3B7
  8
0
 10
203.5698535496432
 20
139.1206087083404
 30
0.0
 11
203.5698535496432
 21
119.1206087083404
 31
0.0
  0
LINE
  5
3B8
  8
0
 10
198.34820754964289
 20
139.1206087083404
 30
0.0
 11
198.34820754964289
 21
119.1206087083404
 31
0.0
  0
LINE
  5
3B9
  8
0
 10
188.5502485496431
 20
139.1206087083404
 30
0.0
 11
188.5502485496431
 21
119.1206087083404
 31
0.0
  0
LINE
  5
3BB
  8
0
 10
221.36781254964311
 20
105.1206087083404
 30
0.0
 11
205.36781254964319
 21
105.1206087083404
 31
0.0
  0
LINE
  5
3BC
  8
0
 10
219.36781254964311
 20
79.120608708340455
 30
0.0
 11
207.36781254964311
 21
79.120608708340455
 31
0.0
  0
LINE
  5
3BD
  8
0
 10
221.36781254964311
 20
81.120608708340455
 30
0.0
 11
205.36781254964319
 21
81.120608708340455
 31
0.0
  0
ARC
  5
3BE
  8
0
 10
219.267812549643
 20
105.5206087083404
 30
0.0
 40
0.4
 50
180.0
 51
270.0
  0
LINE
  5
3BF
  8
0
 10
221.36781254964311
 20
81.120608708340455
 30
0.0
 11
219.36781254964311
 21
79.120608708340455
 31
0.0
  0
LINE
  5
3C0
  8
3
 10
220.2678125496432
 20
105.1206087083404
 30
0.0
 11
220.2678125496432
 21
80.020608708340461
 31
0.0
  0
LINE
  5
3C1
  8
0
 10
221.36781254964311
 20
105.1206087083404
 30
0.0
 11
221.36781254964311
 21
81.120608708340455
 31
0.0
  0
LINE
  5
3C2
  8
0
 10
205.36781254964319
 20
105.1206087083404
 30
0.0
 11
205.36781254964319
 21
81.120608708340455
 31
0.0
  0
LINE
  5
3C3
  8
3
 10
206.4678125496431
 20
105.1206087083404
 30
0.0
 11
206.4678125496431
 21
80.020608708340461
 31
0.0
  0
LINE
  5
3C4
  8
0
 10
238.36781254964311
 20
188.1206087083404
 30
0.0
 11
238.36781254964311
 21
110.1206087083404
 31
0.0
  0
LINE
  5
3C5
  8
0
 10
237.36781254964311
 20
109.1206087083404
 30
0.0
 11
189.36781254964299
 21
109.1206087083404
 31
0.0
  0
LINE
  5
3C6
  8
0
 10
218.86781254964311
 20
108.72060870834039
 30
0.0
 11
218.86781254964311
 21
105.5206087083404
 31
0.0
  0
LINE
  5
3C7
  8
0
 10
237.36781254964311
 20
189.1206087083404
 30
0.0
 11
238.36781254964311
 21
188.1206087083404
 31
0.0
  0
LINE
  5
3C8
  8
0
 10
238.36781254964311
 20
110.1206087083404
 30
0.0
 11
237.36781254964311
 21
109.1206087083404
 31
0.0
  0
ARC
  5
3C9
  8
0
 10
219.267812549643
 20
108.72060870834039
 30
0.0
 40
0.4
 50
90.0
 51
180.0
  0
ARC
  5
3CA
  8
0
 10
207.4678125496431
 20
105.5206087083404
 30
0.0
 40
0.4
 50
270.0
 51
0.000000000000007
  0
ARC
  5
3CB
  8
0
 10
207.4678125496431
 20
108.72060870834039
 30
0.0
 40
0.4
 50
0.000000000000007
 51
90.0
  0
LINE
  5
3CC
  8
0
 10
205.36781254964319
 20
81.120608708340455
 30
0.0
 11
207.36781254964311
 21
79.120608708340455
 31
0.0
  0
LINE
  5
3CD
  8
0
 10
188.36781254964299
 20
110.1206087083404
 30
0.0
 11
189.36781254964299
 21
109.1206087083404
 31
0.0
  0
LINE
  5
3CE
  8
0
 10
189.36781254964299
 20
189.1206087083404
 30
0.0
 11
188.36781254964299
 21
188.1206087083404
 31
0.0
  0
LINE
  5
3CF
  8
0
 10
207.86781254964311
 20
108.72060870834039
 30
0.0
 11
207.86781254964311
 21
105.5206087083404
 31
0.0
  0
LINE
  5
3D0
  8
0
 10
188.36781254964299
 20
188.1206087083404
 30
0.0
 11
188.36781254964299
 21
110.1206087083404
 31
0.0
  0
LINE
  5
405
  8
2
 10
228.8678127935431
 20
189.12059907419399
 30
0.0
 11
228.8678127935431
 21
188.1206087083404
 31
0.0
  0
LINE
  5
406
  8
2
 10
197.867812793545
 20
189.12060663516959
 30
0.0
 11
197.867812793545
 21
188.1206087083404
 31
0.0
  0
LINE
  5
407
  8
2
 10
88.867812549643062
 20
189.1206087083404
 30
0.0
 11
88.867812549643062
 21
188.1206087083404
 31
0.0
  0
LINE
  5
408
  8
2
 10
57.867812549643062
 20
189.1206087083404
 30
0.0
 11
57.867812549643062
 21
188.1206087083404
 31
0.0
  0
TEXT
  5
568
  8
0
 62
     3
 10
0.0
 20
0.0
 30
0.0
 40
10.0
  1
BJ130-16160A1
  7
STANDARD1
  0
ENDSEC
  0
EOF
