  0
SECTION
  2
HEADER
  9
$ACADVER
  1
AC1009
  9
$INSBASE
 10
0.0
 20
0.0
 30
0.0
  9
$EXTMIN
 10
0.0
 20
-2.960436562073669
 30
0.0
  9
$EXTMAX
 10
300.78460969082909
 20
248.0
 30
0.0
  9
$LIMMIN
 10
0.0
 20
0.0
  9
$LIMMAX
 10
375.0
 20
270.0
  9
$ORTHOMODE
 70
     1
  9
$REGENMODE
 70
     1
  9
$FILLMODE
 70
     1
  9
$QTEXTMODE
 70
     0
  9
$MIRRTEXT
 70
     0
  9
$DRAGMODE
 70
     2
  9
$LTSCALE
 40
10.0
  9
$OSMODE
 70
  3071
  9
$ATTMODE
 70
     1
  9
$TEXTSIZE
 40
0.2
  9
$TRACEWID
 40
0.05
  9
$TEXTSTYLE
  7
STANDARD
  9
$CLAYER
  8
0
  9
$CELTYPE
  6
BYLAYER
  9
$CECOLOR
 62
   256
  9
$DIMSCALE
 40
1.0
  9
$DIMASZ
 40
3.0
  9
$DIMEXO
 40
2.0
  9
$DIMDLI
 40
0.38
  9
$DIMRND
 40
0.0
  9
$DIMDLE
 40
0.0
  9
$DIMEXE
 40
2.0
  9
$DIMTP
 40
0.0
  9
$DIMTM
 40
0.0
  9
$DIMTXT
 40
3.2000000000000002
  9
$DIMCEN
 40
0.0
  9
$DIMTSZ
 40
0.0
  9
$DIMTOL
 70
     0
  9
$DIMLIM
 70
     0
  9
$DIMTIH
 70
     0
  9
$DIMTOH
 70
     0
  9
$DIMSE1
 70
     0
  9
$DIMSE2
 70
     0
  9
$DIMTAD
 70
     1
  9
$DIMZIN
 70
     0
  9
$DIMBLK
  1

  9
$DIMASO
 70
     0
  9
$DIMSHO
 70
     0
  9
$DIMPOST
  1

  9
$DIMAPOST
  1

  9
$DIMALT
 70
     0
  9
$DIMALTD
 70
     2
  9
$DIMALTF
 40
25.399999999999999
  9
$DIMLFAC
 40
1.0
  9
$DIMTOFL
 70
     1
  9
$DIMTVP
 40
1.6000000000000001
  9
$DIMTIX
 70
     1
  9
$DIMSOXD
 70
     0
  9
$DIMSAH
 70
     0
  9
$DIMBLK1
  1

  9
$DIMBLK2
  1

  9
$DIMSTYLE
  2
STANDARD
  9
$DIMCLRD
 70
     0
  9
$DIMCLRE
 70
     0
  9
$DIMCLRT
 70
     0
  9
$DIMTFAC
 40
1.0
  9
$DIMGAP
 40
0.09
  9
$LUNITS
 70
     2
  9
$LUPREC
 70
     4
  9
$SKETCHINC
 40
0.1
  9
$FILLETRAD
 40
0.0
  9
$AUNITS
 70
     0
  9
$AUPREC
 70
     4
  9
$MENU
  1
E:\r13\win\SUPPORT\ACAD
  9
$ELEVATION
 40
0.0
  9
$PELEVATION
 40
0.0
  9
$THICKNESS
 40
0.0
  9
$LIMCHECK
 70
     0
  9
$BLIPMODE
 70
     0
  9
$CHAMFERA
 40
0.0
  9
$CHAMFERB
 40
0.0
  9
$SKPOLY
 70
     0
  9
$TDCREATE
 40
2449839.6367939808
  9
$TDUPDATE
 40
2456597.6225193171
  9
$TDINDWG
 40
0.3344158565
  9
$TDUSRTIMER
 40
0.3344158565
  9
$USRTIMER
 70
     1
  9
$ANGBASE
 50
0.0
  9
$ANGDIR
 70
     0
  9
$PDMODE
 70
     0
  9
$PDSIZE
 40
0.0
  9
$PLINEWID
 40
0.0
  9
$COORDS
 70
     1
  9
$SPLFRAME
 70
     0
  9
$SPLINETYPE
 70
     6
  9
$SPLINESEGS
 70
     8
  9
$ATTDIA
 70
     0
  9
$ATTREQ
 70
     1
  9
$HANDLING
 70
     1
  9
$HANDSEED
  5
8F4
  9
$SURFTAB1
 70
     6
  9
$SURFTAB2
 70
     6
  9
$SURFTYPE
 70
     6
  9
$SURFU
 70
     6
  9
$SURFV
 70
     6
  9
$UCSNAME
  2

  9
$UCSORG
 10
0.0
 20
0.0
 30
0.0
  9
$UCSXDIR
 10
1.0
 20
0.0
 30
0.0
  9
$UCSYDIR
 10
0.0
 20
1.0
 30
0.0
  9
$PUCSNAME
  2

  9
$PUCSORG
 10
0.0
 20
0.0
 30
0.0
  9
$PUCSXDIR
 10
1.0
 20
0.0
 30
0.0
  9
$PUCSYDIR
 10
0.0
 20
1.0
 30
0.0
  9
$USERI1
 70
     0
  9
$USERI2
 70
     1
  9
$USERI3
 70
     0
  9
$USERI4
 70
     0
  9
$USERI5
 70
     0
  9
$USERR1
 40
0.0
  9
$USERR2
 40
0.0
  9
$USERR3
 40
0.0
  9
$USERR4
 40
0.0
  9
$USERR5
 40
0.0
  9
$WORLDVIEW
 70
     1
  9
$SHADEDGE
 70
     3
  9
$SHADEDIF
 70
    70
  9
$TILEMODE
 70
     1
  9
$MAXACTVP
 70
    16
  9
$PLIMCHECK
 70
     0
  9
$PEXTMIN
 10
1.0000000000000000E+020
 20
1.0000000000000000E+020
 30
1.0000000000000000E+020
  9
$PEXTMAX
 10
-1.0000000000000000E+020
 20
-1.0000000000000000E+020
 30
-1.0000000000000000E+020
  9
$PLIMMIN
 10
0.0
 20
0.0
  9
$PLIMMAX
 10
12.0
 20
9.0
  9
$UNITMODE
 70
     0
  9
$VISRETAIN
 70
     0
  9
$PLINEGEN
 70
     0
  9
$PSLTSCALE
 70
     0
  0
ENDSEC
  0
SECTION
  2
TABLES
  0
TABLE
  2
VPORT
 70
     1
  0
VPORT
  2
*ACTIVE
 70
     0
 10
0.0
 20
0.0
 11
1.0
 21
1.0
 12
195.0581083320873
 22
133.5127261426681
 13
0.0
 23
0.0
 14
10.0
 24
10.0
 15
10.0
 25
10.0
 16
0.0
 26
0.0
 36
1.0
 17
0.0
 27
0.0
 37
0.0
 40
275.42274993631997
 41
1.831871345029239
 42
50.0
 43
0.0
 44
0.0
 50
0.0
 51
0.0
 71
     0
 72
   500
 73
     1
 74
     0
 75
     0
 76
     0
 77
     0
 78
     2
  0
ENDTAB
  0
TABLE
  2
LTYPE
 70
     4
  0
LTYPE
  2
CONTINUOUS
 70
     0
  3
Solid Line
 72
    65
 73
     0
 40
0.0
  0
LTYPE
  2
CENTER
 70
     0
  3
____ _ ____ _ ____ _ ____ _ ____ _ ____ _ ____
 72
    65
 73
     4
 40
2.0
 49
1.25
 49
-0.25
 49
0.25
 49
-0.25
  0
LTYPE
  2
HIDDEN
 70
     0
  3
_ _ _ _ _ _ _ _ _ _ _ _ _ _ _ _ _ _ _ _ _ _ _
 72
    65
 73
     2
 40
0.375
 49
0.25
 49
-0.125
  0
LTYPE
  2
PHANTOM2
 70
     0
  3
___ _ _ ___ _ _ ___ _ _ ___ _ _
 72
    65
 73
     6
 40
1.25
 49
0.625
 49
-0.125
 49
0.125
 49
-0.125
 49
0.125
 49
-0.125
  0
ENDTAB
  0
TABLE
  2
LAYER
 70
     4
  0
LAYER
  2
0
 70
     0
 62
     7
  6
CONTINUOUS
  0
LAYER
  2
1
 70
     0
 62
     1
  6
CENTER
  0
LAYER
  2
2
 70
     0
 62
     2
  6
HIDDEN
  0
LAYER
  2
3
 70
     0
 62
     3
  6
CONTINUOUS
  0
ENDTAB
  0
TABLE
  2
STYLE
 70
     2
  0
STYLE
  2
STANDARD
 70
     0
 40
0.0
 41
1.0
 50
0.0
 71
     0
 42
0.2
  3
TXT
  4
BIGFONT
  0
STYLE
  2
STANDARD1
 70
     0
 40
0.0
 41
1.0
 50
0.0
 71
     0
 42
3.0
  3
txt
  4

  0
ENDTAB
  0
TABLE
  2
VIEW
 70
     1
  0
VIEW
  2
ALL
 70
     0
 40
270.0
 10
220.99159663865549
 20
135.0
 41
0.0
 11
0.0
 21
0.0
 31
1.0
 12
0.0
 22
0.0
 32
0.0
 42
0.0
 43
0.0
 44
0.0
 50
0.0
 71
     0
  0
ENDTAB
  0
TABLE
  2
UCS
 70
     0
  0
ENDTAB
  0
TABLE
  2
APPID
 70
     4
  0
APPID
  2
ACAD
 70
     0
  0
APPID
  2
ACAD_MLEADERVER
 70
     0
  0
APPID
  2
ACAD_NAV_VCDISPLAY
 70
     0
  0
APPID
  2
ACAD_EXEMPT_FROM_CAD_STANDARDS
 70
     0
  0
ENDTAB
  0
TABLE
  2
DIMSTYLE
 70
     1
  0
DIMSTYLE
  2
STANDARD
 70
     0
  3

  4

  5

  6

  7

 40
1.0
 41
0.18
 42
0.0625
 43
0.38
 44
0.18
 45
0.0
 46
0.0
 47
0.0
 48
0.0
140
0.18
141
0.09
142
0.0
143
25.399999999999999
144
1.0
145
0.0
146
1.0
147
0.09
 71
     0
 72
     0
 73
     1
 74
     1
 75
     0
 76
     0
 77
     0
 78
     0
170
     0
171
     2
172
     0
173
     0
174
     0
175
     0
176
     0
177
     0
178
     0
  0
ENDTAB
  0
ENDSEC
  0
SECTION
  2
BLOCKS
  0
BLOCK
  8
0
  2
$MODEL_SPACE
 70
     0
 10
0.0
 20
0.0
 30
0.0
  3
$MODEL_SPACE
  1

  0
ENDBLK
  5
1E5
  8
0
  0
BLOCK
 67
     1
  8
0
  2
$PAPER_SPACE
 70
     0
 10
0.0
 20
0.0
 30
0.0
  3
$PAPER_SPACE
  1

  0
ENDBLK
  5
1E3
 67
     1
  8
0
  0
ENDSEC
  0
SECTION
  2
ENTITIES
  0
ARC
  5
150
  8
0
 10
227.09400877320161
 20
210.7180639051108
 30
0.0
 40
2.0
 50
280.68734840163683
 51
348.85026652070218
  0
ARC
  5
151
  8
0
 10
227.09400877320161
 20
229.28193609488929
 30
0.0
 40
2.0
 50
11.14973347929782
 51
79.312651598363203
  0
LINE
  5
152
  8
0
 10
227.46490804943741
 20
208.75275636508351
 30
0.0
 11
193.33809348612189
 21
202.31223213975511
 31
0.0
  0
LINE
  5
153
  8
0
 10
227.46490804943741
 20
231.2472436349164
 30
0.0
 11
193.33809348612189
 21
237.68776786024489
 31
0.0
  0
ARC
  5
154
  8
0
 10
180.0
 20
220.0
 30
0.0
 40
18.0
 50
89.999999999999986
 51
270.0
  0
ARC
  5
155
  8
0
 10
190.0
 20
220.0
 30
0.0
 40
18.0
 50
270.0
 51
89.999999999999986
  0
LINE
  5
156
  8
0
 10
190.0
 20
202.0
 30
0.0
 11
180.0
 21
202.0
 31
0.0
  0
LINE
  5
157
  8
0
 10
190.00000000000011
 20
238.0
 30
0.0
 11
180.00000000000011
 21
238.0
 31
0.0
  0
ARC
  5
158
  8
0
 10
180.0
 20
220.0
 30
0.0
 40
50.0
 50
348.85026652070218
 51
11.14973347929782
  0
CIRCLE
  5
159
  8
0
 10
180.0
 20
220.0
 30
0.0
 40
13.0
  0
LINE
  5
15A
  8
0
 10
184.04145188432739
 20
227.0
 30
0.0
 11
175.95854811567261
 21
227.0
 31
0.0
  0
LINE
  5
15B
  8
0
 10
175.95854811567261
 20
227.0
 30
0.0
 11
171.91709623134531
 21
220.0
 31
0.0
  0
LINE
  5
15C
  8
0
 10
171.9170962313452
 20
220.0
 30
0.0
 11
175.95854811567261
 21
213.0
 31
0.0
  0
LINE
  5
15D
  8
0
 10
175.95854811567261
 20
213.0
 30
0.0
 11
184.04145188432739
 21
213.0
 31
0.0
  0
LINE
  5
15E
  8
0
 10
184.04145188432739
 20
213.0
 30
0.0
 11
188.08290376865469
 21
220.0
 31
0.0
  0
LINE
  5
15F
  8
0
 10
188.08290376865469
 20
220.0
 30
0.0
 11
184.04145188432739
 21
227.0
 31
0.0
  0
CIRCLE
  5
160
  8
0
 10
180.0
 20
220.0
 30
0.0
 40
12.0
  0
LINE
  5
161
  8
1
 10
180.00000000000011
 20
248.0
 30
0.0
 11
180.0
 21
192.0
 31
0.0
  0
LINE
  5
162
  8
1
 10
235.0
 20
220.0
 30
0.0
 11
152.0
 21
220.0
 31
0.0
  0
LINE
  5
2B8
  8
0
 10
84.490188162348744
 20
129.99998989086839
 30
0.0
 11
84.732052742478771
 21
129.99998989086839
 31
0.0
  0
LINE
  5
2BA
  8
0
 10
115.5098266038292
 20
129.99998989086839
 30
0.0
 11
115.26794335598341
 21
129.99998989086839
 31
0.0
  0
ARC
  5
2BB
  8
0
 10
117.1999999999997
 20
131.80000000000001
 30
0.0
 40
0.8
 50
270.0
 51
0.0
  0
LINE
  5
2BD
  8
0
 10
117.1999999999997
 20
131.0
 30
0.0
 11
82.799999999999812
 21
131.0
 31
0.0
  0
LINE
  5
2BE
  8
0
 10
82.799999999999812
 20
151.0
 30
0.0
 11
117.1999999999997
 21
151.0
 31
0.0
  0
ARC
  5
2BF
  8
0
 10
117.1999999999997
 20
131.80000000000001
 30
0.0
 40
0.8
 50
270.0
 51
0.0
  0
ARC
  5
2C0
  8
0
 10
117.1999999999997
 20
150.19999999999999
 30
0.0
 40
0.8
 50
0.0
 51
90.0
  0
LINE
  5
2C1
  8
0
 10
117.9999999999997
 20
150.19999999999999
 30
0.0
 11
117.9999999999997
 21
131.80000000000001
 31
0.0
  0
ARC
  5
2C2
  8
0
 10
82.799999999999812
 20
131.80000000000001
 30
0.0
 40
0.8
 50
180.0
 51
270.0
  0
ARC
  5
2C3
  8
0
 10
82.799999999999812
 20
150.19999999999999
 30
0.0
 40
0.8
 50
90.0
 51
180.0
  0
LINE
  5
2C4
  8
0
 10
81.999999999999744
 20
150.19999999999999
 30
0.0
 11
81.999999999999744
 21
131.80000000000001
 31
0.0
  0
LINE
  5
2C5
  8
0
 10
114.9999999999998
 20
91.999999999999929
 30
0.0
 11
84.999999999999844
 21
91.999999999999929
 31
0.0
  0
ARC
  5
2C6
  8
0
 10
82.999999999999858
 20
128.99999324221241
 30
0.0
 40
2.0
 50
0.0
 51
90.0
  0
LINE
  5
2C7
  8
0
 10
110.26794919243601
 20
166.00000000001279
 30
0.0
 11
111.9999999999998
 21
165.0000000000158
 31
0.0
  0
LINE
  5
2C8
  8
0
 10
111.9999999999998
 20
165.0000000000158
 30
0.0
 11
87.999999999999403
 21
165.0000000000158
 31
0.0
  0
LINE
  5
2C9
  8
0
 10
112.0
 20
165.0000000000158
 30
0.0
 11
111.9999999999996
 21
150.99999999999989
 31
0.0
  0
LINE
  5
2CA
  8
0
 10
110.26794919243621
 20
166.0000000000129
 30
0.0
 11
89.732050807563695
 21
166.0000000000129
 31
0.0
  0
LINE
  5
2CB
  8
0
 10
87.999999999999631
 20
165.0000000000158
 30
0.0
 11
88.000000000000085
 21
150.99999999999989
 31
0.0
  0
LINE
  5
2CC
  8
0
 10
89.732050807563695
 20
166.00000000001279
 30
0.0
 11
87.999999999999858
 21
165.0000000000158
 31
0.0
  0
LINE
  5
2CE
  8
0
 10
113.9999999999998
 20
90.999999999999943
 30
0.0
 11
85.999999999999844
 21
90.999999999999943
 31
0.0
  0
LINE
  5
2CF
  8
0
 10
114.9999999999998
 20
91.999999999999929
 30
0.0
 11
114.9999999999998
 21
129.0000000000002
 31
0.0
  0
LINE
  5
2D0
  8
0
 10
113.9999999999998
 20
90.999999999999943
 30
0.0
 11
114.9999999999998
 21
91.999999999999929
 31
0.0
  0
LINE
  5
2D1
  8
0
 10
84.999999999999844
 20
91.999999999999929
 30
0.0
 11
85.999999999999844
 21
90.999999999999943
 31
0.0
  0
LINE
  5
2D2
  8
0
 10
84.999999999999844
 20
128.99999324221241
 30
0.0
 11
84.999999999999844
 21
91.999999999999929
 31
0.0
  0
ARC
  5
2D3
  8
0
 10
116.9999999999998
 20
129.0000000000002
 30
0.0
 40
2.0
 50
90.011433185176202
 51
180.0
  0
LINE
  5
2DA
  8
0
 10
268.50944226854517
 20
91.000000000000114
 30
0.0
 11
268.50944226854517
 21
90.000000000000114
 31
0.0
  0
LINE
  5
2DB
  8
0
 10
287.99999999999977
 20
76.000000000000114
 30
0.0
 11
287.99999999999977
 21
52.000000000000107
 31
0.0
  0
LINE
  5
2DC
  8
0
 10
272.00000000000023
 20
76.000000000000114
 30
0.0
 11
272.00000000000023
 21
52.000000000000107
 31
0.0
  0
LINE
  5
2DD
  8
0
 10
272.00000000000023
 20
52.000000000000568
 30
0.0
 11
287.99999999999949
 21
52.0
 31
0.0
  0
LINE
  5
2DE
  8
0
 10
273.50000000000011
 20
80.000000000000114
 30
0.0
 11
273.50000000000011
 21
76.000000000000114
 31
0.0
  0
LINE
  5
2DF
  8
3
 10
273.00000000000023
 20
76.000000000000455
 30
0.0
 11
273.00000000000023
 21
51.0
 31
0.0
  0
LINE
  5
2E0
  8
0
 10
274.00000000000023
 20
50.000000000000107
 30
0.0
 11
272.00000000000023
 21
52.000000000000107
 31
0.0
  0
LINE
  5
2E1
  8
0
 10
287.99999999999977
 20
76.000000000000114
 30
0.0
 11
272.00000000000023
 21
76.000000000000114
 31
0.0
  0
LINE
  5
2E2
  8
0
 10
285.99999999999977
 20
50.000000000000107
 30
0.0
 11
287.99999999999977
 21
52.000000000000107
 31
0.0
  0
LINE
  5
2E3
  8
0
 10
274.00000000000023
 20
50.000000000000107
 30
0.0
 11
285.99999999999977
 21
50.000000000000107
 31
0.0
  0
LINE
  5
2E4
  8
3
 10
286.99999999999977
 20
76.000000000000568
 30
0.0
 11
286.99999999999977
 21
51.0
 31
0.0
  0
LINE
  5
2E5
  8
0
 10
286.49999999999989
 20
80.000000000000114
 30
0.0
 11
286.49999999999977
 21
76.000000000000114
 31
0.0
  0
LINE
  5
2E6
  8
1
 10
280.0
 20
176.0000000000129
 30
0.0
 11
280.0
 21
40.000000000000107
 31
0.0
  0
LINE
  5
301
  8
0
 10
291.50944226854511
 20
91.000000000000114
 30
0.0
 11
291.50944226854517
 21
90.000000000000114
 31
0.0
  0
LINE
  5
311
  8
0
 10
290.93324745901242
 20
145.11286321896549
 30
0.0
 11
297.19999999999999
 21
150.2000000000001
 31
0.0
  0
LINE
  5
312
  8
0
 10
269.06675254098769
 20
145.11286321896549
 30
0.0
 11
262.80000000000013
 21
150.2000000000001
 31
0.0
  0
ARC
  5
313
  8
0
 10
269.86675254098759
 20
144.3128632189655
 30
0.0
 40
0.8
 50
90.0
 51
180.0
  0
ARC
  5
314
  8
0
 10
290.13324745901241
 20
144.3128632189655
 30
0.0
 40
0.8
 50
0.0
 51
90.0
  0
ARC
  5
315
  8
0
 10
290.1332474590123
 20
130.7999898908684
 30
0.0
 40
0.8
 50
270.0
 51
0.0
  0
ARC
  5
316
  8
0
 10
269.8667525409877
 20
130.7999898908684
 30
0.0
 40
0.8
 50
180.0
 51
270.0
  0
LINE
  5
317
  8
0
 10
290.13324745901241
 20
145.11286321896549
 30
0.0
 11
269.86675254098759
 21
145.11286321896549
 31
0.0
  0
LINE
  5
318
  8
0
 10
290.93324745901242
 20
130.7999898908684
 30
0.0
 11
290.93324745901242
 21
144.3128632189655
 31
0.0
  0
LINE
  5
319
  8
0
 10
269.06675254098758
 20
144.3128632189655
 30
0.0
 11
269.06675254098758
 21
130.7999898908684
 31
0.0
  0
LINE
  5
31A
  8
0
 10
263.6175856066518
 20
129.99998989086851
 30
0.0
 11
263.31870385243849
 21
131.00000000000011
 31
0.0
  0
LINE
  5
31B
  8
0
 10
296.68129614756151
 20
131.0000000000002
 30
0.0
 11
297.19999999999987
 21
131.00000000000011
 31
0.0
  0
LINE
  5
31C
  8
0
 10
296.3824143933482
 20
129.99998989086851
 30
0.0
 11
296.68129614756151
 21
131.00000000000011
 31
0.0
  0
LINE
  5
31D
  8
0
 10
263.6175856066518
 20
129.99998989086851
 30
0.0
 11
296.3824143933482
 21
129.99998989086851
 31
0.0
  0
LINE
  5
31E
  8
0
 10
262.80000000000018
 20
131.00000000000011
 30
0.0
 11
263.31870385243849
 21
131.0000000000002
 31
0.0
  0
LINE
  5
31F
  8
0
 10
297.19999999999999
 20
151.00000000000011
 30
0.0
 11
262.80000000000013
 21
151.00000000000011
 31
0.0
  0
ARC
  5
320
  8
0
 10
262.80000000000013
 20
131.80000000000021
 30
0.0
 40
0.8
 50
180.0
 51
270.0
  0
ARC
  5
321
  8
0
 10
262.80000000000013
 20
150.2000000000001
 30
0.0
 40
0.8
 50
90.0
 51
180.0
  0
LINE
  5
322
  8
0
 10
262.0
 20
150.2000000000001
 30
0.0
 11
262.0
 21
131.80000000000021
 31
0.0
  0
ARC
  5
323
  8
0
 10
297.19999999999987
 20
131.80000000000021
 30
0.0
 40
0.8
 50
270.0
 51
0.0
  0
ARC
  5
324
  8
0
 10
297.19999999999999
 20
150.2000000000001
 30
0.0
 40
0.8
 50
0.0
 51
90.0
  0
LINE
  5
325
  8
0
 10
298.0
 20
150.2000000000001
 30
0.0
 11
298.0
 21
131.80000000000021
 31
0.0
  0
LINE
  5
326
  8
0
 10
295.0
 20
92.000000000000114
 30
0.0
 11
265.0
 21
92.000000000000114
 31
0.0
  0
ARC
  5
327
  8
0
 10
263.0
 20
128.9999932422125
 30
0.0
 40
2.0
 50
0.0
 51
29.999889138275961
  0
LINE
  5
328
  8
0
 10
290.26794919243622
 20
166.0000000000129
 30
0.0
 11
292.00000000000011
 21
165.000000000016
 31
0.0
  0
LINE
  5
329
  8
0
 10
292.00000000000011
 20
165.000000000016
 30
0.0
 11
267.9999999999996
 21
165.000000000016
 31
0.0
  0
LINE
  5
32A
  8
0
 10
292.00000000000028
 20
165.000000000016
 30
0.0
 11
291.99999999999977
 21
151.00000000000011
 31
0.0
  0
LINE
  5
32B
  8
0
 10
290.26794919243639
 20
166.00000000001299
 30
0.0
 11
269.73205080756389
 21
166.00000000001299
 31
0.0
  0
LINE
  5
32C
  8
0
 10
267.99999999999977
 20
165.000000000016
 30
0.0
 11
268.00000000000028
 21
151.00000000000011
 31
0.0
  0
LINE
  5
32D
  8
0
 10
269.73205080756389
 20
166.0000000000129
 30
0.0
 11
268.00000000000011
 21
165.000000000016
 31
0.0
  0
LINE
  5
32F
  8
0
 10
294.0
 20
91.000000000000114
 30
0.0
 11
266.0
 21
91.000000000000114
 31
0.0
  0
LINE
  5
330
  8
0
 10
295.0
 20
92.000000000000114
 30
0.0
 11
295.0
 21
129.00000000000031
 31
0.0
  0
LINE
  5
331
  8
0
 10
294.0
 20
91.000000000000114
 30
0.0
 11
295.0
 21
92.000000000000114
 31
0.0
  0
LINE
  5
332
  8
0
 10
265.0
 20
92.000000000000114
 30
0.0
 11
266.0
 21
91.000000000000114
 31
0.0
  0
LINE
  5
333
  8
0
 10
265.0
 20
128.9999932422125
 30
0.0
 11
265.0
 21
92.000000000000114
 31
0.0
  0
ARC
  5
334
  8
0
 10
297.0
 20
129.00000000000031
 30
0.0
 40
2.0
 50
150.00033440649511
 51
180.0
  0
LINE
  5
342
  8
0
 10
191.5094422685452
 20
91.000000000000114
 30
0.0
 11
191.5094422685452
 21
90.0
 31
0.0
  0
LINE
  5
343
  8
0
 10
168.5094422685452
 20
91.000000000000114
 30
0.0
 11
168.5094422685452
 21
90.0
 31
0.0
  0
LINE
  5
344
  8
0
 10
187.99999999999969
 20
76.0
 30
0.0
 11
187.99999999999969
 21
52.0
 31
0.0
  0
LINE
  5
345
  8
0
 10
172.0000000000002
 20
76.0
 30
0.0
 11
172.0000000000002
 21
52.0
 31
0.0
  0
LINE
  5
346
  8
0
 10
172.0000000000002
 20
52.000000000000448
 30
0.0
 11
187.99999999999949
 21
51.999999999999879
 31
0.0
  0
LINE
  5
347
  8
0
 10
173.50000000000011
 20
80.0
 30
0.0
 11
173.50000000000011
 21
76.0
 31
0.0
  0
LINE
  5
348
  8
3
 10
173.0000000000002
 20
76.000000000000398
 30
0.0
 11
173.0000000000002
 21
50.999999999999879
 31
0.0
  0
LINE
  5
349
  8
0
 10
174.0000000000002
 20
50.0
 30
0.0
 11
172.0000000000002
 21
52.0
 31
0.0
  0
LINE
  5
34A
  8
0
 10
187.99999999999969
 20
76.0
 30
0.0
 11
172.0000000000002
 21
76.0
 31
0.0
  0
LINE
  5
34B
  8
0
 10
185.99999999999969
 20
50.0
 30
0.0
 11
187.99999999999969
 21
52.0
 31
0.0
  0
LINE
  5
34C
  8
0
 10
174.0000000000002
 20
50.0
 30
0.0
 11
185.99999999999969
 21
50.0
 31
0.0
  0
LINE
  5
34D
  8
3
 10
186.99999999999969
 20
76.000000000000455
 30
0.0
 11
186.99999999999969
 21
50.999999999999879
 31
0.0
  0
LINE
  5
34E
  8
0
 10
186.49999999999989
 20
80.0
 30
0.0
 11
186.4999999999998
 21
76.0
 31
0.0
  0
LINE
  5
34F
  8
1
 10
180.0
 20
176.0000000000129
 30
0.0
 11
180.0
 21
40.0
 31
0.0
  0
ARC
  5
361
  8
0
 10
197.0
 20
129.0000000000002
 30
0.0
 40
2.0
 50
90.011433185176202
 51
180.0
  0
LINE
  5
362
  8
0
 10
165.0
 20
128.99999324221241
 30
0.0
 11
165.0
 21
92.0
 31
0.0
  0
ARC
  5
364
  8
0
 10
228.0
 20
131.99998002188451
 30
0.0
 40
2.0
 50
270.0
 51
359.99999999999977
  0
LINE
  5
365
  8
0
 10
165.0
 20
92.0
 30
0.0
 11
166.0
 21
91.0
 31
0.0
  0
LINE
  5
366
  8
0
 10
194.0
 20
91.0
 30
0.0
 11
195.0
 21
92.0
 31
0.0
  0
ARC
  5
367
  8
0
 10
162.80944226854521
 20
150.19999999999999
 30
0.0
 40
0.8
 50
90.0
 51
180.0
  0
ARC
  5
368
  8
0
 10
228.00000000000011
 20
143.57046379055751
 30
0.0
 40
2.0
 50
359.99999999999977
 51
74.999999999998892
  0
LINE
  5
369
  8
0
 10
230.00000000000011
 20
143.57046379055751
 30
0.0
 11
230.0
 21
131.99998002188451
 31
0.0
  0
LINE
  5
36A
  8
0
 10
208.00000000000011
 20
151.00000000000011
 30
0.0
 11
228.51763809020511
 21
145.5023154431355
 31
0.0
  0
LINE
  5
36B
  8
0
 10
195.0
 20
92.0
 30
0.0
 11
195.0
 21
129.0000000000002
 31
0.0
  0
LINE
  5
36C
  8
0
 10
162.0094422685452
 20
150.19999999999999
 30
0.0
 11
162.0094422685452
 21
131.79999324221239
 31
0.0
  0
LINE
  5
36D
  8
0
 10
194.0
 20
91.0
 30
0.0
 11
166.0
 21
91.0
 31
0.0
  0
LINE
  5
36E
  8
0
 10
228.0
 20
129.99998002188451
 30
0.0
 11
201.8360991793206
 21
129.99998002188451
 31
0.0
  0
LINE
  5
36F
  8
0
 10
201.8360991793206
 20
129.99998002188451
 30
0.0
 11
200.4494236475476
 21
130.99999732321771
 31
0.0
  0
LINE
  5
370
  8
0
 10
200.4494236475476
 20
130.99999324221241
 30
0.0
 11
162.80944226854521
 21
130.99999324221241
 31
0.0
  0
LINE
  5
371
  8
0
 10
169.73205080756381
 20
166.00000000001279
 30
0.0
 11
168.0
 21
165.00000000001589
 31
0.0
  0
LINE
  5
372
  8
0
 10
167.99999999999969
 20
165.00000000001589
 30
0.0
 11
168.0000000000002
 21
151.0
 31
0.0
  0
LINE
  5
373
  8
0
 10
190.26794919243639
 20
166.0000000000129
 30
0.0
 11
169.73205080756381
 21
166.0000000000129
 31
0.0
  0
LINE
  5
374
  8
0
 10
192.0000000000002
 20
165.00000000001589
 30
0.0
 11
191.99999999999969
 21
151.0
 31
0.0
  0
LINE
  5
375
  8
0
 10
192.0
 20
165.00000000001589
 30
0.0
 11
167.99999999999949
 21
165.00000000001589
 31
0.0
  0
LINE
  5
376
  8
0
 10
190.26794919243611
 20
166.00000000001279
 30
0.0
 11
192.0
 21
165.00000000001589
 31
0.0
  0
LINE
  5
377
  8
0
 10
162.80944226854521
 20
151.00000000000011
 30
0.0
 11
208.00000000000011
 21
151.00000000000011
 31
0.0
  0
ARC
  5
378
  8
0
 10
162.80944226854521
 20
131.79999324221239
 30
0.0
 40
0.8
 50
180.0
 51
270.0
  0
ARC
  5
379
  8
0
 10
163.0
 20
128.99999324221241
 30
0.0
 40
2.0
 50
0.0
 51
90.0
  0
LINE
  5
37A
  8
0
 10
195.0
 20
92.0
 30
0.0
 11
165.0
 21
92.0
 31
0.0
  0
LINE
  5
65C
  8
1
 10
100.0
 20
176.0000000000129
 30
0.0
 11
100.0
 21
40.0
 31
0.0
  0
LINE
  5
65D
  8
0
 10
106.4999999999999
 20
80.0
 30
0.0
 11
106.4999999999998
 21
76.0
 31
0.0
  0
LINE
  5
65E
  8
3
 10
106.9999999999998
 20
76.000000000000455
 30
0.0
 11
106.9999999999998
 21
50.999999999999879
 31
0.0
  0
LINE
  5
65F
  8
0
 10
94.000000000000227
 20
50.0
 30
0.0
 11
105.9999999999998
 21
50.0
 31
0.0
  0
LINE
  5
660
  8
0
 10
105.9999999999998
 20
50.0
 30
0.0
 11
107.9999999999998
 21
52.0
 31
0.0
  0
LINE
  5
661
  8
0
 10
107.9999999999998
 20
76.0
 30
0.0
 11
92.000000000000213
 21
76.0
 31
0.0
  0
LINE
  5
662
  8
0
 10
94.000000000000227
 20
50.0
 30
0.0
 11
92.000000000000213
 21
52.0
 31
0.0
  0
LINE
  5
663
  8
3
 10
93.000000000000227
 20
76.000000000000398
 30
0.0
 11
93.000000000000227
 21
50.999999999999879
 31
0.0
  0
LINE
  5
664
  8
0
 10
93.500000000000171
 20
80.0
 30
0.0
 11
93.500000000000171
 21
76.0
 31
0.0
  0
LINE
  5
665
  8
0
 10
92.000000000000213
 20
52.000000000000448
 30
0.0
 11
107.9999999999995
 21
51.999999999999879
 31
0.0
  0
LINE
  5
666
  8
0
 10
92.000000000000213
 20
76.0
 30
0.0
 11
92.000000000000213
 21
52.0
 31
0.0
  0
LINE
  5
667
  8
0
 10
107.9999999999998
 20
76.0
 30
0.0
 11
107.9999999999998
 21
52.0
 31
0.0
  0
LINE
  5
668
  8
0
 10
88.509442268545257
 20
90.999999999999943
 30
0.0
 11
88.509442268545257
 21
90.0
 31
0.0
  0
LINE
  5
669
  8
0
 10
111.5094422685452
 20
90.999999999999943
 30
0.0
 11
111.5094422685452
 21
90.0
 31
0.0
  0
CIRCLE
  5
682
  8
0
 10
83.350007383088951
 20
129.85003059436929
 30
0.0
 40
1.149999999999999
  0
CIRCLE
  5
683
  8
0
 10
83.350007383088951
 20
91.150030594369227
 30
0.0
 40
1.149999999999999
  0
LINE
  5
684
  8
3
 10
84.500007383088985
 20
129.85003059436929
 30
0.0
 11
84.500007383088985
 21
91.150030594369227
 31
0.0
  0
LINE
  5
685
  8
3
 10
82.200007383088973
 20
129.85003059436929
 30
0.0
 11
82.200007383088973
 21
91.150030594369227
 31
0.0
  0
CIRCLE
  5
690
  8
0
 10
163.35000738308889
 20
129.85003059436929
 30
0.0
 40
1.149999999999999
  0
CIRCLE
  5
691
  8
0
 10
163.35000738308889
 20
91.150030594369227
 30
0.0
 40
1.149999999999999
  0
LINE
  5
692
  8
3
 10
164.50000738308901
 20
129.85003059436929
 30
0.0
 11
164.50000738308901
 21
91.150030594369227
 31
0.0
  0
LINE
  5
693
  8
3
 10
162.20000738308889
 20
129.85003059436929
 30
0.0
 11
162.20000738308889
 21
91.150030594369227
 31
0.0
  0
ARC
  5
69E
  8
0
 10
263.35000738308901
 20
129.8500305943694
 30
0.0
 40
1.149999999999999
 50
91.553965699046287
 51
7.4926720376815332
  0
CIRCLE
  5
69F
  8
0
 10
263.35000738308901
 20
91.150030594369355
 30
0.0
 40
1.149999999999999
  0
LINE
  5
6A0
  8
3
 10
264.50000738308898
 20
129.8500305943694
 30
0.0
 11
264.50000738308898
 21
91.150030594369355
 31
0.0
  0
LINE
  5
6A1
  8
3
 10
262.20000738308897
 20
129.8500305943694
 30
0.0
 11
262.20000738308897
 21
91.150030594369355
 31
0.0
  0
CIRCLE
  5
6AC
  8
0
 10
116.65000738308891
 20
129.85003059436929
 30
0.0
 40
1.149999999999999
  0
CIRCLE
  5
6AD
  8
0
 10
116.65000738308891
 20
91.150030594369227
 30
0.0
 40
1.149999999999999
  0
LINE
  5
6AE
  8
3
 10
117.800007383089
 20
129.85003059436929
 30
0.0
 11
117.800007383089
 21
91.150030594369227
 31
0.0
  0
LINE
  5
6AF
  8
3
 10
115.500007383089
 20
129.85003059436929
 30
0.0
 11
115.500007383089
 21
91.150030594369227
 31
0.0
  0
CIRCLE
  5
6BA
  8
0
 10
196.65000738308891
 20
129.85003059436929
 30
0.0
 40
1.149999999999999
  0
CIRCLE
  5
6BB
  8
0
 10
196.65000738308891
 20
91.150030594369227
 30
0.0
 40
1.149999999999999
  0
LINE
  5
6BC
  8
3
 10
197.800007383089
 20
129.85003059436929
 30
0.0
 11
197.800007383089
 21
91.150030594369227
 31
0.0
  0
LINE
  5
6BD
  8
3
 10
195.50000738308901
 20
129.85003059436929
 30
0.0
 11
195.50000738308901
 21
91.150030594369227
 31
0.0
  0
ARC
  5
6C8
  8
0
 10
296.65000738308902
 20
129.8500305943694
 30
0.0
 40
1.149999999999999
 50
172.50732796231841
 51
88.446764340308974
  0
CIRCLE
  5
6C9
  8
0
 10
296.65000738308902
 20
91.150030594369355
 30
0.0
 40
1.149999999999999
  0
LINE
  5
6CA
  8
3
 10
297.800007383089
 20
129.8500305943694
 30
0.0
 11
297.800007383089
 21
91.150030594369355
 31
0.0
  0
LINE
  5
6CB
  8
3
 10
295.50000738308898
 20
129.8500305943694
 30
0.0
 11
295.50000738308898
 21
91.150030594369355
 31
0.0
  0
LINE
  5
715
  8
0
 10
197.99997606296219
 20
89.422649730810875
 30
0.0
 11
197.999976062965
 21
80.577355993643394
 31
0.0
  0
LINE
  5
716
  8
0
 10
196.99997687859991
 20
80.000006195360768
 30
0.0
 11
197.999976062965
 21
80.577355993643394
 31
0.0
  0
LINE
  5
717
  8
0
 10
197.99997606296489
 20
89.422649730810633
 30
0.0
 11
196.99997606296489
 21
90.000000000000298
 31
0.0
  0
ARC
  5
718
  8
0
 10
188.9999880314821
 20
106.5721482749791
 30
0.0
 40
25.99479228133541
 50
249.74354617877441
 51
290.25645382122559
  0
ARC
  5
719
  8
0
 10
188.9999880314821
 20
63.427857449475162
 30
0.0
 40
25.99479228133541
 50
69.743546178774409
 51
110.25645382122561
  0
LINE
  5
71B
  8
0
 10
163.00002393703571
 20
90.000000000000298
 30
0.0
 11
196.99997606296529
 21
90.000000000000071
 31
0.0
  0
LINE
  5
71C
  8
0
 10
163.0000231214008
 20
80.000006195360768
 30
0.0
 11
196.99997687860139
 21
80.000006195361678
 31
0.0
  0
LINE
  5
71D
  8
0
 10
162.00002393703841
 20
89.422649730810875
 30
0.0
 11
162.00002393703559
 21
80.577355993643394
 31
0.0
  0
LINE
  5
71E
  8
0
 10
163.0000231214008
 20
80.000006195360768
 30
0.0
 11
162.00002393703559
 21
80.577355993643394
 31
0.0
  0
LINE
  5
71F
  8
0
 10
162.00002393703571
 20
89.422649730810633
 30
0.0
 11
163.00002393703571
 21
90.000000000000298
 31
0.0
  0
ARC
  5
720
  8
0
 10
171.00001196851861
 20
106.5721482749791
 30
0.0
 40
25.99479228133541
 50
249.74354617877441
 51
290.25645382122559
  0
ARC
  5
721
  8
0
 10
171.00001196851861
 20
63.427857449475162
 30
0.0
 40
25.99479228133541
 50
69.743546178774409
 51
110.25645382122561
  0
LINE
  5
73E
  8
0
 10
120.7846096908262
 20
89.422649730810846
 30
0.0
 11
120.7846096908291
 21
80.57735599364338
 31
0.0
  0
LINE
  5
73F
  8
0
 10
119.78461050646391
 20
80.000006195360754
 30
0.0
 11
120.7846096908291
 21
80.57735599364338
 31
0.0
  0
LINE
  5
740
  8
0
 10
120.784609690829
 20
89.422649730810633
 30
0.0
 11
119.784609690829
 21
90.000000000000284
 31
0.0
  0
ARC
  5
741
  8
0
 10
100.00000000001489
 20
55.633678047078732
 30
0.0
 40
33.817645594469219
 50
72.103155493181177
 51
107.8968445068632
  0
LINE
  5
742
  8
0
 10
80.215390309170445
 20
90.000000000000313
 30
0.0
 11
119.7846096908294
 21
90.000000000000057
 31
0.0
  0
LINE
  5
743
  8
0
 10
80.215389493535497
 20
80.000006195360754
 30
0.0
 11
119.7846105064657
 21
80.00000619536182
 31
0.0
  0
LINE
  5
744
  8
0
 10
79.215390309173188
 20
89.422649730810846
 30
0.0
 11
79.215390309170346
 21
80.57735599364338
 31
0.0
  0
LINE
  5
745
  8
0
 10
80.215389493535497
 20
80.000006195360754
 30
0.0
 11
79.215390309170346
 21
80.57735599364338
 31
0.0
  0
LINE
  5
746
  8
0
 10
79.215390309170445
 20
89.422649730810633
 30
0.0
 11
80.215390309170445
 21
90.000000000000284
 31
0.0
  0
ARC
  5
747
  8
0
 10
84.411542731861005
 20
80.221790973297786
 30
0.0
 40
9.2008587575128171
 50
55.615313028607773
 51
124.3846869713922
  0
ARC
  5
748
  8
0
 10
115.5884572681389
 20
80.221790973298695
 30
0.0
 40
9.2008587575128171
 50
55.61531302861183
 51
124.38468697139599
  0
ARC
  5
749
  8
0
 10
100.00000000001489
 20
114.36632767737549
 30
0.0
 40
33.817645594469219
 50
252.1031554931368
 51
287.89684450681881
  0
ARC
  5
74A
  8
0
 10
84.411542731861005
 20
89.778214751156455
 30
0.0
 40
9.2008587575128171
 50
235.61531302860769
 51
304.38468697139223
  0
ARC
  5
74B
  8
0
 10
115.5884572681389
 20
89.778214751155545
 30
0.0
 40
9.2008587575128171
 50
235.61531302860391
 51
304.38468697138819
  0
LINE
  5
74C
  8
0
 10
89.607695154548836
 20
87.814932739121446
 30
0.0
 11
89.607695154590999
 21
82.185072985351724
 31
0.0
  0
LINE
  5
74D
  8
0
 10
110.39230484545079
 20
87.814932739120394
 30
0.0
 11
110.39230484540811
 21
82.185072985350672
 31
0.0
  0
LINE
  5
768
  8
0
 10
300.78460969082619
 20
89.422649730810846
 30
0.0
 11
300.78460969082909
 21
80.57735599364338
 31
0.0
  0
LINE
  5
769
  8
0
 10
299.78461050646388
 20
80.000006195360754
 30
0.0
 11
300.78460969082909
 21
80.57735599364338
 31
0.0
  0
LINE
  5
76A
  8
0
 10
300.78460969082897
 20
89.422649730810633
 30
0.0
 11
299.78460969082897
 21
90.000000000000284
 31
0.0
  0
ARC
  5
76B
  8
0
 10
280.00000000001489
 20
55.633678047078732
 30
0.0
 40
33.817645594469219
 50
72.103155493181177
 51
107.8968445068632
  0
LINE
  5
76C
  8
0
 10
260.2153903091704
 20
90.000000000000313
 30
0.0
 11
299.78460969082943
 21
90.000000000000057
 31
0.0
  0
LINE
  5
76D
  8
0
 10
260.2153894935355
 20
80.000006195360754
 30
0.0
 11
299.7846105064657
 21
80.000006195361806
 31
0.0
  0
LINE
  5
76E
  8
0
 10
259.21539030917319
 20
89.422649730810846
 30
0.0
 11
259.21539030917029
 21
80.57735599364338
 31
0.0
  0
LINE
  5
76F
  8
0
 10
260.2153894935355
 20
80.000006195360754
 30
0.0
 11
259.21539030917029
 21
80.57735599364338
 31
0.0
  0
LINE
  5
770
  8
0
 10
259.21539030917052
 20
89.422649730810633
 30
0.0
 11
260.2153903091704
 21
90.000000000000284
 31
0.0
  0
ARC
  5
771
  8
0
 10
264.411542731861
 20
80.221790973297786
 30
0.0
 40
9.2008587575128171
 50
55.615313028607773
 51
124.3846869713922
  0
ARC
  5
772
  8
0
 10
295.58845726813888
 20
80.221790973298695
 30
0.0
 40
9.2008587575128171
 50
55.61531302861183
 51
124.38468697139599
  0
ARC
  5
773
  8
0
 10
280.00000000001489
 20
114.36632767737549
 30
0.0
 40
33.817645594469219
 50
252.1031554931368
 51
287.89684450681881
  0
ARC
  5
774
  8
0
 10
264.411542731861
 20
89.778214751156455
 30
0.0
 40
9.2008587575128171
 50
235.61531302860769
 51
304.38468697139223
  0
ARC
  5
775
  8
0
 10
295.58845726813888
 20
89.778214751155545
 30
0.0
 40
9.2008587575128171
 50
235.61531302860391
 51
304.38468697138819
  0
LINE
  5
776
  8
0
 10
269.60769515454882
 20
87.814932739121446
 30
0.0
 11
269.607695154591
 21
82.185072985351724
 31
0.0
  0
LINE
  5
777
  8
0
 10
290.39230484545078
 20
87.814932739120394
 30
0.0
 11
290.39230484540809
 21
82.185072985350672
 31
0.0
  0
LINE
  5
7C8
  8
0
 10
162.0
 20
230.39230484541329
 30
0.0
 11
162.0
 21
209.60769515458671
 31
0.0
  0
LINE
  5
7C9
  8
0
 10
162.0
 20
209.60769515458671
 30
0.0
 11
180.0
 21
199.21539030917339
 31
0.0
  0
LINE
  5
7CA
  8
2
 10
184.82308546376021
 20
202.0
 30
0.0
 11
198.0
 21
209.60769515458671
 31
0.0
  0
LINE
  5
7CB
  8
2
 10
198.0
 20
209.60769515458671
 30
0.0
 11
198.00000000000011
 21
230.39230484541329
 31
0.0
  0
LINE
  5
7CC
  8
2
 10
198.00000000000011
 20
230.39230484541329
 30
0.0
 11
184.82308546376041
 21
238.0
 31
0.0
  0
LINE
  5
7CD
  8
0
 10
180.00000000000011
 20
240.78460969082661
 30
0.0
 11
162.0
 21
230.39230484541329
 31
0.0
  0
LINE
  5
7D0
  8
0
 10
180.00000000000011
 20
240.78460969082661
 30
0.0
 11
185.00000000000011
 21
238.0
 31
0.0
  0
LINE
  5
7D1
  8
0
 10
180.0
 20
199.21539030917339
 30
0.0
 11
185.0
 21
202.0
 31
0.0
  0
LINE
  5
7F1
  8
0
 10
180.00000000000489
 20
87.814932739121474
 30
0.0
 11
179.99999999999571
 21
82.185072985332852
 31
0.0
  0
TEXT
  5
89C
  8
0
 62
     3
 10
0.0
 20
0.0
 30
0.0
 40
10.0
  1
BJ131-16050
  7
STANDARD1
  0
ENDSEC
  0
EOF
