  0
SECTION
  2
HEADER
  9
$ACADVER
  1
AC1009
  9
$INSBASE
 10
82.638099999999994
 20
103.82319099999999
 30
0.0
  9
$EXTMIN
 10
0.0
 20
-2.960436562073669
 30
0.0
  9
$EXTMAX
 10
209.88852027320931
 20
171.20545527704331
 30
0.0
  9
$LIMMIN
 10
0.0
 20
0.0
  9
$LIMMAX
 10
375.0
 20
270.0
  9
$ORTHOMODE
 70
     1
  9
$REGENMODE
 70
     1
  9
$FILLMODE
 70
     1
  9
$QTEXTMODE
 70
     0
  9
$MIRRTEXT
 70
     0
  9
$DRAGMODE
 70
     2
  9
$LTSCALE
 40
10.0
  9
$OSMODE
 70
  3071
  9
$ATTMODE
 70
     1
  9
$TEXTSIZE
 40
0.06
  9
$TRACEWID
 40
0.05
  9
$TEXTSTYLE
  7
STANDARD
  9
$CLAYER
  8
0
  9
$CELTYPE
  6
BYLAYER
  9
$CECOLOR
 62
   256
  9
$DIMSCALE
 40
1.0
  9
$DIMASZ
 40
3.0
  9
$DIMEXO
 40
2.0
  9
$DIMDLI
 40
10.0
  9
$DIMRND
 40
0.0
  9
$DIMDLE
 40
0.0
  9
$DIMEXE
 40
2.0
  9
$DIMTP
 40
0.0
  9
$DIMTM
 40
0.0
  9
$DIMTXT
 40
3.0
  9
$DIMCEN
 40
0.0
  9
$DIMTSZ
 40
0.0
  9
$DIMTOL
 70
     0
  9
$DIMLIM
 70
     0
  9
$DIMTIH
 70
     0
  9
$DIMTOH
 70
     0
  9
$DIMSE1
 70
     0
  9
$DIMSE2
 70
     0
  9
$DIMTAD
 70
     1
  9
$DIMZIN
 70
     0
  9
$DIMBLK
  1

  9
$DIMASO
 70
     0
  9
$DIMSHO
 70
     0
  9
$DIMPOST
  1

  9
$DIMAPOST
  1

  9
$DIMALT
 70
     0
  9
$DIMALTD
 70
     2
  9
$DIMALTF
 40
25.399999999999999
  9
$DIMLFAC
 40
1.0
  9
$DIMTOFL
 70
     1
  9
$DIMTVP
 40
1.6000000000000001
  9
$DIMTIX
 70
     1
  9
$DIMSOXD
 70
     0
  9
$DIMSAH
 70
     0
  9
$DIMBLK1
  1

  9
$DIMBLK2
  1

  9
$DIMSTYLE
  2
STANDARD
  9
$DIMCLRD
 70
     0
  9
$DIMCLRE
 70
     0
  9
$DIMCLRT
 70
     0
  9
$DIMTFAC
 40
1.0
  9
$DIMGAP
 40
0.09
  9
$LUNITS
 70
     2
  9
$LUPREC
 70
     4
  9
$SKETCHINC
 40
0.1
  9
$FILLETRAD
 40
0.0
  9
$AUNITS
 70
     0
  9
$AUPREC
 70
     4
  9
$MENU
  1
E:\r13\win\SUPPORT\ACAD
  9
$ELEVATION
 40
0.0
  9
$PELEVATION
 40
0.0
  9
$THICKNESS
 40
0.0
  9
$LIMCHECK
 70
     0
  9
$BLIPMODE
 70
     0
  9
$CHAMFERA
 40
0.0
  9
$CHAMFERB
 40
0.0
  9
$SKPOLY
 70
     0
  9
$TDCREATE
 40
2449840.3466087962
  9
$TDUPDATE
 40
2456597.6344858338
  9
$TDINDWG
 40
0.0283607176
  9
$TDUSRTIMER
 40
0.0283607176
  9
$USRTIMER
 70
     1
  9
$ANGBASE
 50
0.0
  9
$ANGDIR
 70
     0
  9
$PDMODE
 70
     1
  9
$PDSIZE
 40
0.0
  9
$PLINEWID
 40
0.0
  9
$COORDS
 70
     1
  9
$SPLFRAME
 70
     0
  9
$SPLINETYPE
 70
     6
  9
$SPLINESEGS
 70
     8
  9
$ATTDIA
 70
     0
  9
$ATTREQ
 70
     1
  9
$HANDLING
 70
     1
  9
$HANDSEED
  5
6B6
  9
$SURFTAB1
 70
     6
  9
$SURFTAB2
 70
     6
  9
$SURFTYPE
 70
     6
  9
$SURFU
 70
     6
  9
$SURFV
 70
     6
  9
$UCSNAME
  2

  9
$UCSORG
 10
0.0
 20
0.0
 30
0.0
  9
$UCSXDIR
 10
1.0
 20
0.0
 30
0.0
  9
$UCSYDIR
 10
0.0
 20
1.0
 30
0.0
  9
$PUCSNAME
  2

  9
$PUCSORG
 10
0.0
 20
0.0
 30
0.0
  9
$PUCSXDIR
 10
1.0
 20
0.0
 30
0.0
  9
$PUCSYDIR
 10
0.0
 20
1.0
 30
0.0
  9
$USERI1
 70
     3
  9
$USERI2
 70
     1
  9
$USERI3
 70
     0
  9
$USERI4
 70
     0
  9
$USERI5
 70
     0
  9
$USERR1
 40
1.0
  9
$USERR2
 40
3.0
  9
$USERR3
 40
3.0
  9
$USERR4
 40
3.0
  9
$USERR5
 40
10.0
  9
$WORLDVIEW
 70
     1
  9
$SHADEDGE
 70
     3
  9
$SHADEDIF
 70
    70
  9
$TILEMODE
 70
     1
  9
$MAXACTVP
 70
    16
  9
$PLIMCHECK
 70
     0
  9
$PEXTMIN
 10
1.0000000000000000E+020
 20
1.0000000000000000E+020
 30
1.0000000000000000E+020
  9
$PEXTMAX
 10
-1.0000000000000000E+020
 20
-1.0000000000000000E+020
 30
-1.0000000000000000E+020
  9
$PLIMMIN
 10
0.0
 20
0.0
  9
$PLIMMAX
 10
12.0
 20
9.0
  9
$UNITMODE
 70
     0
  9
$VISRETAIN
 70
     0
  9
$PLINEGEN
 70
     0
  9
$PSLTSCALE
 70
     0
  0
ENDSEC
  0
SECTION
  2
TABLES
  0
TABLE
  2
VPORT
 70
     1
  0
VPORT
  2
*ACTIVE
 70
     0
 10
0.0
 20
0.0
 11
1.0
 21
1.0
 12
195.0581083320873
 22
133.5127261426681
 13
0.0
 23
0.0
 14
5.0
 24
5.0
 15
10.0
 25
10.0
 16
0.0
 26
0.0
 36
1.0
 17
0.0
 27
0.0
 37
0.0
 40
275.42274993631997
 41
1.831871345029239
 42
50.0
 43
0.0
 44
0.0
 50
0.0
 51
0.0
 71
     0
 72
   100
 73
     1
 74
     0
 75
     0
 76
     0
 77
     0
 78
     0
  0
ENDTAB
  0
TABLE
  2
LTYPE
 70
     4
  0
LTYPE
  2
CONTINUOUS
 70
     0
  3
Solid Line
 72
    65
 73
     0
 40
0.0
  0
LTYPE
  2
CENTER
 70
     0
  3
____ _ ____ _ ____ _ ____ _ ____ _ ____ _ ____
 72
    65
 73
     4
 40
2.0
 49
1.25
 49
-0.25
 49
0.25
 49
-0.25
  0
LTYPE
  2
HIDDEN
 70
     0
  3
__ __ __ __ __ __ __ __ __ __ __ __ __ __ __ __
 72
    65
 73
     2
 40
0.375
 49
0.25
 49
-0.125
  0
LTYPE
  2
PHANTOM2
 70
     0
  3
___ _ _ ___ _ _ ___ _ _ ___ _ _
 72
    65
 73
     6
 40
1.25
 49
0.625
 49
-0.125
 49
0.125
 49
-0.125
 49
0.125
 49
-0.125
  0
ENDTAB
  0
TABLE
  2
LAYER
 70
     4
  0
LAYER
  2
0
 70
     0
 62
     7
  6
CONTINUOUS
  0
LAYER
  2
1
 70
     0
 62
     1
  6
CENTER
  0
LAYER
  2
2
 70
     0
 62
     2
  6
HIDDEN
  0
LAYER
  2
3
 70
     0
 62
     3
  6
CONTINUOUS
  0
ENDTAB
  0
TABLE
  2
STYLE
 70
     2
  0
STYLE
  2
STANDARD
 70
     0
 40
0.0
 41
1.0
 50
0.0
 71
     0
 42
0.06
  3
TXT
  4
BIGFONT
  0
STYLE
  2
STANDARD1
 70
     0
 40
0.0
 41
1.0
 50
0.0
 71
     0
 42
3.0
  3
txt
  4

  0
ENDTAB
  0
TABLE
  2
VIEW
 70
     0
  0
ENDTAB
  0
TABLE
  2
UCS
 70
     0
  0
ENDTAB
  0
TABLE
  2
APPID
 70
     4
  0
APPID
  2
ACAD
 70
     0
  0
APPID
  2
ACAD_EXEMPT_FROM_CAD_STANDARDS
 70
     0
  0
APPID
  2
ACAD_MLEADERVER
 70
     0
  0
APPID
  2
ACAD_NAV_VCDISPLAY
 70
     0
  0
ENDTAB
  0
TABLE
  2
DIMSTYLE
 70
     1
  0
DIMSTYLE
  2
STANDARD
 70
     0
  3

  4

  5

  6

  7

 40
1.0
 41
0.18
 42
0.0625
 43
0.38
 44
0.18
 45
0.0
 46
0.0
 47
0.0
 48
0.0
140
0.18
141
0.09
142
0.0
143
25.399999999999999
144
1.0
145
0.0
146
1.0
147
0.09
 71
     0
 72
     0
 73
     1
 74
     1
 75
     0
 76
     0
 77
     0
 78
     0
170
     0
171
     2
172
     0
173
     0
174
     0
175
     0
176
     0
177
     0
178
     0
  0
ENDTAB
  0
ENDSEC
  0
SECTION
  2
BLOCKS
  0
BLOCK
  8
0
  2
$MODEL_SPACE
 70
     0
 10
0.0
 20
0.0
 30
0.0
  3
$MODEL_SPACE
  1

  0
ENDBLK
  5
20E
  8
0
  0
BLOCK
 67
     1
  8
0
  2
$PAPER_SPACE
 70
     0
 10
0.0
 20
0.0
 30
0.0
  3
$PAPER_SPACE
  1

  0
ENDBLK
  5
20C
 67
     1
  8
0
  0
ENDSEC
  0
SECTION
  2
ENTITIES
  0
LINE
  5
27C
  8
0
 10
97.134004273209342
 20
88.809338141986359
 30
0.0
 11
97.134004273209342
 21
76.809338141986359
 31
0.0
  0
LINE
  5
27D
  8
0
 10
90.388520273209323
 20
76.809338141986359
 30
0.0
 11
89.388520273209323
 21
77.809338141986359
 31
0.0
  0
LINE
  5
27E
  8
0
 10
139.38852027320931
 20
77.809338141986359
 30
0.0
 11
138.38852027320931
 21
76.809338141986359
 31
0.0
  0
LINE
  5
27F
  8
0
 10
138.38852027320931
 20
88.809338141986359
 30
0.0
 11
139.38852027320931
 21
87.809338141986359
 31
0.0
  0
LINE
  5
280
  8
0
 10
89.388520273209323
 20
85.809338141986345
 30
0.0
 11
94.584672273209321
 21
88.809338141986359
 31
0.0
  0
LINE
  5
281
  8
2
 10
127.38852027320929
 20
81.809338141986359
 30
0.0
 11
127.38852027320929
 21
88.809338141986359
 31
0.0
  0
LINE
  5
282
  8
2
 10
128.06502027320931
 20
81.809338141986359
 30
0.0
 11
128.06502027320931
 21
88.809338141986359
 31
0.0
  0
LINE
  5
283
  8
2
 10
134.7120202732093
 20
81.809338141986359
 30
0.0
 11
134.7120202732093
 21
88.809338141986359
 31
0.0
  0
LINE
  5
284
  8
2
 10
135.38852027320931
 20
81.809338141986359
 30
0.0
 11
135.38852027320931
 21
88.809338141986359
 31
0.0
  0
LINE
  5
285
  8
2
 10
96.888520273209323
 20
76.809338141986359
 30
0.0
 11
96.888520273209323
 21
88.809338141986359
 31
0.0
  0
LINE
  5
286
  8
2
 10
119.88852027320929
 20
81.809338141986359
 30
0.0
 11
119.88852027320929
 21
88.809338141986359
 31
0.0
  0
LINE
  5
287
  8
2
 10
139.38852027320931
 20
81.809338141986359
 30
0.0
 11
115.38852027320929
 21
81.809338141986359
 31
0.0
  0
LINE
  5
288
  8
1
 10
101.38852027320929
 20
73.809338141986359
 30
0.0
 11
101.38852027320929
 21
91.809338141986359
 31
0.0
  0
LINE
  5
28B
  8
0
 10
139.38852027320931
 20
87.809338141986359
 30
0.0
 11
139.38852027320931
 21
77.809338141986359
 31
0.0
  0
LINE
  5
28C
  8
0
 10
94.584672273209321
 20
88.809338141986359
 30
0.0
 11
138.38852027320931
 21
88.809338141986359
 31
0.0
  0
LINE
  5
28D
  8
0
 10
89.388520273209323
 20
77.809338141986359
 30
0.0
 11
89.388520273209323
 21
85.809338141986345
 31
0.0
  0
LINE
  5
28E
  8
0
 10
138.38852027320931
 20
76.809338141986359
 30
0.0
 11
90.388520273209323
 21
76.809338141986359
 31
0.0
  0
LINE
  5
28F
  8
3
 10
41.988520273209332
 20
72.809338141986359
 30
0.0
 11
41.988520273209311
 21
61.809338141986359
 31
0.0
  0
LINE
  5
290
  8
3
 10
48.78852027320935
 20
72.809338141986359
 30
0.0
 11
48.78852027320935
 21
61.809338141986359
 31
0.0
  0
LINE
  5
291
  8
3
 10
41.38852027320933
 20
73.848568141986362
 30
0.0
 11
41.988520273209332
 21
72.809338141986359
 31
0.0
  0
LINE
  5
292
  8
0
 10
41.38852027320933
 20
72.809338141986359
 30
0.0
 11
49.38852027320933
 21
72.809338141986359
 31
0.0
  0
LINE
  5
293
  8
3
 10
49.38852027320933
 20
73.848568141986362
 30
0.0
 11
48.78852027320935
 21
72.809338141986359
 31
0.0
  0
LINE
  5
294
  8
1
 10
45.388520273209338
 20
126.2711267806754
 30
0.0
 11
45.388520273209338
 21
35.278443822641883
 31
0.0
  0
LINE
  5
295
  8
3
 10
48.78852027320935
 20
102.4410861419863
 30
0.0
 11
48.78852027320935
 21
120.20933814198629
 31
0.0
  0
LINE
  5
298
  8
0
 10
41.38852027320933
 20
119.6093381419863
 30
0.0
 11
49.38852027320933
 21
119.6093381419863
 31
0.0
  0
LINE
  5
299
  8
0
 10
41.38852027320933
 20
42.009338141986362
 30
0.0
 11
49.38852027320933
 21
42.009338141986362
 31
0.0
  0
LINE
  5
29A
  8
0
 10
48.188520273209328
 20
40.809338141986359
 30
0.0
 11
49.38852027320933
 21
42.009338141986362
 31
0.0
  0
LINE
  5
29B
  8
0
 10
41.38852027320933
 20
42.009338141986362
 30
0.0
 11
42.58852027320934
 21
40.809338141986359
 31
0.0
  0
LINE
  5
29C
  8
0
 10
48.188520273209328
 20
120.8093381419863
 30
0.0
 11
49.38852027320933
 21
119.6093381419863
 31
0.0
  0
LINE
  5
29D
  8
0
 10
41.38852027320933
 20
119.6093381419863
 30
0.0
 11
42.58852027320934
 21
120.8093381419863
 31
0.0
  0
LINE
  5
29E
  8
0
 10
49.38852027320933
 20
119.6093381419863
 30
0.0
 11
49.38852027320933
 21
102.4410861419863
 31
0.0
  0
LINE
  5
29F
  8
0
 10
42.58852027320934
 20
120.8093381419863
 30
0.0
 11
48.188520273209328
 21
120.8093381419863
 31
0.0
  0
LINE
  5
2A0
  8
0
 10
41.38852027320933
 20
42.009338141986362
 30
0.0
 11
41.38852027320933
 21
56.809338141986373
 31
0.0
  0
LINE
  5
2A1
  8
0
 10
48.188520273209328
 20
40.809338141986359
 30
0.0
 11
42.58852027320934
 21
40.809338141986359
 31
0.0
  0
LINE
  5
2A2
  8
3
 10
41.988520273209332
 20
102.4410861419863
 30
0.0
 11
41.988520273209332
 21
120.20933814198629
 31
0.0
  0
LINE
  5
2A4
  8
3
 10
203.63852027320931
 20
76.809338141986345
 30
0.0
 11
203.63852027320931
 21
66.91619114198636
 31
0.0
  0
LINE
  5
2A5
  8
3
 10
197.13852027320931
 20
76.809338141986345
 30
0.0
 11
197.13852027320931
 21
66.91619114198636
 31
0.0
  0
LINE
  5
2A6
  8
0
 10
192.88852027320931
 20
56.809338141986359
 30
0.0
 11
207.88852027320931
 21
56.809338141986359
 31
0.0
  0
LINE
  5
2A7
  8
0
 10
208.38852027320931
 20
57.309338141986352
 30
0.0
 11
208.38852027320931
 21
60.309338141986359
 31
0.0
  0
LINE
  5
2A8
  8
0
 10
207.88852027320931
 20
60.809338141986359
 30
0.0
 11
207.38852027320931
 21
60.809338141986359
 31
0.0
  0
LINE
  5
2A9
  8
0
 10
206.38852027320931
 20
61.809338141986359
 30
0.0
 11
206.38852027320931
 21
65.309338141986359
 31
0.0
  0
LINE
  5
2AA
  8
0
 10
205.88852027320931
 20
65.809338141986359
 30
0.0
 11
194.88852027320931
 21
65.809338141986359
 31
0.0
  0
LINE
  5
2AB
  8
0
 10
194.38852027320931
 20
65.309338141986359
 30
0.0
 11
194.38852027320931
 21
61.809338141986359
 31
0.0
  0
LINE
  5
2AC
  8
0
 10
193.38852027320931
 20
60.809338141986359
 30
0.0
 11
192.88852027320931
 21
60.809338141986359
 31
0.0
  0
LINE
  5
2AD
  8
0
 10
192.38852027320931
 20
60.309338141986359
 30
0.0
 11
192.38852027320931
 21
57.309338141986352
 31
0.0
  0
LINE
  5
2AE
  8
0
 10
192.38852027320931
 20
57.309338141986352
 30
0.0
 11
192.88852027320931
 21
56.809338141986359
 31
0.0
  0
LINE
  5
2AF
  8
0
 10
192.38852027320931
 20
60.309338141986359
 30
0.0
 11
192.88852027320931
 21
60.809338141986359
 31
0.0
  0
LINE
  5
2B0
  8
0
 10
194.38852027320931
 20
65.309338141986359
 30
0.0
 11
194.88852027320931
 21
65.809338141986359
 31
0.0
  0
LINE
  5
2B1
  8
0
 10
205.88852027320931
 20
65.809338141986359
 30
0.0
 11
206.38852027320931
 21
65.309338141986359
 31
0.0
  0
LINE
  5
2B2
  8
0
 10
207.88852027320931
 20
60.809338141986359
 30
0.0
 11
208.38852027320931
 21
60.309338141986359
 31
0.0
  0
LINE
  5
2B3
  8
0
 10
207.88852027320931
 20
56.809338141986359
 30
0.0
 11
208.38852027320931
 21
57.309338141986352
 31
0.0
  0
ARC
  5
2B4
  8
0
 10
193.38852027320931
 20
61.809338141986359
 30
0.0
 40
1.0
 50
270.0
 51
0.0
  0
ARC
  5
2B5
  8
0
 10
207.38852027320931
 20
61.809338141986359
 30
0.0
 40
1.0
 50
180.0
 51
270.0
  0
LINE
  5
2B6
  8
0
 10
193.38852027320931
 20
60.809338141986359
 30
0.0
 11
207.38852027320931
 21
60.809338141986359
 31
0.0
  0
LINE
  5
2B7
  8
0
 10
196.38852027320931
 20
67.349204141986363
 30
0.0
 11
204.38852027320931
 21
67.349204141986363
 31
0.0
  0
LINE
  5
2B8
  8
0
 10
196.38852027320931
 20
67.349204141986363
 30
0.0
 11
197.68852027320929
 21
66.598648141986359
 31
0.0
  0
LINE
  5
2B9
  8
0
 10
197.68852027320929
 20
66.598648141986359
 30
0.0
 11
203.0885202732093
 21
66.598648141986359
 31
0.0
  0
LINE
  5
2BA
  8
0
 10
197.68852027320929
 20
66.598648141986359
 30
0.0
 11
197.68852027320929
 21
65.809338141986359
 31
0.0
  0
LINE
  5
2BB
  8
0
 10
204.38852027320931
 20
67.349204141986363
 30
0.0
 11
203.0885202732093
 21
66.598648141986359
 31
0.0
  0
LINE
  5
2BD
  8
0
 10
203.0885202732093
 20
66.598648141986359
 30
0.0
 11
203.0885202732093
 21
65.809338141986359
 31
0.0
  0
LINE
  5
2BE
  8
0
 10
196.38852027320931
 20
67.349204141986363
 30
0.0
 11
196.38852027320931
 21
76.809338141986345
 31
0.0
  0
LINE
  5
2C2
  8
0
 10
204.38852027320931
 20
67.349204141986363
 30
0.0
 11
204.38852027320931
 21
76.809338141986345
 31
0.0
  0
LINE
  5
2C7
  8
3
 10
196.9885202732093
 20
67.002793680447979
 30
0.0
 11
196.9885202732093
 21
65.809338141986345
 31
0.0
  0
LINE
  5
2C8
  8
3
 10
203.78852027320929
 20
67.002793680447866
 30
0.0
 11
203.78852027320929
 21
65.809338141986345
 31
0.0
  0
LINE
  5
2CC
  8
1
 10
200.38852027320931
 20
126.2711267806754
 30
0.0
 11
200.38852027320931
 21
35.278443822641883
 31
0.0
  0
LINE
  5
2CD
  8
3
 10
203.78852027320929
 20
102.4410861419863
 30
0.0
 11
203.78852027320929
 21
120.20933814198629
 31
0.0
  0
LINE
  5
2D0
  8
0
 10
196.38852027320931
 20
119.6093381419863
 30
0.0
 11
204.38852027320931
 21
119.6093381419863
 31
0.0
  0
LINE
  5
2D1
  8
0
 10
196.38852027320931
 20
42.009338141986362
 30
0.0
 11
204.38852027320931
 21
42.009338141986362
 31
0.0
  0
LINE
  5
2D2
  8
0
 10
203.18852027320941
 20
40.809338141986359
 30
0.0
 11
204.38852027320931
 21
42.009338141986362
 31
0.0
  0
LINE
  5
2D3
  8
0
 10
196.38852027320931
 20
42.009338141986362
 30
0.0
 11
197.5885202732093
 21
40.809338141986359
 31
0.0
  0
LINE
  5
2D4
  8
0
 10
203.18852027320941
 20
120.8093381419863
 30
0.0
 11
204.38852027320931
 21
119.6093381419863
 31
0.0
  0
LINE
  5
2D5
  8
0
 10
196.38852027320931
 20
119.6093381419863
 30
0.0
 11
197.5885202732093
 21
120.8093381419863
 31
0.0
  0
LINE
  5
2D6
  8
0
 10
204.38852027320931
 20
119.6093381419863
 30
0.0
 11
204.38852027320931
 21
102.4410861419863
 31
0.0
  0
LINE
  5
2D7
  8
0
 10
197.5885202732093
 20
120.8093381419863
 30
0.0
 11
203.18852027320941
 21
120.8093381419863
 31
0.0
  0
LINE
  5
2D8
  8
0
 10
196.38852027320931
 20
42.009338141986362
 30
0.0
 11
196.38852027320931
 21
56.809338141986352
 31
0.0
  0
LINE
  5
2D9
  8
0
 10
203.18852027320941
 20
40.809338141986359
 30
0.0
 11
197.5885202732093
 21
40.809338141986359
 31
0.0
  0
LINE
  5
2DA
  8
3
 10
196.9885202732093
 20
102.4410861419863
 30
0.0
 11
196.9885202732093
 21
120.20933814198629
 31
0.0
  0
LINE
  5
2DC
  8
3
 10
134.63852027320931
 20
99.559338141986373
 30
0.0
 11
134.63852027320931
 21
88.809338141986359
 31
0.0
  0
LINE
  5
2DD
  8
3
 10
128.13852027320931
 20
99.559338141986373
 30
0.0
 11
128.13852027320931
 21
88.809338141986359
 31
0.0
  0
LINE
  5
2DE
  8
0
 10
123.88852027320929
 20
56.809338141986359
 30
0.0
 11
138.88852027320931
 21
56.809338141986359
 31
0.0
  0
LINE
  5
2DF
  8
0
 10
139.38852027320931
 20
57.309338141986352
 30
0.0
 11
139.38852027320931
 21
60.309338141986359
 31
0.0
  0
LINE
  5
2E0
  8
0
 10
138.88852027320931
 20
60.809338141986359
 30
0.0
 11
138.38852027320931
 21
60.809338141986359
 31
0.0
  0
LINE
  5
2E1
  8
0
 10
137.38852027320931
 20
61.809338141986359
 30
0.0
 11
137.38852027320931
 21
65.309338141986359
 31
0.0
  0
LINE
  5
2E2
  8
0
 10
136.88852027320931
 20
65.809338141986359
 30
0.0
 11
125.88852027320929
 21
65.809338141986359
 31
0.0
  0
LINE
  5
2E3
  8
0
 10
125.38852027320929
 20
65.309338141986359
 30
0.0
 11
125.38852027320929
 21
61.809338141986359
 31
0.0
  0
LINE
  5
2E4
  8
0
 10
124.38852027320929
 20
60.809338141986359
 30
0.0
 11
123.88852027320929
 21
60.809338141986359
 31
0.0
  0
LINE
  5
2E5
  8
0
 10
123.38852027320929
 20
60.309338141986359
 30
0.0
 11
123.38852027320929
 21
57.309338141986352
 31
0.0
  0
LINE
  5
2E6
  8
0
 10
123.38852027320929
 20
57.309338141986352
 30
0.0
 11
123.88852027320929
 21
56.809338141986359
 31
0.0
  0
LINE
  5
2E7
  8
0
 10
123.38852027320929
 20
60.309338141986359
 30
0.0
 11
123.88852027320929
 21
60.809338141986359
 31
0.0
  0
LINE
  5
2E8
  8
0
 10
125.38852027320929
 20
65.309338141986359
 30
0.0
 11
125.88852027320929
 21
65.809338141986359
 31
0.0
  0
LINE
  5
2E9
  8
0
 10
136.88852027320931
 20
65.809338141986359
 30
0.0
 11
137.38852027320931
 21
65.309338141986359
 31
0.0
  0
LINE
  5
2EA
  8
0
 10
138.88852027320931
 20
60.809338141986359
 30
0.0
 11
139.38852027320931
 21
60.309338141986359
 31
0.0
  0
LINE
  5
2EB
  8
0
 10
138.88852027320931
 20
56.809338141986359
 30
0.0
 11
139.38852027320931
 21
57.309338141986352
 31
0.0
  0
ARC
  5
2EC
  8
0
 10
124.38852027320929
 20
61.809338141986359
 30
0.0
 40
1.0
 50
270.0
 51
0.0
  0
ARC
  5
2ED
  8
0
 10
138.38852027320931
 20
61.809338141986359
 30
0.0
 40
1.0
 50
180.0
 51
270.0
  0
LINE
  5
2EE
  8
0
 10
124.38852027320929
 20
60.809338141986359
 30
0.0
 11
138.38852027320931
 21
60.809338141986359
 31
0.0
  0
LINE
  5
2EF
  8
0
 10
127.38852027320929
 20
67.349204141986363
 30
0.0
 11
135.38852027320931
 21
67.349204141986363
 31
0.0
  0
LINE
  5
2F0
  8
0
 10
127.38852027320929
 20
67.349204141986363
 30
0.0
 11
128.68852027320929
 21
66.598648141986359
 31
0.0
  0
LINE
  5
2F1
  8
0
 10
128.68852027320929
 20
66.598648141986359
 30
0.0
 11
134.0885202732093
 21
66.598648141986359
 31
0.0
  0
LINE
  5
2F2
  8
0
 10
128.68852027320929
 20
66.598648141986359
 30
0.0
 11
128.68852027320929
 21
65.809338141986359
 31
0.0
  0
LINE
  5
2F3
  8
0
 10
135.38852027320931
 20
67.349204141986363
 30
0.0
 11
134.0885202732093
 21
66.598648141986359
 31
0.0
  0
LINE
  5
2F5
  8
0
 10
134.0885202732093
 20
66.598648141986359
 30
0.0
 11
134.0885202732093
 21
65.809338141986359
 31
0.0
  0
LINE
  5
2F6
  8
0
 10
127.38852027320929
 20
67.349204141986363
 30
0.0
 11
127.38852027320929
 21
76.809338141986359
 31
0.0
  0
LINE
  5
2F8
  8
0
 10
127.38852027320929
 20
98.809338141986359
 30
0.0
 11
128.38852027320931
 21
99.809338141986345
 31
0.0
  0
LINE
  5
2FA
  8
0
 10
135.38852027320931
 20
67.349204141986363
 30
0.0
 11
135.38852027320931
 21
76.809338141986359
 31
0.0
  0
LINE
  5
2FB
  8
0
 10
135.38852027320931
 20
98.809338141986359
 30
0.0
 11
127.38852027320929
 21
98.809338141986359
 31
0.0
  0
LINE
  5
2FC
  8
0
 10
135.38852027320931
 20
98.809338141986359
 30
0.0
 11
134.38852027320931
 21
99.809338141986345
 31
0.0
  0
LINE
  5
2FD
  8
0
 10
134.38852027320931
 20
99.809338141986345
 30
0.0
 11
128.38852027320931
 21
99.809338141986345
 31
0.0
  0
LINE
  5
2FE
  8
1
 10
131.38852027320931
 20
54.309338141986359
 30
0.0
 11
131.38852027320931
 21
102.3093381419863
 31
0.0
  0
LINE
  5
2FF
  8
3
 10
111.9885202732093
 20
72.809338141986359
 30
0.0
 11
111.9885202732093
 21
61.809338141986359
 31
0.0
  0
LINE
  5
300
  8
3
 10
118.7885202732093
 20
72.809338141986359
 30
0.0
 11
118.7885202732093
 21
61.809338141986359
 31
0.0
  0
LINE
  5
301
  8
3
 10
111.38852027320929
 20
73.848568141986362
 30
0.0
 11
111.9885202732093
 21
72.809338141986359
 31
0.0
  0
LINE
  5
302
  8
0
 10
111.38852027320929
 20
72.809338141986359
 30
0.0
 11
119.38852027320929
 21
72.809338141986359
 31
0.0
  0
LINE
  5
303
  8
3
 10
119.38852027320929
 20
73.848568141986362
 30
0.0
 11
118.7885202732093
 21
72.809338141986359
 31
0.0
  0
LINE
  5
304
  8
1
 10
115.38852027320929
 20
126.2711267806754
 30
0.0
 11
115.38852027320929
 21
35.278443822641883
 31
0.0
  0
LINE
  5
305
  8
3
 10
118.7885202732093
 20
102.4410861419863
 30
0.0
 11
118.7885202732093
 21
120.20933814198629
 31
0.0
  0
LINE
  5
308
  8
0
 10
111.38852027320929
 20
119.6093381419863
 30
0.0
 11
119.38852027320929
 21
119.6093381419863
 31
0.0
  0
LINE
  5
309
  8
0
 10
111.38852027320929
 20
42.009338141986362
 30
0.0
 11
119.38852027320929
 21
42.009338141986362
 31
0.0
  0
LINE
  5
30A
  8
0
 10
118.18852027320931
 20
40.809338141986359
 30
0.0
 11
119.38852027320929
 21
42.009338141986362
 31
0.0
  0
LINE
  5
30B
  8
0
 10
111.38852027320929
 20
42.009338141986362
 30
0.0
 11
112.5885202732093
 21
40.809338141986359
 31
0.0
  0
LINE
  5
30C
  8
0
 10
118.18852027320931
 20
120.8093381419863
 30
0.0
 11
119.38852027320929
 21
119.6093381419863
 31
0.0
  0
LINE
  5
30D
  8
0
 10
111.38852027320929
 20
119.6093381419863
 30
0.0
 11
112.5885202732093
 21
120.8093381419863
 31
0.0
  0
LINE
  5
30E
  8
0
 10
119.38852027320929
 20
119.6093381419863
 30
0.0
 11
119.38852027320929
 21
102.4410861419863
 31
0.0
  0
LINE
  5
30F
  8
0
 10
112.5885202732093
 20
120.8093381419863
 30
0.0
 11
118.18852027320931
 21
120.8093381419863
 31
0.0
  0
LINE
  5
310
  8
0
 10
111.38852027320929
 20
42.009338141986362
 30
0.0
 11
111.38852027320939
 21
56.809338141986373
 31
0.0
  0
LINE
  5
311
  8
0
 10
118.18852027320931
 20
40.809338141986359
 30
0.0
 11
112.5885202732093
 21
40.809338141986359
 31
0.0
  0
LINE
  5
312
  8
3
 10
111.9885202732093
 20
102.4410861419863
 30
0.0
 11
111.9885202732093
 21
120.20933814198629
 31
0.0
  0
LINE
  5
316
  8
0
 10
51.88852027320933
 20
61.665000141986361
 30
0.0
 11
51.638520273209338
 21
61.809338141986359
 31
0.0
  0
ARC
  5
317
  8
0
 10
48.638520273209338
 20
52.277848141986347
 30
0.0
 40
9.3871520000000004
 50
69.743841999999773
 51
110.2561580000002
  0
ARC
  5
318
  8
0
 10
48.638520273209338
 20
66.340828141986364
 30
0.0
 40
9.3871520000000004
 50
249.7438419999998
 51
290.2561580000002
  0
LINE
  5
319
  8
0
 10
51.88852027320933
 20
56.953676141986357
 30
0.0
 11
51.638520273209338
 21
56.809338141986359
 31
0.0
  0
LINE
  5
31A
  8
0
 10
51.88852027320933
 20
61.665000141986361
 30
0.0
 11
51.88852027320933
 21
56.953676141986357
 31
0.0
  0
LINE
  5
31B
  8
0
 10
45.388520273209338
 20
61.084444141986353
 30
0.0
 11
45.388520273209338
 21
57.534232141986372
 31
0.0
  0
LINE
  5
31C
  8
0
 10
38.888520273209338
 20
61.665000141986361
 30
0.0
 11
38.888520273209338
 21
56.953676141986357
 31
0.0
  0
LINE
  5
31D
  8
0
 10
38.888520273209338
 20
56.953676141986357
 30
0.0
 11
39.138520273209338
 21
56.809338141986359
 31
0.0
  0
ARC
  5
31E
  8
0
 10
42.138520273209338
 20
66.340828141986364
 30
0.0
 40
9.3871520000000004
 50
249.7438419999998
 51
290.2561580000002
  0
ARC
  5
31F
  8
0
 10
42.138520273209338
 20
52.277848141986347
 30
0.0
 40
9.3871520000000004
 50
69.743841999999773
 51
110.2561580000002
  0
LINE
  5
320
  8
0
 10
38.888520273209338
 20
61.665000141986361
 30
0.0
 11
39.138520273209338
 21
61.809338141986359
 31
0.0
  0
LINE
  5
321
  8
0
 10
39.138520273209338
 20
61.809338141986359
 30
0.0
 11
51.638520273209338
 21
61.809338141986359
 31
0.0
  0
LINE
  5
323
  8
1
 10
115.38852027320929
 20
171.20545527704331
 30
0.0
 11
115.38852027320929
 21
142.4132210069294
 31
0.0
  0
CIRCLE
  5
325
  8
0
 10
115.38852027320929
 20
156.8093381419863
 30
0.0
 40
9.0
  0
CIRCLE
  5
326
  8
3
 10
115.38852027320929
 20
156.8093381419863
 30
0.0
 40
3.399999999999999
  0
CIRCLE
  5
327
  8
0
 10
115.38852027320929
 20
156.8093381419863
 30
0.0
 40
4.0
  0
LINE
  5
328
  8
0
 10
119.41203127320929
 20
150.77826414198631
 30
0.0
 11
122.6233392732093
 21
156.34041214198629
 31
0.0
  0
LINE
  5
329
  8
0
 10
122.6233392732093
 20
157.2782641419864
 30
0.0
 11
119.41203127320929
 21
162.84041214198629
 31
0.0
  0
LINE
  5
32A
  8
0
 10
118.5998282732093
 20
163.3093381419863
 30
0.0
 11
112.17721227320931
 21
163.3093381419863
 31
0.0
  0
LINE
  5
32B
  8
0
 10
111.3650092732093
 20
162.84041214198629
 30
0.0
 11
108.15370127320929
 21
157.2782641419864
 31
0.0
  0
LINE
  5
32C
  8
0
 10
108.15370127320929
 20
156.34041214198629
 30
0.0
 11
111.3650092732093
 21
150.77826414198631
 31
0.0
  0
LINE
  5
32D
  8
0
 10
112.17721227320931
 20
150.3093381419863
 30
0.0
 11
118.5998282732093
 21
150.3093381419863
 31
0.0
  0
ARC
  5
32E
  8
0
 10
115.38852027320929
 20
156.8093381419863
 30
0.0
 40
7.25
 50
56.29155499999959
 51
63.70844500000009
  0
ARC
  5
32F
  8
0
 10
115.38852027320929
 20
156.8093381419863
 30
0.0
 40
7.25
 50
116.2915549999999
 51
123.7084450000004
  0
ARC
  5
330
  8
0
 10
115.38852027320929
 20
156.8093381419863
 30
0.0
 40
7.25
 50
176.2915550000003
 51
183.70844499999961
  0
ARC
  5
331
  8
0
 10
115.38852027320929
 20
156.8093381419863
 30
0.0
 40
7.25
 50
236.29155499999959
 51
243.7084450000001
  0
ARC
  5
332
  8
0
 10
115.38852027320929
 20
156.8093381419863
 30
0.0
 40
7.25
 50
296.2915549999999
 51
303.70844500000038
  0
ARC
  5
333
  8
0
 10
115.38852027320929
 20
156.8093381419863
 30
0.0
 40
7.25
 50
356.29155500000041
 51
3.7084449999996751
  0
CIRCLE
  5
334
  8
0
 10
115.38852027320929
 20
156.8093381419863
 30
0.0
 40
6.25
  0
LINE
  5
335
  8
0
 10
107.8829672732093
 20
61.08444414198636
 30
0.0
 11
107.8829672732093
 21
57.534232141986372
 31
0.0
  0
LINE
  5
336
  8
0
 10
121.63852027320929
 20
56.809338141986359
 30
0.0
 11
109.13852027320929
 21
56.809338141986359
 31
0.0
  0
LINE
  5
337
  8
0
 10
109.13852027320929
 20
61.809338141986359
 30
0.0
 11
121.63852027320929
 21
61.809338141986359
 31
0.0
  0
ARC
  5
338
  8
0
 10
121.0176852732093
 20
58.342431141986353
 30
0.0
 40
3.3225699999999989
 50
64.384247000000045
 51
124.3842470000003
  0
LINE
  5
339
  8
0
 10
122.8940732732093
 20
61.084444141986353
 30
0.0
 11
121.63852027320929
 21
61.809338141986359
 31
0.0
  0
LINE
  5
33A
  8
0
 10
122.8940732732093
 20
57.534232141986351
 30
0.0
 11
121.63852027320929
 21
56.809338141986359
 31
0.0
  0
ARC
  5
33B
  8
0
 10
121.0176852732093
 20
60.276245141986351
 30
0.0
 40
3.3225699999999989
 50
235.6157529999997
 51
295.61575299999993
  0
LINE
  5
33C
  8
0
 10
122.8940732732093
 20
61.084444141986353
 30
0.0
 11
122.8940732732093
 21
57.534232141986351
 31
0.0
  0
LINE
  5
33D
  8
0
 10
119.1412972732093
 20
61.084444141986353
 30
0.0
 11
119.1412972732093
 21
57.534232141986372
 31
0.0
  0
LINE
  5
33E
  8
0
 10
111.6357432732093
 20
61.084444141986353
 30
0.0
 11
111.6357432732093
 21
57.534232141986372
 31
0.0
  0
ARC
  5
33F
  8
0
 10
115.38852027320929
 20
69.373119141986365
 30
0.0
 40
12.419442999999999
 50
252.41204599999929
 51
287.58795400000082
  0
ARC
  5
340
  8
0
 10
109.75935527320929
 20
60.276245141986358
 30
0.0
 40
3.3225699999999989
 50
244.3842470000001
 51
304.3842470000003
  0
LINE
  5
341
  8
0
 10
107.8829672732093
 20
57.534232141986372
 30
0.0
 11
109.13852027320929
 21
56.809338141986359
 31
0.0
  0
LINE
  5
342
  8
0
 10
107.8829672732093
 20
61.08444414198636
 30
0.0
 11
109.13852027320929
 21
61.809338141986359
 31
0.0
  0
ARC
  5
343
  8
0
 10
115.38852027320929
 20
49.24555714198636
 30
0.0
 40
12.419442999999999
 50
72.412045999999279
 51
107.58795400000071
  0
ARC
  5
344
  8
0
 10
109.75935527320929
 20
58.342431141986367
 30
0.0
 40
3.3225699999999989
 50
55.6157529999997
 51
115.6157529999999
  0
LINE
  5
347
  8
0
 10
54.888520273209338
 20
87.809338141986359
 30
0.0
 11
53.88852027320933
 21
88.809338141986359
 31
0.0
  0
LINE
  5
348
  8
0
 10
53.88852027320933
 20
76.809338141986359
 30
0.0
 11
54.888520273209338
 21
77.809338141986359
 31
0.0
  0
LINE
  5
349
  8
0
 10
35.888520273209338
 20
77.809338141986359
 30
0.0
 11
36.888520273209338
 21
76.809338141986359
 31
0.0
  0
LINE
  5
34A
  8
0
 10
36.888520273209338
 20
88.809338141986359
 30
0.0
 11
35.888520273209338
 21
87.809338141986359
 31
0.0
  0
LINE
  5
34B
  8
1
 10
45.388520273209338
 20
93.809338141986359
 30
0.0
 11
45.388520273209338
 21
71.809338141986359
 31
0.0
  0
LINE
  5
34C
  8
0
 10
36.888520273209338
 20
88.809338141986359
 30
0.0
 11
53.88852027320933
 21
88.809338141986359
 31
0.0
  0
LINE
  5
34D
  8
0
 10
35.888520273209338
 20
77.809338141986359
 30
0.0
 11
35.888520273209338
 21
87.809338141986359
 31
0.0
  0
LINE
  5
34E
  8
0
 10
53.88852027320933
 20
76.809338141986359
 30
0.0
 11
36.888520273209338
 21
76.809338141986359
 31
0.0
  0
LINE
  5
34F
  8
0
 10
54.888520273209338
 20
87.809338141986359
 30
0.0
 11
54.888520273209338
 21
77.809338141986359
 31
0.0
  0
LINE
  5
350
  8
0
 10
40.388520273209338
 20
85.809338141986345
 30
0.0
 11
40.388520273209338
 21
76.809338141986359
 31
0.0
  0
LINE
  5
351
  8
0
 10
50.388520273209338
 20
85.809338141986345
 30
0.0
 11
50.388520273209338
 21
76.809338141986359
 31
0.0
  0
LINE
  5
352
  8
0
 10
50.388520273209338
 20
85.809338141986345
 30
0.0
 11
40.388520273209338
 21
85.809338141986345
 31
0.0
  0
LINE
  5
353
  8
0
 10
37.501769273209327
 20
88.809338141986359
 30
0.0
 11
40.388520273209338
 21
85.809338141986345
 31
0.0
  0
LINE
  5
354
  8
0
 10
53.275271273209341
 20
88.809338141986359
 30
0.0
 11
50.388520273209338
 21
85.809338141986345
 31
0.0
  0
LINE
  5
357
  8
0
 10
190.88852027320931
 20
77.809338141986359
 30
0.0
 11
190.88852027320931
 21
87.809338141986359
 31
0.0
  0
LINE
  5
358
  8
0
 10
191.88852027320931
 20
88.809338141986359
 30
0.0
 11
208.88852027320931
 21
88.809338141986359
 31
0.0
  0
LINE
  5
359
  8
0
 10
209.88852027320931
 20
87.809338141986359
 30
0.0
 11
209.88852027320931
 21
77.809338141986359
 31
0.0
  0
LINE
  5
35A
  8
0
 10
208.88852027320931
 20
76.809338141986359
 30
0.0
 11
191.88852027320931
 21
76.809338141986359
 31
0.0
  0
LINE
  5
35C
  8
0
 10
195.88852027320931
 20
76.809338141986359
 30
0.0
 11
195.88852027320931
 21
81.809338141986359
 31
0.0
  0
LINE
  5
35D
  8
0
 10
204.88852027320939
 20
76.809338141986359
 30
0.0
 11
204.88852027320939
 21
81.809338141986359
 31
0.0
  0
LINE
  5
35E
  8
0
 10
204.88852027320939
 20
81.809338141986359
 30
0.0
 11
195.88852027320931
 21
81.809338141986359
 31
0.0
  0
LINE
  5
35F
  8
0
 10
208.88852027320931
 20
76.809338141986359
 30
0.0
 11
209.88852027320931
 21
77.809338141986359
 31
0.0
  0
LINE
  5
360
  8
0
 10
209.88852027320931
 20
87.809338141986359
 30
0.0
 11
208.88852027320931
 21
88.809338141986359
 31
0.0
  0
LINE
  5
361
  8
0
 10
191.88852027320931
 20
88.809338141986359
 30
0.0
 11
190.88852027320931
 21
87.809338141986359
 31
0.0
  0
LINE
  5
362
  8
0
 10
190.88852027320931
 20
77.809338141986359
 30
0.0
 11
191.88852027320931
 21
76.809338141986359
 31
0.0
  0
LINE
  5
363
  8
0
 10
130.23381927320929
 20
154.8093381419863
 30
0.0
 11
132.5432212732093
 21
154.8093381419863
 31
0.0
  0
LINE
  5
364
  8
0
 10
132.5432212732093
 20
154.8093381419863
 30
0.0
 11
133.69792127320929
 21
156.8093381419863
 31
0.0
  0
LINE
  5
365
  8
0
 10
133.69792127320929
 20
156.8093381419863
 30
0.0
 11
132.5432212732093
 21
158.8093381419863
 31
0.0
  0
LINE
  5
366
  8
0
 10
132.5432212732093
 20
158.8093381419863
 30
0.0
 11
130.23381927320929
 21
158.8093381419863
 31
0.0
  0
LINE
  5
367
  8
0
 10
130.23381927320929
 20
158.8093381419863
 30
0.0
 11
129.0791192732093
 21
156.8093381419863
 31
0.0
  0
LINE
  5
368
  8
0
 10
129.0791192732093
 20
156.8093381419863
 30
0.0
 11
130.23381927320929
 21
154.8093381419863
 31
0.0
  0
LINE
  5
369
  8
1
 10
131.38852027320931
 20
167.3093381419863
 30
0.0
 11
131.38852027320931
 21
146.3093381419863
 31
0.0
  0
CIRCLE
  5
36B
  8
3
 10
131.38852027320931
 20
156.8093381419863
 30
0.0
 40
3.25
  0
CIRCLE
  5
36C
  8
0
 10
131.38852027320931
 20
156.8093381419863
 30
0.0
 40
4.0
  0
CIRCLE
  5
36D
  8
2
 10
131.38852027320931
 20
156.8093381419863
 30
0.0
 40
6.0
  0
CIRCLE
  5
36E
  8
2
 10
131.38852027320931
 20
156.8093381419863
 30
0.0
 40
8.0
  0
LINE
  5
370
  8
0
 10
94.388520273209323
 20
164.3093381419863
 30
0.0
 11
94.388520273209323
 21
149.3093381419863
 31
0.0
  0
LINE
  5
371
  8
0
 10
139.38852027320931
 20
164.3093381419863
 30
0.0
 11
137.38852027320931
 21
166.3093381419863
 31
0.0
  0
LINE
  5
372
  8
0
 10
137.38852027320931
 20
147.3093381419863
 30
0.0
 11
139.38852027320931
 21
149.3093381419863
 31
0.0
  0
LINE
  5
373
  8
0
 10
89.388520273209323
 20
161.8093381419863
 30
0.0
 11
97.182749273209325
 21
166.3093381419863
 31
0.0
  0
LINE
  5
374
  8
0
 10
89.388520273209323
 20
151.8093381419863
 30
0.0
 11
97.182749273209325
 21
147.3093381419863
 31
0.0
  0
LINE
  5
375
  8
0
 10
101.38852027320929
 20
161.3093381419863
 30
0.0
 11
107.5942916391494
 21
161.3093381419863
 31
0.0
  0
LINE
  5
376
  8
0
 10
107.5942916391494
 20
152.3093381419863
 30
0.0
 11
101.38852027320929
 21
152.3093381419863
 31
0.0
  0
ARC
  5
377
  8
0
 10
101.38852027320929
 20
156.8093381419863
 30
0.0
 40
4.5
 50
90.0
 51
270.0
  0
CIRCLE
  5
379
  8
3
 10
131.38852027320931
 20
156.8093381419863
 30
0.0
 40
4.0
  0
LINE
  5
37A
  8
1
 10
101.38852027320929
 20
149.87738414198631
 30
0.0
 11
101.38852027320929
 21
163.8881751419863
 31
0.0
  0
LINE
  5
37D
  8
2
 10
139.38852027320931
 20
161.3093381419863
 30
0.0
 11
107.5942916391494
 21
161.3093381419863
 31
0.0
  0
LINE
  5
37E
  8
2
 10
139.38852027320931
 20
152.3093381419863
 30
0.0
 11
107.5942916391494
 21
152.3093381419863
 31
0.0
  0
LINE
  5
37F
  8
1
 10
144.38852027320931
 20
156.8093381419863
 30
0.0
 11
84.388520273209323
 21
156.8093381419863
 31
0.0
  0
LINE
  5
380
  8
0
 10
137.38852027320931
 20
147.3093381419863
 30
0.0
 11
97.182749273209325
 21
147.3093381419863
 31
0.0
  0
LINE
  5
381
  8
0
 10
89.388520273209323
 20
151.8093381419863
 30
0.0
 11
89.388520273209323
 21
161.8093381419863
 31
0.0
  0
LINE
  5
382
  8
0
 10
97.182749273209325
 20
166.3093381419863
 30
0.0
 11
137.38852027320931
 21
166.3093381419863
 31
0.0
  0
LINE
  5
383
  8
0
 10
139.38852027320931
 20
164.3093381419863
 30
0.0
 11
139.38852027320931
 21
149.3093381419863
 31
0.0
  0
ARC
  5
384
  8
0
 10
120.82602027320929
 20
99.441086141986347
 30
0.0
 40
3.0256219999999998
 50
53.198083000000551
 51
53.198083000000551
  0
LINE
  5
385
  8
0
 10
122.63852027320929
 20
101.86373614198629
 30
0.0
 11
121.63852027320929
 21
102.4410861419863
 31
0.0
  0
LINE
  5
386
  8
0
 10
108.13852027320929
 20
101.86373614198629
 30
0.0
 11
109.13852027320929
 21
102.4410861419863
 31
0.0
  0
ARC
  5
387
  8
0
 10
109.95102027320929
 20
99.441086141986347
 30
0.0
 40
3.0256219999999998
 50
53.198083000000551
 51
113.19808300000049
  0
ARC
  5
388
  8
0
 10
109.95102027320929
 20
99.441086141986347
 30
0.0
 40
3.0256219999999998
 50
126.80191699999941
 51
126.80191699999941
  0
LINE
  5
389
  8
0
 10
109.13852027320929
 20
102.4410861419863
 30
0.0
 11
121.63852027320929
 21
102.4410861419863
 31
0.0
  0
LINE
  5
38A
  8
0
 10
122.63852027320929
 20
101.86373614198629
 30
0.0
 11
122.63852027320929
 21
94.341086141986352
 31
0.0
  0
LINE
  5
38B
  8
0
 10
124.38852027320929
 20
93.441086141986347
 30
0.0
 11
124.38852027320929
 21
92.141086141986335
 31
0.0
  0
LINE
  5
38C
  8
0
 10
111.76352027320929
 20
101.86373614198629
 30
0.0
 11
111.76352027320929
 21
93.941086141986347
 31
0.0
  0
LINE
  5
38D
  8
0
 10
106.38852027320929
 20
93.441086141986347
 30
0.0
 11
106.38852027320929
 21
92.141086141986335
 31
0.0
  0
LINE
  5
38E
  8
0
 10
106.88852027320929
 20
93.941086141986347
 30
0.0
 11
123.88852027320929
 21
93.941086141986347
 31
0.0
  0
ARC
  5
38F
  8
0
 10
115.38852027320929
 20
90.772296141986345
 30
0.0
 40
11.66879
 50
90.0
 51
108.0988730000004
  0
ARC
  5
391
  8
0
 10
123.0385202732093
 20
94.341086141986352
 30
0.0
 40
0.4
 50
180.0
 51
270.0
  0
LINE
  5
392
  8
0
 10
108.13852027320929
 20
101.86373614198629
 30
0.0
 11
108.13852027320929
 21
94.341086141986352
 31
0.0
  0
ARC
  5
393
  8
0
 10
107.7385202732093
 20
94.341086141986352
 30
0.0
 40
0.4
 50
270.0
 51
0.0
  0
LINE
  5
394
  8
0
 10
124.38852027320929
 20
93.441086141986347
 30
0.0
 11
123.88852027320929
 21
93.941086141986347
 31
0.0
  0
LINE
  5
395
  8
0
 10
106.88852027320929
 20
93.941086141986347
 30
0.0
 11
106.38852027320929
 21
93.441086141986347
 31
0.0
  0
ARC
  5
396
  8
0
 10
115.38852027320929
 20
112.14108614198631
 30
0.0
 40
21.931712000000001
 50
292.0207816974139
 51
294.22774500000008
  0
ARC
  5
398
  8
0
 10
115.38852027320929
 20
112.14108614198631
 30
0.0
 40
21.931712000000001
 50
245.77225499999989
 51
247.9792183025861
  0
LINE
  5
399
  8
0
 10
106.38852027320929
 20
92.141086141986335
 30
0.0
 11
124.38852027320929
 21
92.141086141986335
 31
0.0
  0
ARC
  5
39A
  8
0
 10
115.38852027320929
 20
90.772296141986345
 30
0.0
 40
11.66879
 50
71.901126999999562
 51
90.0
  0
LINE
  5
39B
  8
0
 10
119.01352027320929
 20
101.86373614198629
 30
0.0
 11
119.01352027320929
 21
93.941086141986347
 31
0.0
  0
ARC
  5
39C
  8
0
 10
120.82602027320929
 20
99.441086141986347
 30
0.0
 40
3.0256219999999998
 50
66.801916999999506
 51
126.80191699999941
  0
LINE
  5
39E
  8
2
 10
110.63852027320929
 20
89.309338141986359
 30
0.0
 11
120.13852027320929
 21
89.309338141986359
 31
0.0
  0
LINE
  5
39F
  8
2
 10
110.63852027320929
 20
90.535442141986366
 30
0.0
 11
120.13852027320929
 21
90.535442141986366
 31
0.0
  0
LINE
  5
3A0
  8
2
 10
110.63852027320929
 20
89.309338141986359
 30
0.0
 11
110.13852027320929
 21
88.809338141986359
 31
0.0
  0
LINE
  5
3A1
  8
2
 10
110.63852027320929
 20
90.535442141986366
 30
0.0
 11
110.63852027320929
 21
89.309338141986359
 31
0.0
  0
LINE
  5
3A2
  8
2
 10
107.13852027320929
 20
91.809338141986359
 30
0.0
 11
110.63852027320929
 21
90.535442141986366
 31
0.0
  0
LINE
  5
3A3
  8
2
 10
120.13852027320929
 20
89.309338141986359
 30
0.0
 11
120.63852027320929
 21
88.809338141986359
 31
0.0
  0
LINE
  5
3A4
  8
2
 10
120.13852027320929
 20
90.535442141986366
 30
0.0
 11
120.13852027320929
 21
89.309338141986359
 31
0.0
  0
LINE
  5
3A5
  8
2
 10
123.63852027320929
 20
91.809338141986359
 30
0.0
 11
120.13852027320929
 21
90.535442141986366
 31
0.0
  0
LINE
  5
3A6
  8
0
 10
124.38852027320929
 20
91.309338141986359
 30
0.0
 11
123.88852027320929
 21
91.809338141986359
 31
0.0
  0
LINE
  5
3A7
  8
0
 10
123.88852027320929
 20
88.809338141986359
 30
0.0
 11
124.38852027320929
 21
89.309338141986359
 31
0.0
  0
LINE
  5
3A8
  8
0
 10
106.38852027320929
 20
89.309338141986359
 30
0.0
 11
106.88852027320929
 21
88.809338141986359
 31
0.0
  0
LINE
  5
3A9
  8
0
 10
106.88852027320929
 20
91.809338141986359
 30
0.0
 11
106.38852027320929
 21
91.309338141986359
 31
0.0
  0
LINE
  5
3AA
  8
0
 10
106.38852027320929
 20
89.309338141986359
 30
0.0
 11
106.38852027320929
 21
91.309338141986359
 31
0.0
  0
LINE
  5
3AC
  8
0
 10
124.38852027320929
 20
91.309338141986359
 30
0.0
 11
124.38852027320929
 21
89.309338141986359
 31
0.0
  0
LINE
  5
3AD
  8
0
 10
106.88852027320929
 20
91.809338141986359
 30
0.0
 11
123.88852027320929
 21
91.809338141986359
 31
0.0
  0
ARC
  5
3AE
  8
0
 10
52.288489273209329
 20
94.341086141986352
 30
0.0
 40
0.4
 50
180.0
 51
270.0
  0
LINE
  5
3AF
  8
0
 10
45.388489273209331
 20
101.7161921419863
 30
0.0
 11
45.388489273209331
 21
98.165980141986353
 31
0.0
  0
ARC
  5
3B0
  8
0
 10
48.638489273209331
 20
94.793092141986335
 30
0.0
 40
7.6479939999999997
 50
64.852624000000176
 51
115.1473759999998
  0
ARC
  5
3B1
  8
0
 10
42.138489273209331
 20
94.793092141986335
 30
0.0
 40
7.6479939999999997
 50
64.852624000000176
 51
115.1473759999998
  0
LINE
  5
3B2
  8
0
 10
51.488489273209332
 20
102.4410861419863
 30
0.0
 11
51.888489273209331
 21
102.0410861419863
 31
0.0
  0
LINE
  5
3B3
  8
0
 10
39.288489273209343
 20
102.4410861419863
 30
0.0
 11
38.888489273209331
 21
102.0410861419863
 31
0.0
  0
LINE
  5
3B4
  8
0
 10
51.488489273209332
 20
102.4410861419863
 30
0.0
 11
39.288489273209343
 21
102.4410861419863
 31
0.0
  0
LINE
  5
3B5
  8
0
 10
51.888489273209331
 20
94.341086141986352
 30
0.0
 11
51.888489273209331
 21
102.0410861419863
 31
0.0
  0
LINE
  5
3B6
  8
0
 10
45.388489273209331
 20
101.7161921419863
 30
0.0
 11
45.388489273209331
 21
93.941086141986347
 31
0.0
  0
LINE
  5
3B7
  8
0
 10
38.888483273209332
 20
94.341086141986352
 30
0.0
 11
38.888483273209332
 21
102.0410861419863
 31
0.0
  0
ARC
  5
3B8
  8
0
 10
38.48848327320934
 20
94.341086141986352
 30
0.0
 40
0.4
 50
270.0
 51
0.0
  0
LINE
  5
3B9
  8
0
 10
54.38852027320933
 20
93.441086141986347
 30
0.0
 11
54.38852027320933
 21
92.141086141986335
 31
0.0
  0
LINE
  5
3BA
  8
0
 10
36.388520273209338
 20
93.441086141986347
 30
0.0
 11
36.388520273209338
 21
92.141086141986335
 31
0.0
  0
LINE
  5
3BB
  8
0
 10
36.888520273209338
 20
93.941086141986347
 30
0.0
 11
53.88852027320933
 21
93.941086141986347
 31
0.0
  0
LINE
  5
3BC
  8
1
 10
45.388520273209338
 20
107.4410861419863
 30
0.0
 11
45.388520273209338
 21
85.441086141986347
 31
0.0
  0
LINE
  5
3BD
  8
0
 10
54.38852027320933
 20
93.441086141986347
 30
0.0
 11
53.88852027320933
 21
93.941086141986347
 31
0.0
  0
LINE
  5
3BE
  8
0
 10
36.888520273209338
 20
93.941086141986347
 30
0.0
 11
36.388520273209338
 21
93.441086141986347
 31
0.0
  0
ARC
  5
3BF
  8
0
 10
45.388520273209338
 20
112.14108614198631
 30
0.0
 40
21.931712000000001
 50
292.0207816974139
 51
294.22774500000008
  0
ARC
  5
3C1
  8
0
 10
45.388520273209338
 20
112.14108614198631
 30
0.0
 40
21.931712000000001
 50
245.77225499999989
 51
247.9792183025861
  0
LINE
  5
3C2
  8
0
 10
36.388520273209338
 20
92.141086141986335
 30
0.0
 11
54.38852027320933
 21
92.141086141986335
 31
0.0
  0
LINE
  5
3C3
  8
1
 10
45.388520273209338
 20
94.809338141986345
 30
0.0
 11
45.388520273209338
 21
85.809338141986345
 31
0.0
  0
LINE
  5
3C4
  8
2
 10
40.63852027320933
 20
89.309338141986359
 30
0.0
 11
50.13852027320933
 21
89.309338141986359
 31
0.0
  0
LINE
  5
3C5
  8
2
 10
40.63852027320933
 20
90.535442141986366
 30
0.0
 11
50.13852027320933
 21
90.535442141986366
 31
0.0
  0
LINE
  5
3C6
  8
2
 10
40.63852027320933
 20
89.309338141986359
 30
0.0
 11
40.13852027320933
 21
88.809338141986359
 31
0.0
  0
LINE
  5
3C7
  8
2
 10
40.63852027320933
 20
90.535442141986366
 30
0.0
 11
40.63852027320933
 21
89.309338141986359
 31
0.0
  0
LINE
  5
3C8
  8
2
 10
37.138520273209338
 20
91.809338141986359
 30
0.0
 11
40.63852027320933
 21
90.535442141986366
 31
0.0
  0
LINE
  5
3C9
  8
2
 10
50.13852027320933
 20
89.309338141986359
 30
0.0
 11
50.63852027320933
 21
88.809338141986359
 31
0.0
  0
LINE
  5
3CA
  8
2
 10
50.13852027320933
 20
90.535442141986366
 30
0.0
 11
50.13852027320933
 21
89.309338141986359
 31
0.0
  0
LINE
  5
3CB
  8
2
 10
53.638520273209338
 20
91.809338141986359
 30
0.0
 11
50.13852027320933
 21
90.535442141986366
 31
0.0
  0
LINE
  5
3CC
  8
0
 10
54.38852027320933
 20
91.309338141986359
 30
0.0
 11
53.88852027320933
 21
91.809338141986359
 31
0.0
  0
LINE
  5
3CD
  8
0
 10
53.88852027320933
 20
88.809338141986359
 30
0.0
 11
54.38852027320933
 21
89.309338141986359
 31
0.0
  0
LINE
  5
3CE
  8
0
 10
36.388520273209338
 20
89.309338141986359
 30
0.0
 11
36.888520273209338
 21
88.809338141986359
 31
0.0
  0
LINE
  5
3CF
  8
0
 10
36.888520273209338
 20
91.809338141986359
 30
0.0
 11
36.388520273209338
 21
91.309338141986359
 31
0.0
  0
LINE
  5
3D0
  8
0
 10
36.388520273209338
 20
89.309338141986359
 30
0.0
 11
36.388520273209338
 21
91.309338141986359
 31
0.0
  0
LINE
  5
3D2
  8
0
 10
54.38852027320933
 20
91.309338141986359
 30
0.0
 11
54.38852027320933
 21
89.309338141986359
 31
0.0
  0
LINE
  5
3D3
  8
0
 10
36.888520273209338
 20
91.809338141986359
 30
0.0
 11
53.88852027320933
 21
91.809338141986359
 31
0.0
  0
ARC
  5
3D4
  8
0
 10
207.28848927320931
 20
94.341086141986352
 30
0.0
 40
0.4
 50
180.0
 51
270.0
  0
LINE
  5
3D5
  8
0
 10
200.38848927320939
 20
101.7161921419863
 30
0.0
 11
200.38848927320939
 21
99.809338141986345
 31
0.0
  0
ARC
  5
3D6
  8
0
 10
203.6384892732093
 20
94.793092141986335
 30
0.0
 40
7.6479939999999997
 50
64.852624000001043
 51
115.1473759999989
  0
ARC
  5
3D7
  8
0
 10
197.1384892732093
 20
94.793092141986335
 30
0.0
 40
7.6479939999999997
 50
64.852624000001043
 51
115.1473759999989
  0
LINE
  5
3D8
  8
0
 10
206.4884892732093
 20
102.4410861419863
 30
0.0
 11
206.88848927320939
 21
102.0410861419863
 31
0.0
  0
LINE
  5
3D9
  8
0
 10
194.28848927320931
 20
102.4410861419863
 30
0.0
 11
193.8884892732093
 21
102.0410861419863
 31
0.0
  0
LINE
  5
3DA
  8
0
 10
206.4884892732093
 20
102.4410861419863
 30
0.0
 11
194.28848927320931
 21
102.4410861419863
 31
0.0
  0
LINE
  5
3DB
  8
0
 10
206.88848927320939
 20
94.341086141986352
 30
0.0
 11
206.88848927320939
 21
102.0410861419863
 31
0.0
  0
LINE
  5
3DC
  8
0
 10
200.38848927320939
 20
101.7161921419863
 30
0.0
 11
200.38848927320939
 21
99.809338141986345
 31
0.0
  0
LINE
  5
3DD
  8
0
 10
193.88848327320929
 20
94.341086141986352
 30
0.0
 11
193.88848327320929
 21
102.0410861419863
 31
0.0
  0
ARC
  5
3DE
  8
0
 10
193.48848327320931
 20
94.341086141986352
 30
0.0
 40
0.4
 50
270.0
 51
0.0
  0
LINE
  5
3DF
  8
0
 10
209.38852027320931
 20
93.441086141986347
 30
0.0
 11
209.38852027320931
 21
92.141086141986335
 31
0.0
  0
LINE
  5
3E0
  8
0
 10
191.38852027320931
 20
93.441086141986347
 30
0.0
 11
191.38852027320931
 21
92.141086141986335
 31
0.0
  0
LINE
  5
3E1
  8
0
 10
191.88852027320931
 20
93.941086141986347
 30
0.0
 11
196.3884892732093
 21
93.941086141986347
 31
0.0
  0
LINE
  5
3E3
  8
0
 10
209.38852027320931
 20
93.441086141986347
 30
0.0
 11
208.88852027320931
 21
93.941086141986347
 31
0.0
  0
LINE
  5
3E4
  8
0
 10
191.88852027320931
 20
93.941086141986347
 30
0.0
 11
191.38852027320931
 21
93.441086141986347
 31
0.0
  0
ARC
  5
3E5
  8
0
 10
200.38852027320931
 20
112.14108614198631
 30
0.0
 40
21.931712000000001
 50
292.0207816974139
 51
294.22774499999912
  0
ARC
  5
3E7
  8
0
 10
200.38852027320931
 20
112.14108614198631
 30
0.0
 40
21.931712000000001
 50
245.77225500000091
 51
247.9792183025861
  0
LINE
  5
3E8
  8
0
 10
191.38852027320931
 20
92.141086141986335
 30
0.0
 11
196.3884892732093
 21
92.141086141986335
 31
0.0
  0
LINE
  5
3F2
  8
0
 10
209.38852027320931
 20
91.309338141986359
 30
0.0
 11
208.88852027320931
 21
91.809338141986359
 31
0.0
  0
LINE
  5
3F3
  8
0
 10
208.88852027320931
 20
88.809338141986359
 30
0.0
 11
209.38852027320931
 21
89.309338141986359
 31
0.0
  0
LINE
  5
3F4
  8
0
 10
191.38852027320931
 20
89.309338141986359
 30
0.0
 11
191.88852027320931
 21
88.809338141986359
 31
0.0
  0
LINE
  5
3F5
  8
0
 10
191.88852027320931
 20
91.809338141986359
 30
0.0
 11
191.38852027320931
 21
91.309338141986359
 31
0.0
  0
LINE
  5
3F6
  8
0
 10
191.38852027320931
 20
89.309338141986359
 30
0.0
 11
191.38852027320931
 21
91.309338141986359
 31
0.0
  0
LINE
  5
3F8
  8
0
 10
209.38852027320931
 20
91.309338141986359
 30
0.0
 11
209.38852027320931
 21
89.309338141986359
 31
0.0
  0
LINE
  5
3F9
  8
0
 10
191.88852027320931
 20
91.809338141986359
 30
0.0
 11
196.3884892732093
 21
91.809338141986359
 31
0.0
  0
LINE
  5
3FA
  8
0
 10
49.388520273209352
 20
76.809338141986373
 30
0.0
 11
49.388520273209352
 21
61.809338141986359
 31
0.0
  0
LINE
  5
3FB
  8
0
 10
41.388520273209323
 20
102.4410861419863
 30
0.0
 11
41.38852027320933
 21
119.6093381419863
 31
0.0
  0
LINE
  5
3FC
  8
0
 10
49.38852027320933
 20
56.809338141986373
 30
0.0
 11
49.38852027320933
 21
42.009338141986362
 31
0.0
  0
LINE
  5
3FD
  8
3
 10
48.78852027320935
 20
56.809338141986359
 30
0.0
 11
48.78852027320935
 21
41.409338141986353
 31
0.0
  0
LINE
  5
3FE
  8
3
 10
41.988520273209311
 20
56.809338141986359
 30
0.0
 11
41.988520273209332
 21
41.409338141986353
 31
0.0
  0
LINE
  5
3FF
  8
0
 10
41.38852027320933
 20
61.809338141986359
 30
0.0
 11
41.38852027320933
 21
76.809338141986373
 31
0.0
  0
LINE
  5
401
  8
0
 10
119.38852027320929
 20
76.809338141986373
 30
0.0
 11
119.38852027320929
 21
61.809338141986359
 31
0.0
  0
LINE
  5
402
  8
0
 10
111.38852027320929
 20
102.4410861419863
 30
0.0
 11
111.38852027320929
 21
119.6093381419863
 31
0.0
  0
LINE
  5
403
  8
0
 10
119.38852027320929
 20
56.809338141986373
 30
0.0
 11
119.38852027320929
 21
42.009338141986362
 31
0.0
  0
LINE
  5
404
  8
3
 10
118.7885202732093
 20
56.809338141986359
 30
0.0
 11
118.7885202732093
 21
41.409338141986353
 31
0.0
  0
LINE
  5
405
  8
3
 10
111.9885202732093
 20
56.809338141986359
 30
0.0
 11
111.9885202732093
 21
41.409338141986353
 31
0.0
  0
LINE
  5
406
  8
0
 10
111.38852027320939
 20
61.809338141986359
 30
0.0
 11
111.38852027320929
 21
76.809338141986373
 31
0.0
  0
LINE
  5
407
  8
3
 10
128.13852027320931
 20
76.809338141986359
 30
0.0
 11
128.13852027320931
 21
66.91619114198636
 31
0.0
  0
LINE
  5
408
  8
0
 10
127.38852027320929
 20
88.809338141986316
 30
0.0
 11
127.38852027320929
 21
98.809338141986359
 31
0.0
  0
LINE
  5
409
  8
0
 10
135.38852027320931
 20
88.809338141986316
 30
0.0
 11
135.38852027320931
 21
98.809338141986359
 31
0.0
  0
LINE
  5
40A
  8
3
 10
134.63852027320931
 20
76.809338141986359
 30
0.0
 11
134.63852027320931
 21
66.91619114198636
 31
0.0
  0
LINE
  5
458
  8
0
 10
204.38852027320931
 20
76.809338141986373
 30
0.0
 11
204.38852027320931
 21
65.809338141986359
 31
0.0
  0
LINE
  5
459
  8
0
 10
196.38852027320931
 20
102.4410861419863
 30
0.0
 11
196.38852027320931
 21
119.6093381419863
 31
0.0
  0
LINE
  5
45A
  8
0
 10
204.38852027320931
 20
56.809338141986352
 30
0.0
 11
204.38852027320931
 21
42.009338141986362
 31
0.0
  0
LINE
  5
45B
  8
3
 10
203.78852027320929
 20
56.809338141986352
 30
0.0
 11
203.78852027320929
 21
41.409338141986353
 31
0.0
  0
LINE
  5
45C
  8
3
 10
196.9885202732093
 20
56.809338141986352
 30
0.0
 11
196.9885202732093
 21
41.409338141986353
 31
0.0
  0
LINE
  5
45D
  8
0
 10
196.38852027320931
 20
65.809338141986359
 30
0.0
 11
196.38852027320931
 21
76.809338141986373
 31
0.0
  0
LINE
  5
473
  8
0
 10
37.888520273209338
 20
56.809338141986359
 30
0.0
 11
52.888520273209338
 21
56.809338141986359
 31
0.0
  0
LINE
  5
474
  8
0
 10
53.388520273209338
 20
57.309338141986352
 30
0.0
 11
53.388520273209338
 21
60.309338141986359
 31
0.0
  0
LINE
  5
475
  8
0
 10
52.888520273209338
 20
60.809338141986359
 30
0.0
 11
52.388520273209338
 21
60.809338141986359
 31
0.0
  0
LINE
  5
476
  8
0
 10
51.38852027320933
 20
61.809338141986359
 30
0.0
 11
51.38852027320933
 21
65.309338141986359
 31
0.0
  0
LINE
  5
477
  8
0
 10
50.888520273209338
 20
65.809338141986359
 30
0.0
 11
49.388520273209352
 21
65.809338141986359
 31
0.0
  0
LINE
  5
478
  8
0
 10
39.388520273209338
 20
65.309338141986359
 30
0.0
 11
39.388520273209338
 21
61.809338141986359
 31
0.0
  0
LINE
  5
479
  8
0
 10
38.388520273209338
 20
60.809338141986359
 30
0.0
 11
37.888520273209338
 21
60.809338141986359
 31
0.0
  0
LINE
  5
47A
  8
0
 10
37.388520273209338
 20
60.309338141986359
 30
0.0
 11
37.388520273209338
 21
57.309338141986352
 31
0.0
  0
LINE
  5
47B
  8
0
 10
37.388520273209338
 20
57.309338141986352
 30
0.0
 11
37.888520273209338
 21
56.809338141986359
 31
0.0
  0
LINE
  5
47C
  8
0
 10
37.388520273209338
 20
60.309338141986359
 30
0.0
 11
37.888520273209338
 21
60.809338141986359
 31
0.0
  0
LINE
  5
47D
  8
0
 10
39.388520273209338
 20
65.309338141986359
 30
0.0
 11
39.888520273209338
 21
65.809338141986359
 31
0.0
  0
LINE
  5
47E
  8
0
 10
50.888520273209338
 20
65.809338141986359
 30
0.0
 11
51.38852027320933
 21
65.309338141986359
 31
0.0
  0
LINE
  5
47F
  8
0
 10
52.888520273209338
 20
60.809338141986359
 30
0.0
 11
53.388520273209338
 21
60.309338141986359
 31
0.0
  0
LINE
  5
480
  8
0
 10
52.888520273209338
 20
56.809338141986359
 30
0.0
 11
53.388520273209338
 21
57.309338141986352
 31
0.0
  0
ARC
  5
481
  8
0
 10
38.388520273209338
 20
61.809338141986359
 30
0.0
 40
1.0
 50
270.0
 51
300.0
  0
ARC
  5
482
  8
0
 10
52.388520273209338
 20
61.809338141986359
 30
0.0
 40
1.0
 50
239.99999999999909
 51
270.0
  0
LINE
  5
483
  8
0
 10
38.388520273209338
 20
60.809338141986359
 30
0.0
 11
38.888520273209338
 21
60.809338141986359
 31
0.0
  0
LINE
  5
484
  8
0
 10
41.38852027320933
 20
65.809338141986359
 30
0.0
 11
39.888520273209338
 21
65.809338141986359
 31
0.0
  0
LINE
  5
485
  8
0
 10
51.888520273209323
 20
60.809338141986359
 30
0.0
 11
52.388520273209338
 21
60.809338141986359
 31
0.0
  0
ARC
  5
4CF
  8
2
 10
115.38852027320929
 20
156.8093381419863
 30
0.0
 40
4.5
 50
270.0
 51
90.0
  0
LINE
  5
558
  8
3
 10
203.6384892732093
 20
99.559338141986373
 30
0.0
 11
203.6384892732093
 21
88.809338141986359
 31
0.0
  0
LINE
  5
559
  8
3
 10
197.1384892732093
 20
99.559338141986373
 30
0.0
 11
197.1384892732093
 21
88.809338141986359
 31
0.0
  0
LINE
  5
55A
  8
0
 10
196.3884892732093
 20
88.809338141986316
 30
0.0
 11
196.3884892732093
 21
98.809338141986359
 31
0.0
  0
LINE
  5
55B
  8
0
 10
196.3884892732093
 20
98.809338141986359
 30
0.0
 11
197.3884892732093
 21
99.809338141986345
 31
0.0
  0
LINE
  5
55C
  8
0
 10
204.38848927320939
 20
88.809338141986316
 30
0.0
 11
204.38848927320939
 21
98.809338141986359
 31
0.0
  0
LINE
  5
55D
  8
0
 10
204.38848927320939
 20
98.809338141986359
 30
0.0
 11
196.3884892732093
 21
98.809338141986359
 31
0.0
  0
LINE
  5
55E
  8
0
 10
204.38848927320939
 20
98.809338141986359
 30
0.0
 11
203.38848927320939
 21
99.809338141986345
 31
0.0
  0
LINE
  5
55F
  8
0
 10
203.38848927320939
 20
99.809338141986345
 30
0.0
 11
197.3884892732093
 21
99.809338141986345
 31
0.0
  0
LINE
  5
561
  8
0
 10
204.38848927320939
 20
93.941086141986347
 30
0.0
 11
208.88852027320931
 21
93.941086141986347
 31
0.0
  0
LINE
  5
562
  8
0
 10
204.38848927320939
 20
92.141086141986335
 30
0.0
 11
209.38852027320931
 21
92.141086141986335
 31
0.0
  0
LINE
  5
563
  8
0
 10
204.38848927320939
 20
91.809338141986359
 30
0.0
 11
208.88852027320931
 21
91.809338141986359
 31
0.0
  0
LINE
  5
565
  8
0
 10
192.8829672732094
 20
61.08444414198636
 30
0.0
 11
192.8829672732094
 21
60.803785141986388
 31
0.0
  0
LINE
  5
566
  8
0
 10
194.13852027320931
 20
61.809338141986359
 30
0.0
 11
194.38852027320931
 21
61.809338141986359
 31
0.0
  0
ARC
  5
567
  8
0
 10
206.01768527320939
 20
58.342431141986353
 30
0.0
 40
3.3225699999999989
 50
64.384247000000045
 51
83.34895589710608
  0
LINE
  5
568
  8
0
 10
207.8940732732093
 20
61.084444141986353
 30
0.0
 11
206.63852027320931
 21
61.809338141986359
 31
0.0
  0
LINE
  5
569
  8
0
 10
207.8940732732093
 20
61.084444141986353
 30
0.0
 11
207.8940732732093
 21
60.803785141986367
 31
0.0
  0
LINE
  5
56A
  8
0
 10
192.8829672732094
 20
61.08444414198636
 30
0.0
 11
194.13852027320931
 21
61.809338141986359
 31
0.0
  0
ARC
  5
56B
  8
0
 10
194.75935527320931
 20
58.342431141986367
 30
0.0
 40
3.3225699999999989
 50
96.651044102893934
 51
115.6157529999999
  0
LINE
  5
56C
  8
0
 10
206.38852027320931
 20
61.809338141986359
 30
0.0
 11
206.63852027320931
 21
61.809338141986359
 31
0.0
  0
TEXT
  5
651
  8
0
 62
     3
 10
0.0
 20
0.0
 30
0.0
 40
10.0
  1
BJ153-08050B1
  7
STANDARD1
  0
ENDSEC
  0
EOF
