  0
SECTION
  2
HEADER
  9
$ACADVER
  1
AC1009
  9
$INSBASE
 10
82.638099999999994
 20
103.82319099999999
 30
0.0
  9
$EXTMIN
 10
0.0
 20
-2.960436562073669
 30
0.0
  9
$EXTMAX
 10
214.7356787493782
 20
175.8328583099254
 30
0.0
  9
$LIMMIN
 10
0.0
 20
0.0
  9
$LIMMAX
 10
375.0
 20
270.0
  9
$ORTHOMODE
 70
     1
  9
$REGENMODE
 70
     1
  9
$FILLMODE
 70
     1
  9
$QTEXTMODE
 70
     0
  9
$MIRRTEXT
 70
     0
  9
$DRAGMODE
 70
     2
  9
$LTSCALE
 40
10.0
  9
$OSMODE
 70
  3071
  9
$ATTMODE
 70
     1
  9
$TEXTSIZE
 40
0.06
  9
$TRACEWID
 40
0.05
  9
$TEXTSTYLE
  7
STANDARD
  9
$CLAYER
  8
0
  9
$CELTYPE
  6
BYLAYER
  9
$CECOLOR
 62
   256
  9
$DIMSCALE
 40
1.0
  9
$DIMASZ
 40
3.0
  9
$DIMEXO
 40
2.0
  9
$DIMDLI
 40
10.0
  9
$DIMRND
 40
0.0
  9
$DIMDLE
 40
0.0
  9
$DIMEXE
 40
2.0
  9
$DIMTP
 40
0.0
  9
$DIMTM
 40
0.0
  9
$DIMTXT
 40
3.0
  9
$DIMCEN
 40
0.0
  9
$DIMTSZ
 40
0.0
  9
$DIMTOL
 70
     0
  9
$DIMLIM
 70
     0
  9
$DIMTIH
 70
     0
  9
$DIMTOH
 70
     0
  9
$DIMSE1
 70
     0
  9
$DIMSE2
 70
     0
  9
$DIMTAD
 70
     1
  9
$DIMZIN
 70
     0
  9
$DIMBLK
  1

  9
$DIMASO
 70
     0
  9
$DIMSHO
 70
     0
  9
$DIMPOST
  1

  9
$DIMAPOST
  1

  9
$DIMALT
 70
     0
  9
$DIMALTD
 70
     2
  9
$DIMALTF
 40
25.399999999999999
  9
$DIMLFAC
 40
1.0
  9
$DIMTOFL
 70
     1
  9
$DIMTVP
 40
1.6000000000000001
  9
$DIMTIX
 70
     1
  9
$DIMSOXD
 70
     0
  9
$DIMSAH
 70
     0
  9
$DIMBLK1
  1

  9
$DIMBLK2
  1

  9
$DIMSTYLE
  2
STANDARD
  9
$DIMCLRD
 70
     0
  9
$DIMCLRE
 70
     0
  9
$DIMCLRT
 70
     0
  9
$DIMTFAC
 40
1.0
  9
$DIMGAP
 40
0.09
  9
$LUNITS
 70
     2
  9
$LUPREC
 70
     4
  9
$SKETCHINC
 40
0.1
  9
$FILLETRAD
 40
0.0
  9
$AUNITS
 70
     0
  9
$AUPREC
 70
     4
  9
$MENU
  1
E:\r13\win\SUPPORT\ACAD
  9
$ELEVATION
 40
0.0
  9
$PELEVATION
 40
0.0
  9
$THICKNESS
 40
0.0
  9
$LIMCHECK
 70
     0
  9
$BLIPMODE
 70
     0
  9
$CHAMFERA
 40
0.0
  9
$CHAMFERB
 40
0.0
  9
$SKPOLY
 70
     0
  9
$TDCREATE
 40
2449840.3466319451
  9
$TDUPDATE
 40
2456597.6345206709
  9
$TDINDWG
 40
0.0090065856
  9
$TDUSRTIMER
 40
0.0090065856
  9
$USRTIMER
 70
     1
  9
$ANGBASE
 50
0.0
  9
$ANGDIR
 70
     0
  9
$PDMODE
 70
     1
  9
$PDSIZE
 40
0.0
  9
$PLINEWID
 40
0.0
  9
$COORDS
 70
     1
  9
$SPLFRAME
 70
     0
  9
$SPLINETYPE
 70
     6
  9
$SPLINESEGS
 70
     8
  9
$ATTDIA
 70
     0
  9
$ATTREQ
 70
     1
  9
$HANDLING
 70
     1
  9
$HANDSEED
  5
625
  9
$SURFTAB1
 70
     6
  9
$SURFTAB2
 70
     6
  9
$SURFTYPE
 70
     6
  9
$SURFU
 70
     6
  9
$SURFV
 70
     6
  9
$UCSNAME
  2

  9
$UCSORG
 10
0.0
 20
0.0
 30
0.0
  9
$UCSXDIR
 10
1.0
 20
0.0
 30
0.0
  9
$UCSYDIR
 10
0.0
 20
1.0
 30
0.0
  9
$PUCSNAME
  2

  9
$PUCSORG
 10
0.0
 20
0.0
 30
0.0
  9
$PUCSXDIR
 10
1.0
 20
0.0
 30
0.0
  9
$PUCSYDIR
 10
0.0
 20
1.0
 30
0.0
  9
$USERI1
 70
     3
  9
$USERI2
 70
     1
  9
$USERI3
 70
     0
  9
$USERI4
 70
     0
  9
$USERI5
 70
     0
  9
$USERR1
 40
1.0
  9
$USERR2
 40
3.0
  9
$USERR3
 40
3.0
  9
$USERR4
 40
3.0
  9
$USERR5
 40
10.0
  9
$WORLDVIEW
 70
     1
  9
$SHADEDGE
 70
     3
  9
$SHADEDIF
 70
    70
  9
$TILEMODE
 70
     1
  9
$MAXACTVP
 70
    16
  9
$PLIMCHECK
 70
     0
  9
$PEXTMIN
 10
1.0000000000000000E+020
 20
1.0000000000000000E+020
 30
1.0000000000000000E+020
  9
$PEXTMAX
 10
-1.0000000000000000E+020
 20
-1.0000000000000000E+020
 30
-1.0000000000000000E+020
  9
$PLIMMIN
 10
0.0
 20
0.0
  9
$PLIMMAX
 10
12.0
 20
9.0
  9
$UNITMODE
 70
     0
  9
$VISRETAIN
 70
     0
  9
$PLINEGEN
 70
     0
  9
$PSLTSCALE
 70
     0
  0
ENDSEC
  0
SECTION
  2
TABLES
  0
TABLE
  2
VPORT
 70
     1
  0
VPORT
  2
*ACTIVE
 70
     0
 10
0.0
 20
0.0
 11
1.0
 21
1.0
 12
195.0581083320873
 22
133.5127261426681
 13
0.0
 23
0.0
 14
5.0
 24
5.0
 15
10.0
 25
10.0
 16
0.0
 26
0.0
 36
1.0
 17
0.0
 27
0.0
 37
0.0
 40
275.42274993631997
 41
1.831871345029239
 42
50.0
 43
0.0
 44
0.0
 50
0.0
 51
0.0
 71
     0
 72
   100
 73
     1
 74
     0
 75
     0
 76
     0
 77
     0
 78
     0
  0
ENDTAB
  0
TABLE
  2
LTYPE
 70
     4
  0
LTYPE
  2
CONTINUOUS
 70
     0
  3
Solid Line
 72
    65
 73
     0
 40
0.0
  0
LTYPE
  2
CENTER
 70
     0
  3
____ _ ____ _ ____ _ ____ _ ____ _ ____ _ ____
 72
    65
 73
     4
 40
2.0
 49
1.25
 49
-0.25
 49
0.25
 49
-0.25
  0
LTYPE
  2
HIDDEN
 70
     0
  3
__ __ __ __ __ __ __ __ __ __ __ __ __ __ __ __
 72
    65
 73
     2
 40
0.375
 49
0.25
 49
-0.125
  0
LTYPE
  2
PHANTOM2
 70
     0
  3
___ _ _ ___ _ _ ___ _ _ ___ _ _
 72
    65
 73
     6
 40
1.25
 49
0.625
 49
-0.125
 49
0.125
 49
-0.125
 49
0.125
 49
-0.125
  0
ENDTAB
  0
TABLE
  2
LAYER
 70
     4
  0
LAYER
  2
0
 70
     0
 62
     7
  6
CONTINUOUS
  0
LAYER
  2
1
 70
     0
 62
     1
  6
CENTER
  0
LAYER
  2
2
 70
     0
 62
     2
  6
HIDDEN
  0
LAYER
  2
3
 70
     0
 62
     3
  6
CONTINUOUS
  0
ENDTAB
  0
TABLE
  2
STYLE
 70
     2
  0
STYLE
  2
STANDARD
 70
     0
 40
0.0
 41
1.0
 50
0.0
 71
     0
 42
0.06
  3
TXT
  4
BIGFONT
  0
STYLE
  2
STANDARD1
 70
     0
 40
0.0
 41
1.0
 50
0.0
 71
     0
 42
3.0
  3
txt
  4

  0
ENDTAB
  0
TABLE
  2
VIEW
 70
     0
  0
ENDTAB
  0
TABLE
  2
UCS
 70
     0
  0
ENDTAB
  0
TABLE
  2
APPID
 70
     4
  0
APPID
  2
ACAD
 70
     0
  0
APPID
  2
ACAD_EXEMPT_FROM_CAD_STANDARDS
 70
     0
  0
APPID
  2
ACAD_MLEADERVER
 70
     0
  0
APPID
  2
ACAD_NAV_VCDISPLAY
 70
     0
  0
ENDTAB
  0
TABLE
  2
DIMSTYLE
 70
     1
  0
DIMSTYLE
  2
STANDARD
 70
     0
  3

  4

  5

  6

  7

 40
1.0
 41
0.18
 42
0.0625
 43
0.38
 44
0.18
 45
0.0
 46
0.0
 47
0.0
 48
0.0
140
0.18
141
0.09
142
0.0
143
25.399999999999999
144
1.0
145
0.0
146
1.0
147
0.09
 71
     0
 72
     0
 73
     1
 74
     1
 75
     0
 76
     0
 77
     0
 78
     0
170
     0
171
     2
172
     0
173
     0
174
     0
175
     0
176
     0
177
     0
178
     0
  0
ENDTAB
  0
ENDSEC
  0
SECTION
  2
BLOCKS
  0
BLOCK
  8
0
  2
$MODEL_SPACE
 70
     0
 10
0.0
 20
0.0
 30
0.0
  3
$MODEL_SPACE
  1

  0
ENDBLK
  5
20F
  8
0
  0
BLOCK
 67
     1
  8
0
  2
$PAPER_SPACE
 70
     0
 10
0.0
 20
0.0
 30
0.0
  3
$PAPER_SPACE
  1

  0
ENDBLK
  5
20D
 67
     1
  8
0
  0
ENDSEC
  0
SECTION
  2
ENTITIES
  0
LINE
  5
27D
  8
0
 10
101.9811627493781
 20
99.14785958840298
 30
0.0
 11
101.9811627493781
 21
87.14785958840298
 31
0.0
  0
LINE
  5
27E
  8
0
 10
95.235678749378167
 20
87.14785958840298
 30
0.0
 11
94.235678749378167
 21
88.14785958840298
 31
0.0
  0
LINE
  5
27F
  8
0
 10
144.23567874937811
 20
88.14785958840298
 30
0.0
 11
143.23567874937811
 21
87.14785958840298
 31
0.0
  0
LINE
  5
280
  8
0
 10
143.23567874937811
 20
99.14785958840298
 30
0.0
 11
144.23567874937811
 21
98.14785958840298
 31
0.0
  0
LINE
  5
281
  8
0
 10
94.235678749378167
 20
96.147859588402994
 30
0.0
 11
99.43183074937815
 21
99.14785958840298
 31
0.0
  0
LINE
  5
282
  8
2
 10
132.23567874937811
 20
92.14785958840298
 30
0.0
 11
132.23567874937811
 21
99.14785958840298
 31
0.0
  0
LINE
  5
283
  8
2
 10
132.91217874937811
 20
92.14785958840298
 30
0.0
 11
132.91217874937811
 21
99.14785958840298
 31
0.0
  0
LINE
  5
284
  8
2
 10
139.55917874937811
 20
92.14785958840298
 30
0.0
 11
139.55917874937811
 21
99.14785958840298
 31
0.0
  0
LINE
  5
285
  8
2
 10
140.23567874937811
 20
92.14785958840298
 30
0.0
 11
140.23567874937811
 21
99.14785958840298
 31
0.0
  0
LINE
  5
286
  8
2
 10
101.7356787493781
 20
87.14785958840298
 30
0.0
 11
101.7356787493781
 21
99.14785958840298
 31
0.0
  0
LINE
  5
287
  8
2
 10
124.7356787493781
 20
92.14785958840298
 30
0.0
 11
124.7356787493781
 21
99.14785958840298
 31
0.0
  0
LINE
  5
288
  8
2
 10
144.23567874937811
 20
92.14785958840298
 30
0.0
 11
120.2356787493781
 21
92.14785958840298
 31
0.0
  0
LINE
  5
289
  8
1
 10
106.2356787493781
 20
84.14785958840298
 30
0.0
 11
106.2356787493781
 21
102.14785958840299
 31
0.0
  0
LINE
  5
28C
  8
0
 10
144.23567874937811
 20
98.14785958840298
 30
0.0
 11
144.23567874937811
 21
88.14785958840298
 31
0.0
  0
LINE
  5
28D
  8
0
 10
99.43183074937815
 20
99.14785958840298
 30
0.0
 11
143.23567874937811
 21
99.14785958840298
 31
0.0
  0
LINE
  5
28E
  8
0
 10
94.235678749378167
 20
88.14785958840298
 30
0.0
 11
94.235678749378167
 21
96.147859588402994
 31
0.0
  0
LINE
  5
28F
  8
0
 10
143.23567874937811
 20
87.14785958840298
 30
0.0
 11
95.235678749378167
 21
87.14785958840298
 31
0.0
  0
LINE
  5
290
  8
3
 10
46.835678749378161
 20
64.14785958840298
 30
0.0
 11
46.83567874937814
 21
57.14785958840298
 31
0.0
  0
LINE
  5
291
  8
3
 10
53.635678749378172
 20
64.14785958840298
 30
0.0
 11
53.635678749378172
 21
57.14785958840298
 31
0.0
  0
LINE
  5
292
  8
3
 10
54.23567874937816
 20
65.187089588402984
 30
0.0
 11
53.635678749378172
 21
64.14785958840298
 31
0.0
  0
LINE
  5
293
  8
0
 10
46.23567874937816
 20
64.14785958840298
 30
0.0
 11
54.23567874937816
 21
64.14785958840298
 31
0.0
  0
LINE
  5
294
  8
3
 10
46.23567874937816
 20
65.187089588402984
 30
0.0
 11
46.835678749378161
 21
64.14785958840298
 31
0.0
  0
LINE
  5
295
  8
1
 10
50.235678749378167
 20
137.14785958840301
 30
0.0
 11
50.235678749378167
 21
27.14785958840298
 31
0.0
  0
LINE
  5
296
  8
3
 10
53.635678749378172
 20
112.7796075884029
 30
0.0
 11
53.635678749378172
 21
131.54785958840301
 31
0.0
  0
LINE
  5
299
  8
0
 10
46.23567874937816
 20
130.94785958840299
 30
0.0
 11
54.23567874937816
 21
130.94785958840299
 31
0.0
  0
LINE
  5
29A
  8
0
 10
46.23567874937816
 20
33.347859588402983
 30
0.0
 11
54.23567874937816
 21
33.347859588402983
 31
0.0
  0
LINE
  5
29B
  8
0
 10
53.035678749378157
 20
32.14785958840298
 30
0.0
 11
54.23567874937816
 21
33.347859588402983
 31
0.0
  0
LINE
  5
29C
  8
0
 10
46.23567874937816
 20
33.347859588402983
 30
0.0
 11
47.435678749378162
 21
32.14785958840298
 31
0.0
  0
LINE
  5
29D
  8
0
 10
53.035678749378157
 20
132.14785958840301
 30
0.0
 11
54.23567874937816
 21
130.94785958840299
 31
0.0
  0
LINE
  5
29E
  8
0
 10
46.23567874937816
 20
130.94785958840299
 30
0.0
 11
47.435678749378162
 21
132.14785958840301
 31
0.0
  0
LINE
  5
29F
  8
0
 10
54.23567874937816
 20
130.94785958840299
 30
0.0
 11
54.235678749378181
 21
112.7796075884029
 31
0.0
  0
LINE
  5
2A0
  8
0
 10
47.435678749378162
 20
132.14785958840301
 30
0.0
 11
53.035678749378157
 21
132.14785958840301
 31
0.0
  0
LINE
  5
2A1
  8
0
 10
46.23567874937816
 20
33.347859588402983
 30
0.0
 11
46.23567874937816
 21
52.147859588402987
 31
0.0
  0
LINE
  5
2A2
  8
0
 10
53.035678749378157
 20
32.14785958840298
 30
0.0
 11
47.435678749378162
 21
32.14785958840298
 31
0.0
  0
LINE
  5
2A3
  8
3
 10
46.835678749378161
 20
112.7796075884029
 30
0.0
 11
46.835678749378161
 21
131.54785958840301
 31
0.0
  0
LINE
  5
2A5
  8
3
 10
201.83567874937819
 20
62.341315126864572
 30
0.0
 11
201.83567874937819
 21
61.147859588402973
 31
0.0
  0
LINE
  5
2A6
  8
3
 10
208.63567874937809
 20
62.341315126864487
 30
0.0
 11
208.63567874937809
 21
61.147859588402973
 31
0.0
  0
LINE
  5
2AA
  8
1
 10
205.2356787493782
 20
137.14785958840301
 30
0.0
 11
205.2356787493782
 21
27.14785958840298
 31
0.0
  0
LINE
  5
2AB
  8
3
 10
208.6356787493782
 20
114.747859588403
 30
0.0
 11
208.6356787493782
 21
131.54785958840301
 31
0.0
  0
LINE
  5
2AE
  8
0
 10
201.2356787493782
 20
130.94785958840299
 30
0.0
 11
209.2356787493782
 21
130.94785958840299
 31
0.0
  0
LINE
  5
2AF
  8
0
 10
201.2356787493782
 20
33.347859588402983
 30
0.0
 11
209.2356787493782
 21
33.347859588402983
 31
0.0
  0
LINE
  5
2B0
  8
0
 10
208.03567874937821
 20
32.14785958840298
 30
0.0
 11
209.2356787493782
 21
33.347859588402983
 31
0.0
  0
LINE
  5
2B1
  8
0
 10
201.2356787493782
 20
33.347859588402983
 30
0.0
 11
202.43567874937821
 21
32.14785958840298
 31
0.0
  0
LINE
  5
2B2
  8
0
 10
208.03567874937821
 20
132.14785958840301
 30
0.0
 11
209.2356787493782
 21
130.94785958840299
 31
0.0
  0
LINE
  5
2B3
  8
0
 10
201.2356787493782
 20
130.94785958840299
 30
0.0
 11
202.43567874937821
 21
132.14785958840301
 31
0.0
  0
LINE
  5
2B4
  8
0
 10
209.2356787493782
 20
130.94785958840299
 30
0.0
 11
209.2356787493782
 21
99.147859588402966
 31
0.0
  0
LINE
  5
2B5
  8
0
 10
202.43567874937821
 20
132.14785958840301
 30
0.0
 11
208.03567874937821
 21
132.14785958840301
 31
0.0
  0
LINE
  5
2B6
  8
0
 10
201.2356787493782
 20
33.347859588402983
 30
0.0
 11
201.2356787493782
 21
52.147859588402959
 31
0.0
  0
LINE
  5
2B7
  8
0
 10
208.03567874937821
 20
32.14785958840298
 30
0.0
 11
202.43567874937821
 21
32.14785958840298
 31
0.0
  0
LINE
  5
2B8
  8
3
 10
201.83567874937819
 20
114.747859588403
 30
0.0
 11
201.83567874937819
 21
131.54785958840301
 31
0.0
  0
LINE
  5
2C5
  8
0
 10
207.9356787493781
 20
61.93716958840298
 30
0.0
 11
207.9356787493781
 21
61.14785958840298
 31
0.0
  0
LINE
  5
2C6
  8
0
 10
207.9356787493781
 20
61.93716958840298
 30
0.0
 11
205.2356787493782
 21
61.93716958840298
 31
0.0
  0
LINE
  5
2C7
  8
0
 10
209.2356787493782
 20
62.687725588402976
 30
0.0
 11
207.9356787493781
 21
61.93716958840298
 31
0.0
  0
LINE
  5
2C8
  8
0
 10
202.53567874937821
 20
61.93716958840298
 30
0.0
 11
202.53567874937821
 21
61.14785958840298
 31
0.0
  0
LINE
  5
2C9
  8
0
 10
202.53567874937821
 20
61.93716958840298
 30
0.0
 11
205.2356787493782
 21
61.93716958840298
 31
0.0
  0
LINE
  5
2CA
  8
0
 10
201.2356787493782
 20
62.687725588402976
 30
0.0
 11
202.53567874937821
 21
61.93716958840298
 31
0.0
  0
LINE
  5
2CB
  8
0
 10
201.2356787493782
 20
62.687725588402976
 30
0.0
 11
209.2356787493782
 21
62.687725588402976
 31
0.0
  0
LINE
  5
2CC
  8
0
 10
198.23567874937811
 20
56.14785958840298
 30
0.0
 11
212.2356787493782
 21
56.14785958840298
 31
0.0
  0
ARC
  5
2CD
  8
0
 10
212.2356787493782
 20
57.14785958840298
 30
0.0
 40
1.0
 50
180.0
 51
270.0
  0
ARC
  5
2CE
  8
0
 10
198.23567874937811
 20
57.14785958840298
 30
0.0
 40
1.0
 50
270.0
 51
0.0
  0
LINE
  5
2CF
  8
0
 10
212.73567874937811
 20
52.14785958840298
 30
0.0
 11
213.2356787493782
 21
52.64785958840298
 31
0.0
  0
LINE
  5
2D0
  8
0
 10
212.73567874937811
 20
56.14785958840298
 30
0.0
 11
213.2356787493782
 21
55.64785958840298
 31
0.0
  0
LINE
  5
2D1
  8
0
 10
210.73567874937811
 20
61.14785958840298
 30
0.0
 11
211.2356787493782
 21
60.64785958840298
 31
0.0
  0
LINE
  5
2D2
  8
0
 10
199.2356787493782
 20
60.64785958840298
 30
0.0
 11
199.73567874937811
 21
61.14785958840298
 31
0.0
  0
LINE
  5
2D3
  8
0
 10
197.23567874937811
 20
55.64785958840298
 30
0.0
 11
197.73567874937811
 21
56.14785958840298
 31
0.0
  0
LINE
  5
2D4
  8
0
 10
197.23567874937811
 20
52.64785958840298
 30
0.0
 11
197.73567874937811
 21
52.14785958840298
 31
0.0
  0
LINE
  5
2D5
  8
0
 10
197.23567874937811
 20
55.64785958840298
 30
0.0
 11
197.23567874937811
 21
52.64785958840298
 31
0.0
  0
LINE
  5
2D6
  8
0
 10
198.23567874937811
 20
56.14785958840298
 30
0.0
 11
197.73567874937811
 21
56.14785958840298
 31
0.0
  0
LINE
  5
2D7
  8
0
 10
199.2356787493782
 20
60.64785958840298
 30
0.0
 11
199.2356787493782
 21
57.14785958840298
 31
0.0
  0
LINE
  5
2D8
  8
0
 10
210.73567874937811
 20
61.14785958840298
 30
0.0
 11
199.73567874937811
 21
61.14785958840298
 31
0.0
  0
LINE
  5
2D9
  8
0
 10
211.2356787493782
 20
57.14785958840298
 30
0.0
 11
211.2356787493782
 21
60.64785958840298
 31
0.0
  0
LINE
  5
2DA
  8
0
 10
212.73567874937811
 20
56.14785958840298
 30
0.0
 11
212.2356787493782
 21
56.14785958840298
 31
0.0
  0
LINE
  5
2DB
  8
0
 10
213.2356787493782
 20
52.64785958840298
 30
0.0
 11
213.2356787493782
 21
55.64785958840298
 31
0.0
  0
LINE
  5
2DC
  8
0
 10
197.73567874937811
 20
52.14785958840298
 30
0.0
 11
212.73567874937811
 21
52.14785958840298
 31
0.0
  0
LINE
  5
2DD
  8
1
 10
136.23567874937811
 20
49.658454588402982
 30
0.0
 11
136.23567874937811
 21
117.64785958840299
 31
0.0
  0
LINE
  5
2DE
  8
0
 10
139.23567874937811
 20
115.14785958840299
 30
0.0
 11
133.23567874937811
 21
115.14785958840299
 31
0.0
  0
LINE
  5
2DF
  8
0
 10
140.23567874937811
 20
114.14785958840299
 30
0.0
 11
139.23567874937811
 21
115.14785958840299
 31
0.0
  0
LINE
  5
2E0
  8
0
 10
140.23567874937811
 20
114.14785958840299
 30
0.0
 11
132.23567874937811
 21
114.14785958840299
 31
0.0
  0
LINE
  5
2E1
  8
3
 10
139.48567874937811
 20
114.89785958840289
 30
0.0
 11
139.48567874937811
 21
99.14785958840298
 31
0.0
  0
LINE
  5
2E2
  8
0
 10
140.23567874937811
 20
62.687725588402976
 30
0.0
 11
140.23567874937811
 21
87.14785958840298
 31
0.0
  0
LINE
  5
2E3
  8
3
 10
132.98567874937811
 20
114.89785958840289
 30
0.0
 11
132.98567874937811
 21
99.14785958840298
 31
0.0
  0
LINE
  5
2E5
  8
0
 10
132.23567874937811
 20
114.14785958840299
 30
0.0
 11
133.23567874937811
 21
115.14785958840299
 31
0.0
  0
LINE
  5
2E7
  8
0
 10
132.23567874937811
 20
62.687725588402976
 30
0.0
 11
132.23567874937811
 21
87.14785958840298
 31
0.0
  0
LINE
  5
2E8
  8
0
 10
138.9356787493781
 20
61.93716958840298
 30
0.0
 11
138.9356787493781
 21
61.14785958840298
 31
0.0
  0
LINE
  5
2EA
  8
0
 10
140.23567874937811
 20
62.687725588402976
 30
0.0
 11
138.9356787493781
 21
61.93716958840298
 31
0.0
  0
LINE
  5
2EB
  8
0
 10
133.53567874937809
 20
61.93716958840298
 30
0.0
 11
133.53567874937809
 21
61.14785958840298
 31
0.0
  0
LINE
  5
2EC
  8
0
 10
133.53567874937809
 20
61.93716958840298
 30
0.0
 11
138.9356787493781
 21
61.93716958840298
 31
0.0
  0
LINE
  5
2ED
  8
0
 10
132.23567874937811
 20
62.687725588402976
 30
0.0
 11
133.53567874937809
 21
61.93716958840298
 31
0.0
  0
LINE
  5
2EE
  8
0
 10
132.23567874937811
 20
62.687725588402976
 30
0.0
 11
140.23567874937811
 21
62.687725588402976
 31
0.0
  0
LINE
  5
2EF
  8
0
 10
129.2356787493782
 20
56.14785958840298
 30
0.0
 11
143.23567874937811
 21
56.14785958840298
 31
0.0
  0
ARC
  5
2F0
  8
0
 10
143.23567874937811
 20
57.14785958840298
 30
0.0
 40
1.0
 50
180.0
 51
270.0
  0
ARC
  5
2F1
  8
0
 10
129.2356787493782
 20
57.14785958840298
 30
0.0
 40
1.0
 50
270.0
 51
0.0
  0
LINE
  5
2F2
  8
0
 10
143.73567874937811
 20
52.14785958840298
 30
0.0
 11
144.23567874937811
 21
52.64785958840298
 31
0.0
  0
LINE
  5
2F3
  8
0
 10
143.73567874937811
 20
56.14785958840298
 30
0.0
 11
144.23567874937811
 21
55.64785958840298
 31
0.0
  0
LINE
  5
2F4
  8
0
 10
141.7356787493782
 20
61.14785958840298
 30
0.0
 11
142.23567874937811
 21
60.64785958840298
 31
0.0
  0
LINE
  5
2F5
  8
0
 10
130.23567874937811
 20
60.64785958840298
 30
0.0
 11
130.73567874937811
 21
61.14785958840298
 31
0.0
  0
LINE
  5
2F6
  8
0
 10
128.2356787493782
 20
55.64785958840298
 30
0.0
 11
128.73567874937811
 21
56.14785958840298
 31
0.0
  0
LINE
  5
2F7
  8
0
 10
128.2356787493782
 20
52.64785958840298
 30
0.0
 11
128.73567874937811
 21
52.14785958840298
 31
0.0
  0
LINE
  5
2F8
  8
0
 10
128.2356787493782
 20
55.64785958840298
 30
0.0
 11
128.2356787493782
 21
52.64785958840298
 31
0.0
  0
LINE
  5
2F9
  8
0
 10
129.2356787493782
 20
56.14785958840298
 30
0.0
 11
128.73567874937811
 21
56.14785958840298
 31
0.0
  0
LINE
  5
2FA
  8
0
 10
130.23567874937811
 20
60.64785958840298
 30
0.0
 11
130.23567874937811
 21
57.14785958840298
 31
0.0
  0
LINE
  5
2FB
  8
0
 10
141.7356787493782
 20
61.14785958840298
 30
0.0
 11
130.73567874937811
 21
61.14785958840298
 31
0.0
  0
LINE
  5
2FC
  8
0
 10
142.23567874937811
 20
57.14785958840298
 30
0.0
 11
142.23567874937811
 21
60.64785958840298
 31
0.0
  0
LINE
  5
2FD
  8
0
 10
143.73567874937811
 20
56.14785958840298
 30
0.0
 11
143.23567874937811
 21
56.14785958840298
 31
0.0
  0
LINE
  5
2FE
  8
0
 10
144.23567874937811
 20
52.64785958840298
 30
0.0
 11
144.23567874937811
 21
55.64785958840298
 31
0.0
  0
LINE
  5
2FF
  8
0
 10
128.73567874937811
 20
52.14785958840298
 30
0.0
 11
143.73567874937811
 21
52.14785958840298
 31
0.0
  0
LINE
  5
300
  8
3
 10
116.8356787493781
 20
64.14785958840298
 30
0.0
 11
116.8356787493782
 21
57.14785958840298
 31
0.0
  0
LINE
  5
301
  8
3
 10
123.6356787493781
 20
64.14785958840298
 30
0.0
 11
123.6356787493781
 21
57.14785958840298
 31
0.0
  0
LINE
  5
302
  8
3
 10
124.2356787493781
 20
65.187089588402984
 30
0.0
 11
123.6356787493781
 21
64.14785958840298
 31
0.0
  0
LINE
  5
303
  8
0
 10
116.2356787493781
 20
64.14785958840298
 30
0.0
 11
124.2356787493781
 21
64.14785958840298
 31
0.0
  0
LINE
  5
304
  8
3
 10
116.2356787493781
 20
65.187089588402984
 30
0.0
 11
116.8356787493781
 21
64.14785958840298
 31
0.0
  0
LINE
  5
305
  8
1
 10
120.2356787493781
 20
137.14785958840301
 30
0.0
 11
120.2356787493781
 21
27.14785958840298
 31
0.0
  0
LINE
  5
306
  8
3
 10
123.6356787493781
 20
112.7796075884029
 30
0.0
 11
123.6356787493781
 21
131.54785958840301
 31
0.0
  0
LINE
  5
309
  8
0
 10
116.2356787493781
 20
130.94785958840299
 30
0.0
 11
124.2356787493781
 21
130.94785958840299
 31
0.0
  0
LINE
  5
30A
  8
0
 10
116.2356787493781
 20
33.347859588402983
 30
0.0
 11
124.2356787493781
 21
33.347859588402983
 31
0.0
  0
LINE
  5
30B
  8
0
 10
123.03567874937811
 20
32.14785958840298
 30
0.0
 11
124.2356787493781
 21
33.347859588402983
 31
0.0
  0
LINE
  5
30C
  8
0
 10
116.2356787493781
 20
33.347859588402983
 30
0.0
 11
117.4356787493781
 21
32.14785958840298
 31
0.0
  0
LINE
  5
30D
  8
0
 10
123.03567874937811
 20
132.14785958840301
 30
0.0
 11
124.2356787493781
 21
130.94785958840299
 31
0.0
  0
LINE
  5
30E
  8
0
 10
116.2356787493781
 20
130.94785958840299
 30
0.0
 11
117.4356787493781
 21
132.14785958840301
 31
0.0
  0
LINE
  5
30F
  8
0
 10
124.2356787493781
 20
130.94785958840299
 30
0.0
 11
124.2356787493782
 21
112.779607588403
 31
0.0
  0
LINE
  5
310
  8
0
 10
117.4356787493781
 20
132.14785958840301
 30
0.0
 11
123.03567874937811
 21
132.14785958840301
 31
0.0
  0
LINE
  5
311
  8
0
 10
116.2356787493781
 20
33.347859588402983
 30
0.0
 11
116.2356787493781
 21
52.14785958840298
 31
0.0
  0
LINE
  5
312
  8
0
 10
123.03567874937811
 20
32.14785958840298
 30
0.0
 11
117.4356787493781
 21
32.14785958840298
 31
0.0
  0
LINE
  5
313
  8
3
 10
116.8356787493782
 20
112.7796075884029
 30
0.0
 11
116.8356787493781
 21
131.54785958840301
 31
0.0
  0
LINE
  5
317
  8
0
 10
56.73567874937816
 20
57.003521588402968
 30
0.0
 11
56.485678749378167
 21
57.14785958840298
 31
0.0
  0
ARC
  5
318
  8
0
 10
53.485678749378167
 20
47.616369588402982
 30
0.0
 40
9.3871520000000004
 50
69.743841999999773
 51
110.2561580000002
  0
ARC
  5
319
  8
0
 10
53.485678749378167
 20
61.679349588402978
 30
0.0
 40
9.3871520000000004
 50
249.7438419999998
 51
290.2561580000002
  0
LINE
  5
31A
  8
0
 10
56.73567874937816
 20
52.292197588402978
 30
0.0
 11
56.485678749378167
 21
52.14785958840298
 31
0.0
  0
LINE
  5
31B
  8
0
 10
56.73567874937816
 20
57.003521588402968
 30
0.0
 11
56.73567874937816
 21
52.292197588402978
 31
0.0
  0
LINE
  5
31C
  8
0
 10
50.235678749378167
 20
56.422965588402967
 30
0.0
 11
50.235678749378167
 21
52.872753588402979
 31
0.0
  0
LINE
  5
31D
  8
0
 10
43.73567874937816
 20
57.003521588402968
 30
0.0
 11
43.73567874937816
 21
52.292197588402978
 31
0.0
  0
LINE
  5
31E
  8
0
 10
43.73567874937816
 20
52.292197588402978
 30
0.0
 11
43.985678749378167
 21
52.14785958840298
 31
0.0
  0
ARC
  5
31F
  8
0
 10
46.985678749378167
 20
61.679349588402978
 30
0.0
 40
9.3871520000000004
 50
249.7438419999998
 51
290.2561580000002
  0
ARC
  5
320
  8
0
 10
46.985678749378167
 20
47.616369588402982
 30
0.0
 40
9.3871520000000004
 50
69.743841999999773
 51
110.2561580000002
  0
LINE
  5
321
  8
0
 10
43.73567874937816
 20
57.003521588402968
 30
0.0
 11
43.985678749378167
 21
57.14785958840298
 31
0.0
  0
LINE
  5
322
  8
0
 10
43.985678749378167
 20
57.14785958840298
 30
0.0
 11
56.485678749378167
 21
57.14785958840298
 31
0.0
  0
LINE
  5
324
  8
1
 10
120.2356787493781
 20
175.8328583099254
 30
0.0
 11
120.2356787493781
 21
148.4628608668805
 31
0.0
  0
CIRCLE
  5
326
  8
0
 10
120.2356787493781
 20
162.14785958840301
 30
0.0
 40
9.0
  0
CIRCLE
  5
327
  8
3
 10
120.2356787493781
 20
162.14785958840301
 30
0.0
 40
3.399999999999999
  0
CIRCLE
  5
328
  8
0
 10
120.2356787493781
 20
162.14785958840301
 30
0.0
 40
4.0
  0
LINE
  5
329
  8
0
 10
124.25918974937809
 20
156.11678558840299
 30
0.0
 11
127.4704977493781
 21
161.67893358840291
 31
0.0
  0
LINE
  5
32A
  8
0
 10
127.4704977493781
 20
162.61678558840299
 30
0.0
 11
124.25918974937809
 21
168.17893358840291
 31
0.0
  0
LINE
  5
32B
  8
0
 10
123.4469867493781
 20
168.64785958840301
 30
0.0
 11
117.02437074937809
 21
168.64785958840301
 31
0.0
  0
LINE
  5
32C
  8
0
 10
116.2121677493781
 20
168.17893358840291
 30
0.0
 11
113.00085974937819
 21
162.61678558840299
 31
0.0
  0
LINE
  5
32D
  8
0
 10
113.00085974937819
 20
161.67893358840291
 30
0.0
 11
116.2121677493781
 21
156.11678558840299
 31
0.0
  0
LINE
  5
32E
  8
0
 10
117.02437074937809
 20
155.64785958840301
 30
0.0
 11
123.4469867493781
 21
155.64785958840301
 31
0.0
  0
ARC
  5
32F
  8
0
 10
120.2356787493781
 20
162.14785958840301
 30
0.0
 40
7.25
 50
56.29155499999964
 51
63.70844500000004
  0
ARC
  5
330
  8
0
 10
120.2356787493781
 20
162.14785958840301
 30
0.0
 40
7.25
 50
116.2915549999999
 51
123.7084450000003
  0
ARC
  5
331
  8
0
 10
120.2356787493781
 20
162.14785958840301
 30
0.0
 40
7.25
 50
176.2915550000003
 51
183.70844499999961
  0
ARC
  5
332
  8
0
 10
120.2356787493781
 20
162.14785958840301
 30
0.0
 40
7.25
 50
236.29155499999959
 51
243.70844500000001
  0
ARC
  5
333
  8
0
 10
120.2356787493781
 20
162.14785958840301
 30
0.0
 40
7.25
 50
296.2915549999999
 51
303.70844500000038
  0
ARC
  5
334
  8
0
 10
120.2356787493781
 20
162.14785958840301
 30
0.0
 40
7.25
 50
356.29155500000041
 51
3.7084449999996449
  0
CIRCLE
  5
335
  8
0
 10
120.2356787493781
 20
162.14785958840301
 30
0.0
 40
6.25
  0
LINE
  5
336
  8
0
 10
112.7301257493781
 20
56.422965588402988
 30
0.0
 11
112.7301257493781
 21
52.872753588402979
 31
0.0
  0
LINE
  5
337
  8
0
 10
126.4856787493781
 20
52.14785958840298
 30
0.0
 11
113.9856787493781
 21
52.14785958840298
 31
0.0
  0
LINE
  5
338
  8
0
 10
113.9856787493781
 20
57.14785958840298
 30
0.0
 11
126.4856787493781
 21
57.14785958840298
 31
0.0
  0
ARC
  5
339
  8
0
 10
125.8648437493781
 20
53.680952588402967
 30
0.0
 40
3.3225699999999989
 50
64.384247000000045
 51
124.3842470000003
  0
LINE
  5
33A
  8
0
 10
127.7412317493781
 20
56.422965588402967
 30
0.0
 11
126.4856787493781
 21
57.14785958840298
 31
0.0
  0
LINE
  5
33B
  8
0
 10
127.7412317493781
 20
52.872753588402972
 30
0.0
 11
126.4856787493781
 21
52.14785958840298
 31
0.0
  0
ARC
  5
33C
  8
0
 10
125.8648437493781
 20
55.614766588402972
 30
0.0
 40
3.3225699999999989
 50
235.6157529999997
 51
295.61575299999998
  0
LINE
  5
33D
  8
0
 10
127.7412317493781
 20
56.422965588402967
 30
0.0
 11
127.7412317493781
 21
52.872753588402972
 31
0.0
  0
LINE
  5
33E
  8
0
 10
123.9884557493782
 20
56.422965588402967
 30
0.0
 11
123.9884557493782
 21
52.872753588402979
 31
0.0
  0
LINE
  5
33F
  8
0
 10
116.4829017493781
 20
56.422965588402967
 30
0.0
 11
116.4829017493781
 21
52.872753588402979
 31
0.0
  0
ARC
  5
340
  8
0
 10
120.2356787493781
 20
64.711640588402986
 30
0.0
 40
12.419442999999999
 50
252.41204599999929
 51
287.58795400000082
  0
ARC
  5
341
  8
0
 10
114.6065137493781
 20
55.614766588402979
 30
0.0
 40
3.3225699999999989
 50
244.38424699999999
 51
304.3842470000003
  0
LINE
  5
342
  8
0
 10
112.7301257493781
 20
52.872753588402979
 30
0.0
 11
113.9856787493781
 21
52.14785958840298
 31
0.0
  0
LINE
  5
343
  8
0
 10
112.7301257493781
 20
56.422965588402988
 30
0.0
 11
113.9856787493781
 21
57.14785958840298
 31
0.0
  0
ARC
  5
344
  8
0
 10
120.2356787493781
 20
44.584078588402967
 30
0.0
 40
12.419442999999999
 50
72.412045999999265
 51
107.58795400000071
  0
ARC
  5
345
  8
0
 10
114.6065137493781
 20
53.680952588402981
 30
0.0
 40
3.3225699999999989
 50
55.615752999999671
 51
115.6157529999999
  0
LINE
  5
348
  8
0
 10
59.735678749378167
 20
98.14785958840298
 30
0.0
 11
58.73567874937816
 21
99.14785958840298
 31
0.0
  0
LINE
  5
349
  8
0
 10
58.73567874937816
 20
87.14785958840298
 30
0.0
 11
59.735678749378167
 21
88.14785958840298
 31
0.0
  0
LINE
  5
34A
  8
0
 10
40.735678749378167
 20
88.14785958840298
 30
0.0
 11
41.73567874937816
 21
87.14785958840298
 31
0.0
  0
LINE
  5
34B
  8
0
 10
41.73567874937816
 20
99.14785958840298
 30
0.0
 11
40.735678749378167
 21
98.14785958840298
 31
0.0
  0
LINE
  5
34D
  8
0
 10
41.73567874937816
 20
99.14785958840298
 30
0.0
 11
58.73567874937816
 21
99.14785958840298
 31
0.0
  0
LINE
  5
34E
  8
0
 10
40.735678749378167
 20
88.14785958840298
 30
0.0
 11
40.735678749378167
 21
98.14785958840298
 31
0.0
  0
LINE
  5
34F
  8
0
 10
58.73567874937816
 20
87.14785958840298
 30
0.0
 11
41.73567874937816
 21
87.14785958840298
 31
0.0
  0
LINE
  5
350
  8
0
 10
59.735678749378167
 20
98.14785958840298
 30
0.0
 11
59.735678749378167
 21
88.14785958840298
 31
0.0
  0
LINE
  5
351
  8
0
 10
45.235678749378167
 20
96.147859588402994
 30
0.0
 11
45.235678749378167
 21
87.14785958840298
 31
0.0
  0
LINE
  5
352
  8
0
 10
55.235678749378167
 20
96.147859588402994
 30
0.0
 11
55.235678749378167
 21
87.14785958840298
 31
0.0
  0
LINE
  5
353
  8
0
 10
55.235678749378167
 20
96.147859588402994
 30
0.0
 11
45.235678749378167
 21
96.147859588402994
 31
0.0
  0
LINE
  5
354
  8
0
 10
42.348927749378163
 20
99.14785958840298
 30
0.0
 11
45.235678749378167
 21
96.147859588402994
 31
0.0
  0
LINE
  5
355
  8
0
 10
58.122429749378171
 20
99.14785958840298
 30
0.0
 11
55.235678749378167
 21
96.147859588402994
 31
0.0
  0
LINE
  5
358
  8
0
 10
195.73567874937811
 20
88.14785958840298
 30
0.0
 11
195.73567874937811
 21
98.14785958840298
 31
0.0
  0
LINE
  5
359
  8
0
 10
196.73567874937811
 20
99.14785958840298
 30
0.0
 11
213.7356787493782
 21
99.14785958840298
 31
0.0
  0
LINE
  5
35A
  8
0
 10
214.7356787493782
 20
98.14785958840298
 30
0.0
 11
214.7356787493782
 21
88.14785958840298
 31
0.0
  0
LINE
  5
35B
  8
0
 10
213.7356787493782
 20
87.14785958840298
 30
0.0
 11
196.73567874937811
 21
87.14785958840298
 31
0.0
  0
LINE
  5
35D
  8
0
 10
200.7356787493782
 20
87.14785958840298
 30
0.0
 11
200.7356787493782
 21
92.14785958840298
 31
0.0
  0
LINE
  5
35E
  8
0
 10
209.7356787493782
 20
87.14785958840298
 30
0.0
 11
209.7356787493782
 21
92.14785958840298
 31
0.0
  0
LINE
  5
35F
  8
0
 10
209.7356787493782
 20
92.14785958840298
 30
0.0
 11
200.7356787493782
 21
92.14785958840298
 31
0.0
  0
LINE
  5
360
  8
0
 10
213.7356787493782
 20
87.14785958840298
 30
0.0
 11
214.7356787493782
 21
88.14785958840298
 31
0.0
  0
LINE
  5
361
  8
0
 10
214.7356787493782
 20
98.14785958840298
 30
0.0
 11
213.7356787493782
 21
99.14785958840298
 31
0.0
  0
LINE
  5
362
  8
0
 10
196.73567874937811
 20
99.14785958840298
 30
0.0
 11
195.73567874937811
 21
98.14785958840298
 31
0.0
  0
LINE
  5
363
  8
0
 10
195.73567874937811
 20
88.14785958840298
 30
0.0
 11
196.73567874937811
 21
87.14785958840298
 31
0.0
  0
LINE
  5
364
  8
0
 10
135.08097774937809
 20
160.14785958840301
 30
0.0
 11
137.3903797493781
 21
160.14785958840301
 31
0.0
  0
LINE
  5
365
  8
0
 10
137.3903797493781
 20
160.14785958840301
 30
0.0
 11
138.54507974937809
 21
162.14785958840301
 31
0.0
  0
LINE
  5
366
  8
0
 10
138.54507974937809
 20
162.14785958840301
 30
0.0
 11
137.3903797493781
 21
164.14785958840301
 31
0.0
  0
LINE
  5
367
  8
0
 10
137.3903797493781
 20
164.14785958840301
 30
0.0
 11
135.08097774937809
 21
164.14785958840301
 31
0.0
  0
LINE
  5
368
  8
0
 10
135.08097774937809
 20
164.14785958840301
 30
0.0
 11
133.9262777493781
 21
162.14785958840301
 31
0.0
  0
LINE
  5
369
  8
0
 10
133.9262777493781
 20
162.14785958840301
 30
0.0
 11
135.08097774937809
 21
160.14785958840301
 31
0.0
  0
LINE
  5
36A
  8
1
 10
136.23567874937811
 20
172.64785958840301
 30
0.0
 11
136.23567874937811
 21
151.64785958840301
 31
0.0
  0
CIRCLE
  5
36C
  8
3
 10
136.23567874937811
 20
162.14785958840301
 30
0.0
 40
3.25
  0
CIRCLE
  5
36D
  8
0
 10
136.23567874937811
 20
162.14785958840301
 30
0.0
 40
4.0
  0
CIRCLE
  5
36E
  8
2
 10
136.23567874937811
 20
162.14785958840301
 30
0.0
 40
6.0
  0
CIRCLE
  5
36F
  8
2
 10
136.23567874937811
 20
162.14785958840301
 30
0.0
 40
8.0
  0
LINE
  5
371
  8
0
 10
99.235678749378167
 20
169.64785958840301
 30
0.0
 11
99.235678749378167
 21
154.64785958840301
 31
0.0
  0
LINE
  5
372
  8
0
 10
144.23567874937811
 20
169.64785958840301
 30
0.0
 11
142.23567874937811
 21
171.64785958840301
 31
0.0
  0
LINE
  5
373
  8
0
 10
142.23567874937811
 20
152.64785958840301
 30
0.0
 11
144.23567874937811
 21
154.64785958840301
 31
0.0
  0
LINE
  5
374
  8
0
 10
94.235678749378167
 20
167.14785958840301
 30
0.0
 11
102.0299077493781
 21
171.64785958840301
 31
0.0
  0
LINE
  5
375
  8
0
 10
94.235678749378167
 20
157.14785958840301
 30
0.0
 11
102.0299077493781
 21
152.64785958840301
 31
0.0
  0
LINE
  5
376
  8
0
 10
106.2356787493781
 20
166.64785958840289
 30
0.0
 11
112.4414501153182
 21
166.64785958840289
 31
0.0
  0
LINE
  5
377
  8
0
 10
112.4414501153182
 20
157.64785958840301
 30
0.0
 11
106.2356787493781
 21
157.64785958840301
 31
0.0
  0
ARC
  5
378
  8
0
 10
106.2356787493781
 20
162.14785958840301
 30
0.0
 40
4.5
 50
90.0
 51
270.0
  0
ARC
  5
379
  8
2
 10
120.2356787493781
 20
162.14785958840301
 30
0.0
 40
4.5
 50
270.0
 51
90.0
  0
CIRCLE
  5
37A
  8
3
 10
136.23567874937811
 20
162.14785958840301
 30
0.0
 40
4.0
  0
LINE
  5
37B
  8
1
 10
106.2356787493781
 20
155.21590558840299
 30
0.0
 11
106.2356787493781
 21
169.22669658840289
 31
0.0
  0
LINE
  5
37E
  8
2
 10
144.23567874937811
 20
166.64785958840289
 30
0.0
 11
112.4414501153182
 21
166.64785958840289
 31
0.0
  0
LINE
  5
37F
  8
2
 10
144.23567874937811
 20
157.64785958840301
 30
0.0
 11
112.4414501153182
 21
157.64785958840301
 31
0.0
  0
LINE
  5
380
  8
1
 10
149.2356787493782
 20
162.14785958840301
 30
0.0
 11
89.235678749378167
 21
162.14785958840301
 31
0.0
  0
LINE
  5
381
  8
0
 10
142.23567874937811
 20
152.64785958840301
 30
0.0
 11
102.0299077493781
 21
152.64785958840301
 31
0.0
  0
LINE
  5
382
  8
0
 10
94.235678749378167
 20
157.14785958840301
 30
0.0
 11
94.235678749378167
 21
167.14785958840301
 31
0.0
  0
LINE
  5
383
  8
0
 10
102.0299077493781
 20
171.64785958840301
 30
0.0
 11
142.23567874937811
 21
171.64785958840301
 31
0.0
  0
LINE
  5
384
  8
0
 10
144.23567874937811
 20
169.64785958840301
 30
0.0
 11
144.23567874937811
 21
154.64785958840301
 31
0.0
  0
ARC
  5
385
  8
0
 10
125.6731787493782
 20
109.7796075884029
 30
0.0
 40
3.0256219999999998
 50
53.198083000000523
 51
53.198083000000523
  0
LINE
  5
386
  8
0
 10
127.4856787493781
 20
112.2022575884029
 30
0.0
 11
126.4856787493781
 21
112.7796075884029
 31
0.0
  0
LINE
  5
387
  8
0
 10
112.9856787493781
 20
112.2022575884029
 30
0.0
 11
113.9856787493781
 21
112.7796075884029
 31
0.0
  0
ARC
  5
388
  8
0
 10
114.7981787493781
 20
109.7796075884029
 30
0.0
 40
3.0256219999999998
 50
53.198083000000523
 51
113.19808300000049
  0
ARC
  5
389
  8
0
 10
114.7981787493781
 20
109.7796075884029
 30
0.0
 40
3.0256219999999998
 50
126.80191699999941
 51
126.80191699999941
  0
LINE
  5
38A
  8
0
 10
113.9856787493781
 20
112.7796075884029
 30
0.0
 11
126.4856787493781
 21
112.7796075884029
 31
0.0
  0
LINE
  5
38B
  8
0
 10
127.4856787493781
 20
112.2022575884029
 30
0.0
 11
127.4856787493781
 21
104.679607588403
 31
0.0
  0
LINE
  5
38C
  8
0
 10
129.2356787493782
 20
103.7796075884029
 30
0.0
 11
129.2356787493782
 21
102.4796075884029
 31
0.0
  0
LINE
  5
38D
  8
0
 10
116.6106787493781
 20
112.2022575884029
 30
0.0
 11
116.6106787493781
 21
104.279607588403
 31
0.0
  0
LINE
  5
38E
  8
0
 10
111.2356787493781
 20
103.7796075884029
 30
0.0
 11
111.2356787493781
 21
102.4796075884029
 31
0.0
  0
LINE
  5
38F
  8
0
 10
111.7356787493781
 20
104.279607588403
 30
0.0
 11
128.73567874937811
 21
104.279607588403
 31
0.0
  0
ARC
  5
390
  8
0
 10
120.2356787493781
 20
101.1108175884029
 30
0.0
 40
11.66879
 50
90.0
 51
108.0988730000004
  0
ARC
  5
392
  8
0
 10
127.8856787493781
 20
104.679607588403
 30
0.0
 40
0.4
 50
180.0
 51
270.0
  0
LINE
  5
393
  8
0
 10
112.9856787493781
 20
112.2022575884029
 30
0.0
 11
112.9856787493781
 21
104.679607588403
 31
0.0
  0
ARC
  5
394
  8
0
 10
112.5856787493781
 20
104.679607588403
 30
0.0
 40
0.4
 50
270.0
 51
0.0
  0
LINE
  5
395
  8
0
 10
129.2356787493782
 20
103.7796075884029
 30
0.0
 11
128.73567874937811
 21
104.279607588403
 31
0.0
  0
LINE
  5
396
  8
0
 10
111.7356787493781
 20
104.279607588403
 30
0.0
 11
111.2356787493781
 21
103.7796075884029
 31
0.0
  0
ARC
  5
397
  8
0
 10
120.2356787493781
 20
122.4796075884029
 30
0.0
 40
21.931712000000001
 50
292.0207816974139
 51
294.22774500000008
  0
ARC
  5
399
  8
0
 10
120.2356787493781
 20
122.4796075884029
 30
0.0
 40
21.931712000000001
 50
245.77225499999989
 51
247.9792183025861
  0
LINE
  5
39A
  8
0
 10
111.2356787493781
 20
102.4796075884029
 30
0.0
 11
129.2356787493782
 21
102.4796075884029
 31
0.0
  0
ARC
  5
39B
  8
0
 10
120.2356787493781
 20
101.1108175884029
 30
0.0
 40
11.66879
 50
71.901126999999576
 51
90.0
  0
LINE
  5
39C
  8
0
 10
123.8606787493781
 20
112.2022575884029
 30
0.0
 11
123.8606787493781
 21
104.279607588403
 31
0.0
  0
ARC
  5
39D
  8
0
 10
125.6731787493782
 20
109.7796075884029
 30
0.0
 40
3.0256219999999998
 50
66.801916999999506
 51
126.80191699999941
  0
LINE
  5
39F
  8
2
 10
115.4856787493781
 20
99.64785958840298
 30
0.0
 11
124.9856787493781
 21
99.64785958840298
 31
0.0
  0
LINE
  5
3A0
  8
2
 10
115.4856787493781
 20
100.8739635884029
 30
0.0
 11
124.9856787493781
 21
100.8739635884029
 31
0.0
  0
LINE
  5
3A1
  8
2
 10
115.4856787493781
 20
99.64785958840298
 30
0.0
 11
114.9856787493781
 21
99.14785958840298
 31
0.0
  0
LINE
  5
3A2
  8
2
 10
115.4856787493781
 20
100.8739635884029
 30
0.0
 11
115.4856787493781
 21
99.64785958840298
 31
0.0
  0
LINE
  5
3A3
  8
2
 10
111.9856787493781
 20
102.14785958840299
 30
0.0
 11
115.4856787493781
 21
100.8739635884029
 31
0.0
  0
LINE
  5
3A4
  8
2
 10
124.9856787493781
 20
99.64785958840298
 30
0.0
 11
125.4856787493781
 21
99.14785958840298
 31
0.0
  0
LINE
  5
3A5
  8
2
 10
124.9856787493781
 20
100.8739635884029
 30
0.0
 11
124.9856787493781
 21
99.64785958840298
 31
0.0
  0
LINE
  5
3A6
  8
2
 10
128.48567874937811
 20
102.14785958840299
 30
0.0
 11
124.9856787493781
 21
100.8739635884029
 31
0.0
  0
LINE
  5
3A7
  8
0
 10
129.2356787493782
 20
101.64785958840299
 30
0.0
 11
128.73567874937811
 21
102.14785958840299
 31
0.0
  0
LINE
  5
3A8
  8
0
 10
128.73567874937811
 20
99.14785958840298
 30
0.0
 11
129.2356787493782
 21
99.64785958840298
 31
0.0
  0
LINE
  5
3A9
  8
0
 10
111.2356787493781
 20
99.64785958840298
 30
0.0
 11
111.7356787493781
 21
99.14785958840298
 31
0.0
  0
LINE
  5
3AA
  8
0
 10
111.7356787493781
 20
102.14785958840299
 30
0.0
 11
111.2356787493781
 21
101.64785958840299
 31
0.0
  0
LINE
  5
3AB
  8
0
 10
111.2356787493781
 20
99.64785958840298
 30
0.0
 11
111.2356787493781
 21
101.64785958840299
 31
0.0
  0
LINE
  5
3AD
  8
0
 10
129.2356787493782
 20
101.64785958840299
 30
0.0
 11
129.2356787493782
 21
99.64785958840298
 31
0.0
  0
LINE
  5
3AE
  8
0
 10
111.7356787493781
 20
102.14785958840299
 30
0.0
 11
128.73567874937811
 21
102.14785958840299
 31
0.0
  0
ARC
  5
3AF
  8
0
 10
57.135647749378158
 20
104.679607588403
 30
0.0
 40
0.4
 50
180.0
 51
270.0
  0
LINE
  5
3B0
  8
0
 10
50.23564774937816
 20
112.0547135884029
 30
0.0
 11
50.23564774937816
 21
108.5045015884029
 31
0.0
  0
ARC
  5
3B1
  8
0
 10
53.48564774937816
 20
105.1316135884029
 30
0.0
 40
7.6479939999999997
 50
64.852624000000176
 51
115.1473759999998
  0
ARC
  5
3B2
  8
0
 10
46.98564774937816
 20
105.1316135884029
 30
0.0
 40
7.6479939999999997
 50
64.852624000000176
 51
115.1473759999998
  0
LINE
  5
3B3
  8
0
 10
56.335647749378161
 20
112.7796075884029
 30
0.0
 11
56.735647749378153
 21
112.37960758840291
 31
0.0
  0
LINE
  5
3B4
  8
0
 10
44.135647749378172
 20
112.7796075884029
 30
0.0
 11
43.73564774937816
 21
112.37960758840291
 31
0.0
  0
LINE
  5
3B5
  8
0
 10
56.335647749378161
 20
112.7796075884029
 30
0.0
 11
44.135647749378172
 21
112.7796075884029
 31
0.0
  0
LINE
  5
3B6
  8
0
 10
56.735647749378153
 20
104.679607588403
 30
0.0
 11
56.735647749378153
 21
112.37960758840291
 31
0.0
  0
LINE
  5
3B7
  8
0
 10
50.23564774937816
 20
112.0547135884029
 30
0.0
 11
50.23564774937816
 21
104.279607588403
 31
0.0
  0
LINE
  5
3B8
  8
0
 10
43.735641749378161
 20
104.679607588403
 30
0.0
 11
43.735641749378161
 21
112.37960758840291
 31
0.0
  0
ARC
  5
3B9
  8
0
 10
43.335641749378169
 20
104.679607588403
 30
0.0
 40
0.4
 50
270.0
 51
0.0
  0
LINE
  5
3BA
  8
0
 10
59.23567874937816
 20
103.7796075884029
 30
0.0
 11
59.23567874937816
 21
102.4796075884029
 31
0.0
  0
LINE
  5
3BB
  8
0
 10
41.23567874937816
 20
103.7796075884029
 30
0.0
 11
41.23567874937816
 21
102.4796075884029
 31
0.0
  0
LINE
  5
3BC
  8
0
 10
41.73567874937816
 20
104.279607588403
 30
0.0
 11
58.73567874937816
 21
104.279607588403
 31
0.0
  0
LINE
  5
3BE
  8
0
 10
59.23567874937816
 20
103.7796075884029
 30
0.0
 11
58.73567874937816
 21
104.279607588403
 31
0.0
  0
LINE
  5
3BF
  8
0
 10
41.73567874937816
 20
104.279607588403
 30
0.0
 11
41.23567874937816
 21
103.7796075884029
 31
0.0
  0
ARC
  5
3C0
  8
0
 10
50.235678749378167
 20
122.4796075884029
 30
0.0
 40
21.931712000000001
 50
292.0207816974139
 51
294.22774500000008
  0
ARC
  5
3C2
  8
0
 10
50.235678749378167
 20
122.4796075884029
 30
0.0
 40
21.931712000000001
 50
245.77225499999989
 51
247.9792183025861
  0
LINE
  5
3C3
  8
0
 10
41.23567874937816
 20
102.4796075884029
 30
0.0
 11
59.23567874937816
 21
102.4796075884029
 31
0.0
  0
LINE
  5
3C5
  8
2
 10
45.48567874937816
 20
99.64785958840298
 30
0.0
 11
54.98567874937816
 21
99.64785958840298
 31
0.0
  0
LINE
  5
3C6
  8
2
 10
45.48567874937816
 20
100.8739635884029
 30
0.0
 11
54.98567874937816
 21
100.8739635884029
 31
0.0
  0
LINE
  5
3C7
  8
2
 10
45.48567874937816
 20
99.64785958840298
 30
0.0
 11
44.98567874937816
 21
99.14785958840298
 31
0.0
  0
LINE
  5
3C8
  8
2
 10
45.48567874937816
 20
100.8739635884029
 30
0.0
 11
45.48567874937816
 21
99.64785958840298
 31
0.0
  0
LINE
  5
3C9
  8
2
 10
41.985678749378167
 20
102.14785958840299
 30
0.0
 11
45.48567874937816
 21
100.8739635884029
 31
0.0
  0
LINE
  5
3CA
  8
2
 10
54.98567874937816
 20
99.64785958840298
 30
0.0
 11
55.48567874937816
 21
99.14785958840298
 31
0.0
  0
LINE
  5
3CB
  8
2
 10
54.98567874937816
 20
100.8739635884029
 30
0.0
 11
54.98567874937816
 21
99.64785958840298
 31
0.0
  0
LINE
  5
3CC
  8
2
 10
58.485678749378167
 20
102.14785958840299
 30
0.0
 11
54.98567874937816
 21
100.8739635884029
 31
0.0
  0
LINE
  5
3CD
  8
0
 10
59.23567874937816
 20
101.64785958840299
 30
0.0
 11
58.73567874937816
 21
102.14785958840299
 31
0.0
  0
LINE
  5
3CE
  8
0
 10
58.73567874937816
 20
99.14785958840298
 30
0.0
 11
59.23567874937816
 21
99.64785958840298
 31
0.0
  0
LINE
  5
3CF
  8
0
 10
41.23567874937816
 20
99.64785958840298
 30
0.0
 11
41.73567874937816
 21
99.14785958840298
 31
0.0
  0
LINE
  5
3D0
  8
0
 10
41.73567874937816
 20
102.14785958840299
 30
0.0
 11
41.23567874937816
 21
101.64785958840299
 31
0.0
  0
LINE
  5
3D1
  8
0
 10
41.23567874937816
 20
99.64785958840298
 30
0.0
 11
41.23567874937816
 21
101.64785958840299
 31
0.0
  0
LINE
  5
3D3
  8
0
 10
59.23567874937816
 20
101.64785958840299
 30
0.0
 11
59.23567874937816
 21
99.64785958840298
 31
0.0
  0
LINE
  5
3D4
  8
0
 10
41.73567874937816
 20
102.14785958840299
 30
0.0
 11
58.73567874937816
 21
102.14785958840299
 31
0.0
  0
ARC
  5
3D5
  8
0
 10
212.13564774937819
 20
104.679607588403
 30
0.0
 40
0.4
 50
180.0
 51
270.0
  0
ARC
  5
3D7
  8
0
 10
208.48564774937819
 20
105.1316135884029
 30
0.0
 40
7.6479939999999997
 50
64.852624000001057
 51
84.372015205391065
  0
ARC
  5
3D8
  8
0
 10
201.98564774937819
 20
105.1316135884029
 30
0.0
 40
7.6479939999999997
 50
95.627518065233645
 51
115.1473759999989
  0
LINE
  5
3D9
  8
0
 10
211.3356477493781
 20
112.7796075884029
 30
0.0
 11
211.73564774937819
 21
112.37960758840291
 31
0.0
  0
LINE
  5
3DA
  8
0
 10
199.13564774937811
 20
112.7796075884029
 30
0.0
 11
198.73564774937819
 21
112.37960758840291
 31
0.0
  0
LINE
  5
3DB
  8
0
 10
211.3356477493781
 20
112.7796075884029
 30
0.0
 11
209.2356787493782
 21
112.7796075884029
 31
0.0
  0
LINE
  5
3DC
  8
0
 10
211.73564774937819
 20
104.679607588403
 30
0.0
 11
211.73564774937819
 21
112.37960758840291
 31
0.0
  0
LINE
  5
3DE
  8
0
 10
198.73564174937809
 20
104.679607588403
 30
0.0
 11
198.73564174937809
 21
112.37960758840291
 31
0.0
  0
ARC
  5
3DF
  8
0
 10
198.33564174937811
 20
104.679607588403
 30
0.0
 40
0.4
 50
270.0
 51
0.0
  0
LINE
  5
3E0
  8
0
 10
214.2356787493782
 20
103.7796075884029
 30
0.0
 11
214.2356787493782
 21
102.4796075884029
 31
0.0
  0
LINE
  5
3E1
  8
0
 10
196.23567874937811
 20
103.7796075884029
 30
0.0
 11
196.23567874937811
 21
102.4796075884029
 31
0.0
  0
LINE
  5
3E2
  8
0
 10
196.73567874937811
 20
104.279607588403
 30
0.0
 11
201.23567874937811
 21
104.279607588403
 31
0.0
  0
LINE
  5
3E4
  8
0
 10
214.2356787493782
 20
103.7796075884029
 30
0.0
 11
213.7356787493782
 21
104.279607588403
 31
0.0
  0
LINE
  5
3E5
  8
0
 10
196.73567874937811
 20
104.279607588403
 30
0.0
 11
196.23567874937811
 21
103.7796075884029
 31
0.0
  0
ARC
  5
3E6
  8
0
 10
205.2356787493782
 20
122.4796075884029
 30
0.0
 40
21.931712000000001
 50
292.0207816974139
 51
294.22774499999917
  0
ARC
  5
3E8
  8
0
 10
205.2356787493782
 20
122.4796075884029
 30
0.0
 40
21.931712000000001
 50
245.7722550000008
 51
247.9792183025861
  0
LINE
  5
3E9
  8
0
 10
196.23567874937811
 20
102.4796075884029
 30
0.0
 11
201.2356787493782
 21
102.4796075884029
 31
0.0
  0
LINE
  5
3F3
  8
0
 10
214.2356787493782
 20
101.64785958840299
 30
0.0
 11
213.7356787493782
 21
102.14785958840299
 31
0.0
  0
LINE
  5
3F4
  8
0
 10
213.7356787493782
 20
99.14785958840298
 30
0.0
 11
214.2356787493782
 21
99.64785958840298
 31
0.0
  0
LINE
  5
3F5
  8
0
 10
196.23567874937811
 20
99.64785958840298
 30
0.0
 11
196.73567874937811
 21
99.14785958840298
 31
0.0
  0
LINE
  5
3F6
  8
0
 10
196.73567874937811
 20
102.14785958840299
 30
0.0
 11
196.23567874937811
 21
101.64785958840299
 31
0.0
  0
LINE
  5
3F7
  8
0
 10
196.23567874937811
 20
99.64785958840298
 30
0.0
 11
196.23567874937811
 21
101.64785958840299
 31
0.0
  0
LINE
  5
3F9
  8
0
 10
214.2356787493782
 20
101.64785958840299
 30
0.0
 11
214.2356787493782
 21
99.64785958840298
 31
0.0
  0
LINE
  5
3FA
  8
0
 10
196.73567874937811
 20
102.14785958840299
 30
0.0
 11
201.23567874937811
 21
102.14785958840299
 31
0.0
  0
LINE
  5
3FB
  8
0
 10
140.23567874937811
 20
99.147859588402966
 30
0.0
 11
140.23567874937811
 21
114.14785958840299
 31
0.0
  0
LINE
  5
3FC
  8
3
 10
139.48567874937811
 20
87.14785958840298
 30
0.0
 11
139.48567874937811
 21
62.254712588402981
 31
0.0
  0
LINE
  5
3FD
  8
3
 10
132.98567874937811
 20
87.14785958840298
 30
0.0
 11
132.98567874937811
 21
62.254712588402981
 31
0.0
  0
LINE
  5
3FE
  8
0
 10
132.23567874937811
 20
99.147859588402966
 30
0.0
 11
132.23567874937811
 21
114.14785958840299
 31
0.0
  0
LINE
  5
3FF
  8
3
 10
46.83567874937814
 20
52.14785958840298
 30
0.0
 11
46.835678749378161
 21
32.747859588402967
 31
0.0
  0
LINE
  5
400
  8
0
 10
46.23567874937816
 20
57.147859588402987
 30
0.0
 11
46.235678749378152
 21
87.147859588402994
 31
0.0
  0
LINE
  5
401
  8
0
 10
54.235678749378202
 20
52.147859588402987
 30
0.0
 11
54.23567874937816
 21
33.347859588402983
 31
0.0
  0
LINE
  5
402
  8
3
 10
53.635678749378172
 20
52.14785958840298
 30
0.0
 11
53.635678749378172
 21
32.747859588402967
 31
0.0
  0
LINE
  5
403
  8
0
 10
54.235678749378202
 20
87.147859588402994
 30
0.0
 11
54.235678749378202
 21
57.147859588402987
 31
0.0
  0
LINE
  5
404
  8
0
 10
46.23567874937816
 20
112.7796075884029
 30
0.0
 11
46.23567874937816
 21
130.94785958840299
 31
0.0
  0
LINE
  5
40C
  8
0
 10
43.235678749378167
 20
56.14785958840298
 30
0.0
 11
43.73567874937816
 21
56.14785958840298
 31
0.0
  0
ARC
  5
40D
  8
0
 10
57.235678749378167
 20
57.14785958840298
 30
0.0
 40
1.0
 50
239.99999999999909
 51
270.0
  0
ARC
  5
40E
  8
0
 10
43.235678749378167
 20
57.14785958840298
 30
0.0
 40
1.0
 50
270.0
 51
300.0
  0
LINE
  5
40F
  8
0
 10
57.735678749378167
 20
52.14785958840298
 30
0.0
 11
58.235678749378167
 21
52.64785958840298
 31
0.0
  0
LINE
  5
410
  8
0
 10
57.735678749378167
 20
56.14785958840298
 30
0.0
 11
58.235678749378167
 21
55.64785958840298
 31
0.0
  0
LINE
  5
411
  8
0
 10
55.735678749378167
 20
61.14785958840298
 30
0.0
 11
56.23567874937816
 21
60.64785958840298
 31
0.0
  0
LINE
  5
412
  8
0
 10
44.23567874937816
 20
60.64785958840298
 30
0.0
 11
44.73567874937816
 21
61.14785958840298
 31
0.0
  0
LINE
  5
413
  8
0
 10
42.23567874937816
 20
55.64785958840298
 30
0.0
 11
42.735678749378167
 21
56.14785958840298
 31
0.0
  0
LINE
  5
414
  8
0
 10
42.23567874937816
 20
52.64785958840298
 30
0.0
 11
42.735678749378167
 21
52.14785958840298
 31
0.0
  0
LINE
  5
415
  8
0
 10
42.23567874937816
 20
55.64785958840298
 30
0.0
 11
42.23567874937816
 21
52.64785958840298
 31
0.0
  0
LINE
  5
416
  8
0
 10
43.235678749378167
 20
56.14785958840298
 30
0.0
 11
42.735678749378167
 21
56.14785958840298
 31
0.0
  0
LINE
  5
417
  8
0
 10
44.23567874937816
 20
60.64785958840298
 30
0.0
 11
44.23567874937816
 21
57.14785958840298
 31
0.0
  0
LINE
  5
418
  8
0
 10
55.735678749378167
 20
61.14785958840298
 30
0.0
 11
54.235678749378202
 21
61.14785958840298
 31
0.0
  0
LINE
  5
419
  8
0
 10
56.23567874937816
 20
57.14785958840298
 30
0.0
 11
56.23567874937816
 21
60.64785958840298
 31
0.0
  0
LINE
  5
41A
  8
0
 10
57.735678749378167
 20
56.14785958840298
 30
0.0
 11
57.235678749378167
 21
56.14785958840298
 31
0.0
  0
LINE
  5
41B
  8
0
 10
58.235678749378167
 20
52.64785958840298
 30
0.0
 11
58.235678749378167
 21
55.64785958840298
 31
0.0
  0
LINE
  5
41C
  8
0
 10
42.735678749378167
 20
52.14785958840298
 30
0.0
 11
57.735678749378167
 21
52.14785958840298
 31
0.0
  0
LINE
  5
41D
  8
0
 10
46.23567874937816
 20
61.14785958840298
 30
0.0
 11
44.73567874937816
 21
61.14785958840298
 31
0.0
  0
LINE
  5
41E
  8
0
 10
56.735678749378152
 20
56.14785958840298
 30
0.0
 11
57.235678749378167
 21
56.14785958840298
 31
0.0
  0
LINE
  5
41F
  8
0
 10
116.2356787493782
 20
112.779607588403
 30
0.0
 11
116.2356787493781
 21
130.94785958840299
 31
0.0
  0
LINE
  5
420
  8
0
 10
124.2356787493781
 20
87.14785958840298
 30
0.0
 11
124.2356787493781
 21
57.14785958840298
 31
0.0
  0
LINE
  5
421
  8
0
 10
124.2356787493781
 20
52.14785958840298
 30
0.0
 11
124.2356787493781
 21
33.347859588402983
 31
0.0
  0
LINE
  5
422
  8
3
 10
123.6356787493781
 20
52.14785958840298
 30
0.0
 11
123.6356787493781
 21
32.747859588402967
 31
0.0
  0
LINE
  5
423
  8
3
 10
116.8356787493782
 20
52.14785958840298
 30
0.0
 11
116.8356787493781
 21
32.747859588402967
 31
0.0
  0
LINE
  5
424
  8
0
 10
116.2356787493781
 20
57.14785958840298
 30
0.0
 11
116.2356787493781
 21
87.14785958840298
 31
0.0
  0
LINE
  5
472
  8
0
 10
209.2356787493782
 20
87.147859588402994
 30
0.0
 11
209.2356787493782
 21
61.147859588402973
 31
0.0
  0
LINE
  5
474
  8
3
 10
208.4856787493782
 20
87.14785958840298
 30
0.0
 11
208.4856787493782
 21
62.254712588402981
 31
0.0
  0
LINE
  5
475
  8
3
 10
201.9856787493782
 20
87.14785958840298
 30
0.0
 11
201.9856787493782
 21
62.254712588402981
 31
0.0
  0
LINE
  5
476
  8
0
 10
201.2356787493782
 20
99.147859588402966
 30
0.0
 11
201.2356787493782
 21
130.94785958840299
 31
0.0
  0
LINE
  5
478
  8
0
 10
209.23567874937811
 20
52.147859588402959
 30
0.0
 11
209.2356787493782
 21
33.347859588402983
 31
0.0
  0
LINE
  5
479
  8
3
 10
208.6356787493782
 20
52.14785958840298
 30
0.0
 11
208.6356787493782
 21
32.747859588402967
 31
0.0
  0
LINE
  5
47A
  8
0
 10
201.2356787493782
 20
61.147859588402973
 30
0.0
 11
201.2356787493782
 21
87.147859588402994
 31
0.0
  0
LINE
  5
47B
  8
3
 10
201.83567874937819
 20
52.14785958840298
 30
0.0
 11
201.83567874937819
 21
32.747859588402967
 31
0.0
  0
LINE
  5
506
  8
0
 10
208.2356787493782
 20
115.14785958840299
 30
0.0
 11
202.2356787493782
 21
115.14785958840299
 31
0.0
  0
LINE
  5
507
  8
0
 10
209.2356787493782
 20
114.14785958840299
 30
0.0
 11
208.2356787493782
 21
115.14785958840299
 31
0.0
  0
LINE
  5
508
  8
0
 10
209.2356787493782
 20
114.14785958840299
 30
0.0
 11
201.2356787493782
 21
114.14785958840299
 31
0.0
  0
LINE
  5
509
  8
3
 10
208.4856787493782
 20
114.89785958840289
 30
0.0
 11
208.4856787493782
 21
99.14785958840298
 31
0.0
  0
LINE
  5
50B
  8
3
 10
201.9856787493782
 20
114.89785958840289
 30
0.0
 11
201.9856787493782
 21
99.14785958840298
 31
0.0
  0
LINE
  5
50C
  8
0
 10
201.2356787493782
 20
114.14785958840299
 30
0.0
 11
202.2356787493782
 21
115.14785958840299
 31
0.0
  0
LINE
  5
50E
  8
0
 10
201.2356787493782
 20
112.7796075884029
 30
0.0
 11
199.13564774937811
 21
112.7796075884029
 31
0.0
  0
LINE
  5
510
  8
0
 10
209.2356787493782
 20
102.4796075884029
 30
0.0
 11
214.2356787493782
 21
102.4796075884029
 31
0.0
  0
LINE
  5
511
  8
0
 10
209.2356787493782
 20
102.14785958840299
 30
0.0
 11
213.7356787493782
 21
102.14785958840299
 31
0.0
  0
LINE
  5
513
  8
0
 10
209.2356787493782
 20
104.279607588403
 30
0.0
 11
213.7356787493782
 21
104.279607588403
 31
0.0
  0
LINE
  5
514
  8
0
 10
197.7301257493782
 20
56.422965588402988
 30
0.0
 11
197.7301257493782
 21
56.142306588403017
 31
0.0
  0
LINE
  5
515
  8
0
 10
198.98567874937811
 20
57.14785958840298
 30
0.0
 11
199.2356787493782
 21
57.14785958840298
 31
0.0
  0
ARC
  5
516
  8
0
 10
210.8648437493782
 20
53.680952588402967
 30
0.0
 40
3.3225699999999989
 50
64.384247000000045
 51
83.34895589710608
  0
LINE
  5
517
  8
0
 10
212.7412317493781
 20
56.422965588402967
 30
0.0
 11
211.4856787493782
 21
57.14785958840298
 31
0.0
  0
LINE
  5
518
  8
0
 10
212.7412317493781
 20
56.422965588402967
 30
0.0
 11
212.7412317493781
 21
56.142306588403017
 31
0.0
  0
LINE
  5
519
  8
0
 10
197.7301257493782
 20
56.422965588402988
 30
0.0
 11
198.98567874937811
 21
57.14785958840298
 31
0.0
  0
ARC
  5
51A
  8
0
 10
199.60651374937811
 20
53.680952588402981
 30
0.0
 40
3.3225699999999989
 50
96.651044102893934
 51
115.6157529999999
  0
LINE
  5
51B
  8
0
 10
211.2356787493782
 20
57.14785958840298
 30
0.0
 11
211.4856787493782
 21
57.14785958840298
 31
0.0
  0
TEXT
  5
5C0
  8
0
 62
     3
 10
0.0
 20
0.0
 30
0.0
 40
10.0
  1
BJ153-08050B2
  7
STANDARD1
  0
ENDSEC
  0
EOF
