  0
SECTION
  2
HEADER
  9
$ACADVER
  1
AC1009
  9
$INSBASE
 10
82.638099999999994
 20
103.82319099999999
 30
0.0
  9
$EXTMIN
 10
0.0
 20
-2.960436562073669
 30
0.0
  9
$EXTMAX
 10
207.55316551072309
 20
204.9991252035062
 30
0.0
  9
$LIMMIN
 10
0.0
 20
0.0
  9
$LIMMAX
 10
375.0
 20
270.0
  9
$ORTHOMODE
 70
     1
  9
$REGENMODE
 70
     1
  9
$FILLMODE
 70
     1
  9
$QTEXTMODE
 70
     0
  9
$MIRRTEXT
 70
     0
  9
$DRAGMODE
 70
     2
  9
$LTSCALE
 40
10.0
  9
$OSMODE
 70
  3071
  9
$ATTMODE
 70
     1
  9
$TEXTSIZE
 40
0.06
  9
$TRACEWID
 40
0.05
  9
$TEXTSTYLE
  7
STANDARD
  9
$CLAYER
  8
0
  9
$CELTYPE
  6
BYLAYER
  9
$CECOLOR
 62
   256
  9
$DIMSCALE
 40
1.0
  9
$DIMASZ
 40
3.0
  9
$DIMEXO
 40
2.0
  9
$DIMDLI
 40
10.0
  9
$DIMRND
 40
0.0
  9
$DIMDLE
 40
0.0
  9
$DIMEXE
 40
2.0
  9
$DIMTP
 40
0.0
  9
$DIMTM
 40
0.0
  9
$DIMTXT
 40
3.0
  9
$DIMCEN
 40
0.0
  9
$DIMTSZ
 40
0.0
  9
$DIMTOL
 70
     0
  9
$DIMLIM
 70
     0
  9
$DIMTIH
 70
     0
  9
$DIMTOH
 70
     0
  9
$DIMSE1
 70
     0
  9
$DIMSE2
 70
     0
  9
$DIMTAD
 70
     1
  9
$DIMZIN
 70
     0
  9
$DIMBLK
  1

  9
$DIMASO
 70
     0
  9
$DIMSHO
 70
     0
  9
$DIMPOST
  1

  9
$DIMAPOST
  1

  9
$DIMALT
 70
     0
  9
$DIMALTD
 70
     2
  9
$DIMALTF
 40
25.399999999999999
  9
$DIMLFAC
 40
1.0
  9
$DIMTOFL
 70
     1
  9
$DIMTVP
 40
1.6000000000000001
  9
$DIMTIX
 70
     1
  9
$DIMSOXD
 70
     0
  9
$DIMSAH
 70
     0
  9
$DIMBLK1
  1

  9
$DIMBLK2
  1

  9
$DIMSTYLE
  2
STANDARD
  9
$DIMCLRD
 70
     0
  9
$DIMCLRE
 70
     0
  9
$DIMCLRT
 70
     0
  9
$DIMTFAC
 40
1.0
  9
$DIMGAP
 40
0.09
  9
$LUNITS
 70
     2
  9
$LUPREC
 70
     4
  9
$SKETCHINC
 40
0.1
  9
$FILLETRAD
 40
0.0
  9
$AUNITS
 70
     0
  9
$AUPREC
 70
     4
  9
$MENU
  1
E:\r13\win\SUPPORT\ACAD
  9
$ELEVATION
 40
0.0
  9
$PELEVATION
 40
0.0
  9
$THICKNESS
 40
0.0
  9
$LIMCHECK
 70
     0
  9
$BLIPMODE
 70
     0
  9
$CHAMFERA
 40
0.0
  9
$CHAMFERB
 40
0.0
  9
$SKPOLY
 70
     0
  9
$TDCREATE
 40
2449840.3466550931
  9
$TDUPDATE
 40
2456602.6153192008
  9
$TDINDWG
 40
0.0086093403
  9
$TDUSRTIMER
 40
2456598.3946485068
  9
$USRTIMER
 70
     1
  9
$ANGBASE
 50
0.0
  9
$ANGDIR
 70
     0
  9
$PDMODE
 70
     1
  9
$PDSIZE
 40
0.0
  9
$PLINEWID
 40
0.0
  9
$COORDS
 70
     1
  9
$SPLFRAME
 70
     0
  9
$SPLINETYPE
 70
     6
  9
$SPLINESEGS
 70
     8
  9
$ATTDIA
 70
     0
  9
$ATTREQ
 70
     1
  9
$HANDLING
 70
     1
  9
$HANDSEED
  5
5F8
  9
$SURFTAB1
 70
     6
  9
$SURFTAB2
 70
     6
  9
$SURFTYPE
 70
     6
  9
$SURFU
 70
     6
  9
$SURFV
 70
     6
  9
$UCSNAME
  2

  9
$UCSORG
 10
0.0
 20
0.0
 30
0.0
  9
$UCSXDIR
 10
1.0
 20
0.0
 30
0.0
  9
$UCSYDIR
 10
0.0
 20
1.0
 30
0.0
  9
$PUCSNAME
  2

  9
$PUCSORG
 10
0.0
 20
0.0
 30
0.0
  9
$PUCSXDIR
 10
1.0
 20
0.0
 30
0.0
  9
$PUCSYDIR
 10
0.0
 20
1.0
 30
0.0
  9
$USERI1
 70
     3
  9
$USERI2
 70
     1
  9
$USERI3
 70
     0
  9
$USERI4
 70
     0
  9
$USERI5
 70
     0
  9
$USERR1
 40
1.0
  9
$USERR2
 40
3.0
  9
$USERR3
 40
3.0
  9
$USERR4
 40
3.0
  9
$USERR5
 40
10.0
  9
$WORLDVIEW
 70
     1
  9
$SHADEDGE
 70
     3
  9
$SHADEDIF
 70
    70
  9
$TILEMODE
 70
     1
  9
$MAXACTVP
 70
    16
  9
$PLIMCHECK
 70
     0
  9
$PEXTMIN
 10
1.0000000000000000E+020
 20
1.0000000000000000E+020
 30
1.0000000000000000E+020
  9
$PEXTMAX
 10
-1.0000000000000000E+020
 20
-1.0000000000000000E+020
 30
-1.0000000000000000E+020
  9
$PLIMMIN
 10
0.0
 20
0.0
  9
$PLIMMAX
 10
12.0
 20
9.0
  9
$UNITMODE
 70
     0
  9
$VISRETAIN
 70
     0
  9
$PLINEGEN
 70
     0
  9
$PSLTSCALE
 70
     0
  0
ENDSEC
  0
SECTION
  2
TABLES
  0
TABLE
  2
VPORT
 70
     1
  0
VPORT
  2
*ACTIVE
 70
     0
 10
0.0
 20
0.0
 11
1.0
 21
1.0
 12
195.0581083320873
 22
133.5127261426681
 13
0.0
 23
0.0
 14
5.0
 24
5.0
 15
10.0
 25
10.0
 16
0.0
 26
0.0
 36
1.0
 17
0.0
 27
0.0
 37
0.0
 40
275.42274993631997
 41
1.831871345029239
 42
50.0
 43
0.0
 44
0.0
 50
0.0
 51
0.0
 71
     0
 72
   100
 73
     1
 74
     0
 75
     0
 76
     0
 77
     0
 78
     0
  0
ENDTAB
  0
TABLE
  2
LTYPE
 70
     4
  0
LTYPE
  2
CONTINUOUS
 70
     0
  3
Solid Line
 72
    65
 73
     0
 40
0.0
  0
LTYPE
  2
CENTER
 70
     0
  3
____ _ ____ _ ____ _ ____ _ ____ _ ____ _ ____
 72
    65
 73
     4
 40
2.0
 49
1.25
 49
-0.25
 49
0.25
 49
-0.25
  0
LTYPE
  2
HIDDEN
 70
     0
  3
__ __ __ __ __ __ __ __ __ __ __ __ __ __ __ __
 72
    65
 73
     2
 40
0.375
 49
0.25
 49
-0.125
  0
LTYPE
  2
PHANTOM2
 70
     0
  3
___ _ _ ___ _ _ ___ _ _ ___ _ _
 72
    65
 73
     6
 40
1.25
 49
0.625
 49
-0.125
 49
0.125
 49
-0.125
 49
0.125
 49
-0.125
  0
ENDTAB
  0
TABLE
  2
LAYER
 70
     4
  0
LAYER
  2
0
 70
     0
 62
     7
  6
CONTINUOUS
  0
LAYER
  2
1
 70
     0
 62
     1
  6
CENTER
  0
LAYER
  2
2
 70
     0
 62
     2
  6
HIDDEN
  0
LAYER
  2
3
 70
     0
 62
     3
  6
CONTINUOUS
  0
ENDTAB
  0
TABLE
  2
STYLE
 70
     2
  0
STYLE
  2
STANDARD
 70
     0
 40
0.0
 41
1.0
 50
0.0
 71
     0
 42
0.06
  3
TXT
  4
BIGFONT
  0
STYLE
  2
STANDARD1
 70
     0
 40
0.0
 41
1.0
 50
0.0
 71
     0
 42
3.0
  3
txt
  4

  0
ENDTAB
  0
TABLE
  2
VIEW
 70
     0
  0
ENDTAB
  0
TABLE
  2
UCS
 70
     0
  0
ENDTAB
  0
TABLE
  2
APPID
 70
     4
  0
APPID
  2
ACAD
 70
     0
  0
APPID
  2
ACAD_EXEMPT_FROM_CAD_STANDARDS
 70
     0
  0
APPID
  2
ACAD_MLEADERVER
 70
     0
  0
APPID
  2
ACAD_NAV_VCDISPLAY
 70
     0
  0
ENDTAB
  0
TABLE
  2
DIMSTYLE
 70
     1
  0
DIMSTYLE
  2
STANDARD
 70
     0
  3

  4

  5

  6

  7

 40
1.0
 41
0.18
 42
0.0625
 43
0.38
 44
0.18
 45
0.0
 46
0.0
 47
0.0
 48
0.0
140
0.18
141
0.09
142
0.0
143
25.399999999999999
144
1.0
145
0.0
146
1.0
147
0.09
 71
     0
 72
     0
 73
     1
 74
     1
 75
     0
 76
     0
 77
     0
 78
     0
170
     0
171
     2
172
     0
173
     0
174
     0
175
     0
176
     0
177
     0
178
     0
  0
ENDTAB
  0
ENDSEC
  0
SECTION
  2
BLOCKS
  0
BLOCK
  8
0
  2
$MODEL_SPACE
 70
     0
 10
0.0
 20
0.0
 30
0.0
  3
$MODEL_SPACE
  1

  0
ENDBLK
  5
210
  8
0
  0
BLOCK
 67
     1
  8
0
  2
$PAPER_SPACE
 70
     0
 10
0.0
 20
0.0
 30
0.0
  3
$PAPER_SPACE
  1

  0
ENDBLK
  5
20E
 67
     1
  8
0
  0
ENDSEC
  0
SECTION
  2
ENTITIES
  0
LINE
  5
27E
  8
0
 10
94.798649510723152
 20
127.8171202579008
 30
0.0
 11
94.798649510723152
 21
115.8171202579008
 31
0.0
  0
LINE
  5
27F
  8
0
 10
88.053165510723133
 20
115.8171202579008
 30
0.0
 11
87.053165510723133
 21
116.8171202579008
 31
0.0
  0
LINE
  5
280
  8
0
 10
137.05316551072309
 20
116.8171202579008
 30
0.0
 11
136.05316551072309
 21
115.8171202579008
 31
0.0
  0
LINE
  5
281
  8
0
 10
136.05316551072309
 20
127.8171202579008
 30
0.0
 11
137.05316551072309
 21
126.8171202579008
 31
0.0
  0
LINE
  5
282
  8
0
 10
87.053165510723133
 20
124.8171202579008
 30
0.0
 11
92.249317510723131
 21
127.8171202579008
 31
0.0
  0
LINE
  5
283
  8
2
 10
125.0531655107231
 20
120.8171202579008
 30
0.0
 11
125.0531655107231
 21
127.8171202579008
 31
0.0
  0
LINE
  5
284
  8
2
 10
125.72966551072309
 20
120.8171202579008
 30
0.0
 11
125.72966551072309
 21
127.8171202579008
 31
0.0
  0
LINE
  5
285
  8
2
 10
132.37666551072309
 20
120.8171202579008
 30
0.0
 11
132.37666551072309
 21
127.8171202579008
 31
0.0
  0
LINE
  5
286
  8
2
 10
133.05316551072309
 20
120.8171202579008
 30
0.0
 11
133.05316551072309
 21
127.8171202579008
 31
0.0
  0
LINE
  5
287
  8
2
 10
94.553165510723133
 20
115.8171202579008
 30
0.0
 11
94.553165510723133
 21
127.8171202579008
 31
0.0
  0
LINE
  5
288
  8
2
 10
117.5531655107231
 20
120.8171202579008
 30
0.0
 11
117.5531655107231
 21
127.8171202579008
 31
0.0
  0
LINE
  5
289
  8
2
 10
137.05316551072309
 20
120.8171202579008
 30
0.0
 11
113.0531655107231
 21
120.8171202579008
 31
0.0
  0
LINE
  5
28A
  8
1
 10
99.053165510723147
 20
112.8171202579008
 30
0.0
 11
99.053165510723147
 21
130.8171202579008
 31
0.0
  0
LINE
  5
28D
  8
0
 10
137.05316551072309
 20
126.8171202579008
 30
0.0
 11
137.05316551072309
 21
116.8171202579008
 31
0.0
  0
LINE
  5
28E
  8
0
 10
92.249317510723131
 20
127.8171202579008
 30
0.0
 11
136.05316551072309
 21
127.8171202579008
 31
0.0
  0
LINE
  5
28F
  8
0
 10
87.053165510723133
 20
116.8171202579008
 30
0.0
 11
87.053165510723133
 21
124.8171202579008
 31
0.0
  0
LINE
  5
290
  8
0
 10
136.05316551072309
 20
115.8171202579008
 30
0.0
 11
88.053165510723133
 21
115.8171202579008
 31
0.0
  0
LINE
  5
291
  8
1
 10
43.053165510723147
 20
30.817120257900861
 30
0.0
 11
43.053165510723147
 21
165.8171202579008
 31
0.0
  0
LINE
  5
292
  8
3
 10
39.653165510723142
 20
67.817120257900854
 30
0.0
 11
39.653165510723142
 21
60.817120257900861
 31
0.0
  0
LINE
  5
293
  8
3
 10
46.453165510723153
 20
67.817120257900854
 30
0.0
 11
46.453165510723153
 21
60.817120257900861
 31
0.0
  0
LINE
  5
294
  8
3
 10
39.053165510723147
 20
68.856350257900857
 30
0.0
 11
39.653165510723142
 21
67.817120257900854
 31
0.0
  0
LINE
  5
295
  8
0
 10
39.053165510723147
 20
67.817120257900854
 30
0.0
 11
47.05316551072314
 21
67.817120257900854
 31
0.0
  0
LINE
  5
296
  8
3
 10
47.05316551072314
 20
68.856350257900857
 30
0.0
 11
46.453165510723153
 21
67.817120257900854
 31
0.0
  0
LINE
  5
297
  8
3
 10
46.453165510723153
 20
141.44886825790081
 30
0.0
 11
46.453165510723153
 21
160.2171202579008
 31
0.0
  0
LINE
  5
29A
  8
0
 10
39.053165510723147
 20
159.61712025790081
 30
0.0
 11
47.05316551072314
 21
159.61712025790081
 31
0.0
  0
LINE
  5
29B
  8
0
 10
39.053165510723147
 20
37.017120257900856
 30
0.0
 11
47.05316551072314
 21
37.017120257900856
 31
0.0
  0
LINE
  5
29C
  8
0
 10
45.853165510723137
 20
35.817120257900861
 30
0.0
 11
47.05316551072314
 21
37.017120257900856
 31
0.0
  0
LINE
  5
29D
  8
0
 10
39.053165510723147
 20
37.017120257900856
 30
0.0
 11
40.25316551072315
 21
35.817120257900861
 31
0.0
  0
LINE
  5
29E
  8
0
 10
45.853165510723137
 20
160.8171202579008
 30
0.0
 11
47.05316551072314
 21
159.61712025790081
 31
0.0
  0
LINE
  5
29F
  8
0
 10
39.053165510723147
 20
159.61712025790081
 30
0.0
 11
40.25316551072315
 21
160.8171202579008
 31
0.0
  0
LINE
  5
2A0
  8
0
 10
47.05316551072314
 20
159.61712025790081
 30
0.0
 11
47.05316551072314
 21
141.44886825790081
 31
0.0
  0
LINE
  5
2A1
  8
0
 10
40.25316551072315
 20
160.8171202579008
 30
0.0
 11
45.853165510723137
 21
160.8171202579008
 31
0.0
  0
LINE
  5
2A2
  8
0
 10
39.053165510723147
 20
37.017120257900856
 30
0.0
 11
39.053165510723119
 21
55.817120257900861
 31
0.0
  0
LINE
  5
2A3
  8
0
 10
45.853165510723137
 20
35.817120257900861
 30
0.0
 11
40.25316551072315
 21
35.817120257900861
 31
0.0
  0
LINE
  5
2A4
  8
3
 10
39.653165510723142
 20
141.44886825790081
 30
0.0
 11
39.653165510723142
 21
160.2171202579008
 31
0.0
  0
LINE
  5
2A8
  8
0
 10
194.05316551072309
 20
66.317120257900854
 30
0.0
 11
202.0531655107232
 21
66.317120257900854
 31
0.0
  0
LINE
  5
2AD
  8
0
 10
200.75316551072311
 20
64.817120257900854
 30
0.0
 11
200.75316551072311
 21
65.335624257900861
 31
0.0
  0
LINE
  5
2AE
  8
0
 10
202.0531655107232
 20
66.317120257900854
 30
0.0
 11
200.9531655107231
 21
65.68203525790085
 31
0.0
  0
LINE
  5
2AF
  8
0
 10
195.35316551072319
 20
65.335624257900861
 30
0.0
 11
195.35316551072319
 21
64.817120257900854
 31
0.0
  0
ARC
  5
2B0
  8
0
 10
201.1531655107232
 20
65.335624257900861
 30
0.0
 40
0.4
 50
119.99999999999871
 51
180.0
  0
ARC
  5
2B1
  8
0
 10
194.9531655107231
 20
65.335624257900861
 30
0.0
 40
0.4
 50
0.0
 51
60.000000000001272
  0
LINE
  5
2B2
  8
0
 10
200.6531655107232
 20
65.566564257900851
 30
0.0
 11
195.4531655107231
 21
65.566564257900851
 31
0.0
  0
LINE
  5
2B3
  8
3
 10
194.7301655107232
 20
115.8171202579008
 30
0.0
 11
194.73016551072311
 21
65.926254257900851
 31
0.0
  0
LINE
  5
2B4
  8
3
 10
201.3761655107231
 20
115.8171202579008
 30
0.0
 11
201.3761655107231
 21
65.926254257900851
 31
0.0
  0
LINE
  5
2B6
  8
0
 10
194.05316551072309
 20
66.317120257900854
 30
0.0
 11
195.15316551072311
 21
65.68203525790085
 31
0.0
  0
ARC
  5
2B7
  8
0
 10
191.05316551072309
 20
60.817120257900861
 30
0.0
 40
1.0
 50
270.0
 51
0.0
  0
ARC
  5
2B8
  8
0
 10
205.05316551072309
 20
60.817120257900861
 30
0.0
 40
1.0
 50
180.0
 51
270.0
  0
LINE
  5
2B9
  8
0
 10
192.05316551072309
 20
64.317120257900854
 30
0.0
 11
192.55316551072309
 21
64.817120257900854
 31
0.0
  0
LINE
  5
2BA
  8
0
 10
204.0531655107232
 20
64.317120257900854
 30
0.0
 11
203.55316551072309
 21
64.817120257900854
 31
0.0
  0
LINE
  5
2BB
  8
0
 10
206.0531655107232
 20
59.317120257900847
 30
0.0
 11
205.55316551072309
 21
59.817120257900847
 31
0.0
  0
LINE
  5
2BC
  8
0
 10
205.55316551072309
 20
55.817120257900861
 30
0.0
 11
206.0531655107232
 21
56.317120257900847
 31
0.0
  0
LINE
  5
2BD
  8
0
 10
190.05316551072309
 20
59.317120257900847
 30
0.0
 11
190.55316551072309
 21
59.817120257900847
 31
0.0
  0
LINE
  5
2BE
  8
0
 10
190.55316551072309
 20
55.817120257900861
 30
0.0
 11
190.05316551072309
 21
56.317120257900847
 31
0.0
  0
LINE
  5
2BF
  8
0
 10
190.05316551072309
 20
59.317120257900847
 30
0.0
 11
190.05316551072309
 21
56.317120257900847
 31
0.0
  0
LINE
  5
2C1
  8
0
 10
192.05316551072309
 20
64.317120257900854
 30
0.0
 11
192.05316551072309
 21
60.817120257900861
 31
0.0
  0
LINE
  5
2C2
  8
0
 10
203.55316551072309
 20
64.817120257900854
 30
0.0
 11
192.55316551072309
 21
64.817120257900854
 31
0.0
  0
LINE
  5
2C3
  8
0
 10
204.0531655107232
 20
60.817120257900861
 30
0.0
 11
204.0531655107232
 21
64.317120257900854
 31
0.0
  0
LINE
  5
2C4
  8
0
 10
205.55316551072309
 20
59.817120257900847
 30
0.0
 11
190.55316551072309
 21
59.817120257900847
 31
0.0
  0
LINE
  5
2C5
  8
0
 10
206.0531655107232
 20
56.317120257900847
 30
0.0
 11
206.0531655107232
 21
59.317120257900847
 31
0.0
  0
LINE
  5
2C6
  8
0
 10
190.55316551072309
 20
55.817120257900861
 30
0.0
 11
205.55316551072309
 21
55.817120257900861
 31
0.0
  0
LINE
  5
2CA
  8
1
 10
198.05316551072309
 20
30.817120257900861
 30
0.0
 11
198.05316551072309
 21
165.8171202579008
 31
0.0
  0
LINE
  5
2CB
  8
3
 10
194.65316551072311
 20
65.970710257900862
 30
0.0
 11
194.65316551072311
 21
64.817120257900854
 31
0.0
  0
LINE
  5
2CC
  8
3
 10
201.4531655107231
 20
65.970710257900848
 30
0.0
 11
201.4531655107231
 21
64.817120257900854
 31
0.0
  0
LINE
  5
2D0
  8
3
 10
201.4531655107231
 20
141.44886825790081
 30
0.0
 11
201.4531655107231
 21
160.2171202579008
 31
0.0
  0
LINE
  5
2D3
  8
0
 10
194.05316551072309
 20
159.61712025790081
 30
0.0
 11
202.0531655107232
 21
159.61712025790081
 31
0.0
  0
LINE
  5
2D4
  8
0
 10
194.05316551072309
 20
37.017120257900856
 30
0.0
 11
202.0531655107232
 21
37.017120257900856
 31
0.0
  0
LINE
  5
2D5
  8
0
 10
200.85316551072319
 20
35.817120257900861
 30
0.0
 11
202.0531655107232
 21
37.017120257900856
 31
0.0
  0
LINE
  5
2D6
  8
0
 10
194.05316551072309
 20
37.017120257900856
 30
0.0
 11
195.25316551072311
 21
35.817120257900861
 31
0.0
  0
LINE
  5
2D7
  8
0
 10
200.85316551072319
 20
160.8171202579008
 30
0.0
 11
202.0531655107232
 21
159.61712025790081
 31
0.0
  0
LINE
  5
2D8
  8
0
 10
194.05316551072309
 20
159.61712025790081
 30
0.0
 11
195.25316551072311
 21
160.8171202579008
 31
0.0
  0
LINE
  5
2D9
  8
0
 10
202.0531655107232
 20
159.61712025790081
 30
0.0
 11
202.0531655107232
 21
141.44886825790081
 31
0.0
  0
LINE
  5
2DA
  8
0
 10
195.25316551072311
 20
160.8171202579008
 30
0.0
 11
200.85316551072319
 21
160.8171202579008
 31
0.0
  0
LINE
  5
2DB
  8
0
 10
194.05316551072309
 20
37.017120257900856
 30
0.0
 11
194.05316551072309
 21
55.817120257900861
 31
0.0
  0
LINE
  5
2DC
  8
0
 10
200.85316551072319
 20
35.817120257900861
 30
0.0
 11
195.25316551072311
 21
35.817120257900861
 31
0.0
  0
LINE
  5
2DD
  8
3
 10
194.65316551072311
 20
141.44886825790081
 30
0.0
 11
194.65316551072311
 21
160.2171202579008
 31
0.0
  0
LINE
  5
2DF
  8
0
 10
131.8531655107231
 20
138.8171202579008
 30
0.0
 11
126.25316551072309
 21
138.8171202579008
 31
0.0
  0
LINE
  5
2E0
  8
0
 10
125.0531655107231
 20
137.61712025790081
 30
0.0
 11
125.0531655107231
 21
127.8171202579008
 31
0.0
  0
LINE
  5
2E1
  8
0
 10
125.0531655107231
 20
66.317120257900854
 30
0.0
 11
133.05316551072309
 21
66.317120257900854
 31
0.0
  0
LINE
  5
2E2
  8
0
 10
133.05316551072309
 20
66.317120257900854
 30
0.0
 11
133.05316551072309
 21
115.8171202579008
 31
0.0
  0
LINE
  5
2E3
  8
0
 10
131.8531655107231
 20
138.8171202579008
 30
0.0
 11
133.05316551072309
 21
137.61712025790081
 31
0.0
  0
LINE
  5
2E4
  8
0
 10
126.25316551072309
 20
138.8171202579008
 30
0.0
 11
125.0531655107231
 21
137.61712025790081
 31
0.0
  0
LINE
  5
2E5
  8
0
 10
133.05316551072309
 20
137.61712025790081
 30
0.0
 11
125.0531655107231
 21
137.61712025790081
 31
0.0
  0
LINE
  5
2E6
  8
0
 10
131.75316551072311
 20
64.817120257900854
 30
0.0
 11
131.75316551072311
 21
65.335624257900861
 31
0.0
  0
LINE
  5
2E7
  8
0
 10
133.05316551072309
 20
66.317120257900854
 30
0.0
 11
131.9531655107231
 21
65.68203525790085
 31
0.0
  0
LINE
  5
2E8
  8
0
 10
126.3531655107231
 20
65.335624257900861
 30
0.0
 11
126.3531655107231
 21
64.817120257900854
 31
0.0
  0
ARC
  5
2E9
  8
0
 10
132.15316551072311
 20
65.335624257900861
 30
0.0
 40
0.4
 50
119.99999999999871
 51
180.0
  0
ARC
  5
2EA
  8
0
 10
125.9531655107231
 20
65.335624257900861
 30
0.0
 40
0.4
 50
0.0
 51
59.99999999999951
  0
LINE
  5
2EB
  8
0
 10
131.65316551072311
 20
65.566564257900851
 30
0.0
 11
126.4531655107231
 21
65.566564257900851
 31
0.0
  0
LINE
  5
2EC
  8
3
 10
125.7301655107231
 20
138.2941202579008
 30
0.0
 11
125.7301655107232
 21
127.8171202579008
 31
0.0
  0
LINE
  5
2ED
  8
3
 10
132.3761655107231
 20
138.2941202579008
 30
0.0
 11
132.3761655107231
 21
127.8171202579008
 31
0.0
  0
LINE
  5
2EE
  8
1
 10
129.05316551072309
 20
142.8171202579008
 30
0.0
 11
129.05316551072309
 21
51.817120257900847
 31
0.0
  0
LINE
  5
2EF
  8
0
 10
125.0531655107231
 20
66.317120257900854
 30
0.0
 11
126.1531655107231
 21
65.68203525790085
 31
0.0
  0
ARC
  5
2F0
  8
0
 10
122.0531655107231
 20
60.817120257900861
 30
0.0
 40
1.0
 50
270.0
 51
0.0
  0
ARC
  5
2F1
  8
0
 10
136.05316551072309
 20
60.817120257900861
 30
0.0
 40
1.0
 50
180.0
 51
270.0
  0
LINE
  5
2F2
  8
0
 10
123.0531655107231
 20
64.317120257900854
 30
0.0
 11
123.5531655107231
 21
64.817120257900854
 31
0.0
  0
LINE
  5
2F3
  8
0
 10
135.05316551072309
 20
64.317120257900854
 30
0.0
 11
134.55316551072309
 21
64.817120257900854
 31
0.0
  0
LINE
  5
2F4
  8
0
 10
137.05316551072309
 20
59.317120257900847
 30
0.0
 11
136.55316551072309
 21
59.817120257900847
 31
0.0
  0
LINE
  5
2F5
  8
0
 10
136.55316551072309
 20
55.817120257900861
 30
0.0
 11
137.05316551072309
 21
56.317120257900847
 31
0.0
  0
LINE
  5
2F6
  8
0
 10
121.0531655107231
 20
59.317120257900847
 30
0.0
 11
121.5531655107231
 21
59.817120257900847
 31
0.0
  0
LINE
  5
2F7
  8
0
 10
121.5531655107231
 20
55.817120257900861
 30
0.0
 11
121.0531655107231
 21
56.317120257900847
 31
0.0
  0
LINE
  5
2F8
  8
0
 10
121.0531655107231
 20
59.317120257900847
 30
0.0
 11
121.0531655107231
 21
56.317120257900847
 31
0.0
  0
LINE
  5
2FA
  8
0
 10
123.0531655107231
 20
64.317120257900854
 30
0.0
 11
123.0531655107231
 21
60.817120257900861
 31
0.0
  0
LINE
  5
2FC
  8
0
 10
135.05316551072309
 20
60.817120257900861
 30
0.0
 11
135.05316551072309
 21
64.317120257900854
 31
0.0
  0
LINE
  5
2FD
  8
0
 10
136.55316551072309
 20
59.817120257900847
 30
0.0
 11
121.5531655107231
 21
59.817120257900847
 31
0.0
  0
LINE
  5
2FE
  8
0
 10
137.05316551072309
 20
56.317120257900847
 30
0.0
 11
137.05316551072309
 21
59.317120257900847
 31
0.0
  0
LINE
  5
2FF
  8
0
 10
121.5531655107231
 20
55.817120257900861
 30
0.0
 11
136.55316551072309
 21
55.817120257900861
 31
0.0
  0
LINE
  5
300
  8
0
 10
134.55316551072309
 20
64.817120257900854
 30
0.0
 11
123.5531655107231
 21
64.817120257900854
 31
0.0
  0
LINE
  5
303
  8
1
 10
113.0531655107231
 20
30.817120257900861
 30
0.0
 11
113.0531655107231
 21
165.8171202579008
 31
0.0
  0
LINE
  5
304
  8
3
 10
109.6531655107231
 20
67.817120257900854
 30
0.0
 11
109.6531655107231
 21
60.817120257900861
 31
0.0
  0
LINE
  5
305
  8
3
 10
116.4531655107231
 20
67.817120257900854
 30
0.0
 11
116.4531655107231
 21
60.817120257900861
 31
0.0
  0
LINE
  5
306
  8
3
 10
109.0531655107231
 20
68.856350257900857
 30
0.0
 11
109.6531655107231
 21
67.817120257900854
 31
0.0
  0
LINE
  5
307
  8
0
 10
109.0531655107231
 20
67.817120257900854
 30
0.0
 11
117.0531655107231
 21
67.817120257900854
 31
0.0
  0
LINE
  5
308
  8
3
 10
117.0531655107231
 20
68.856350257900857
 30
0.0
 11
116.4531655107231
 21
67.817120257900854
 31
0.0
  0
LINE
  5
309
  8
3
 10
116.4531655107231
 20
141.44886825790081
 30
0.0
 11
116.4531655107231
 21
160.2171202579008
 31
0.0
  0
LINE
  5
30C
  8
0
 10
109.0531655107231
 20
159.61712025790081
 30
0.0
 11
117.0531655107231
 21
159.61712025790081
 31
0.0
  0
LINE
  5
30D
  8
0
 10
109.0531655107231
 20
37.017120257900856
 30
0.0
 11
117.0531655107231
 21
37.017120257900856
 31
0.0
  0
LINE
  5
30E
  8
0
 10
115.8531655107231
 20
35.817120257900861
 30
0.0
 11
117.0531655107231
 21
37.017120257900856
 31
0.0
  0
LINE
  5
30F
  8
0
 10
109.0531655107231
 20
37.017120257900856
 30
0.0
 11
110.25316551072309
 21
35.817120257900861
 31
0.0
  0
LINE
  5
310
  8
0
 10
115.8531655107231
 20
160.8171202579008
 30
0.0
 11
117.0531655107231
 21
159.61712025790081
 31
0.0
  0
LINE
  5
311
  8
0
 10
109.0531655107231
 20
159.61712025790081
 30
0.0
 11
110.25316551072309
 21
160.8171202579008
 31
0.0
  0
LINE
  5
312
  8
0
 10
117.0531655107231
 20
159.61712025790081
 30
0.0
 11
117.0531655107231
 21
141.44886825790081
 31
0.0
  0
LINE
  5
313
  8
0
 10
110.25316551072309
 20
160.8171202579008
 30
0.0
 11
115.8531655107231
 21
160.8171202579008
 31
0.0
  0
LINE
  5
314
  8
0
 10
109.0531655107231
 20
37.017120257900856
 30
0.0
 11
109.0531655107231
 21
55.817120257900861
 31
0.0
  0
LINE
  5
315
  8
0
 10
115.8531655107231
 20
35.817120257900861
 30
0.0
 11
110.25316551072309
 21
35.817120257900861
 31
0.0
  0
LINE
  5
316
  8
3
 10
109.6531655107231
 20
141.44886825790081
 30
0.0
 11
109.6531655107231
 21
160.2171202579008
 31
0.0
  0
LINE
  5
31A
  8
0
 10
49.55316551072314
 20
60.672782257900849
 30
0.0
 11
49.303165510723147
 21
60.817120257900861
 31
0.0
  0
ARC
  5
31B
  8
0
 10
46.30316551072314
 20
51.285630257900863
 30
0.0
 40
9.3871520000000004
 50
69.743841999999802
 51
110.2561580000002
  0
ARC
  5
31C
  8
0
 10
46.30316551072314
 20
65.348610257900845
 30
0.0
 40
9.3871520000000004
 50
249.7438419999998
 51
290.2561580000002
  0
LINE
  5
31D
  8
0
 10
49.55316551072314
 20
55.961458257900858
 30
0.0
 11
49.303165510723147
 21
55.817120257900861
 31
0.0
  0
LINE
  5
31E
  8
0
 10
49.55316551072314
 20
60.672782257900849
 30
0.0
 11
49.55316551072314
 21
55.961458257900858
 31
0.0
  0
LINE
  5
31F
  8
0
 10
43.053165510723147
 20
60.09222625790084
 30
0.0
 11
43.053165510723147
 21
56.54201425790086
 31
0.0
  0
LINE
  5
320
  8
0
 10
36.553165510723147
 20
60.672782257900849
 30
0.0
 11
36.553165510723147
 21
55.961458257900858
 31
0.0
  0
LINE
  5
321
  8
0
 10
36.553165510723147
 20
55.961458257900858
 30
0.0
 11
36.803165510723147
 21
55.817120257900861
 31
0.0
  0
ARC
  5
322
  8
0
 10
39.803165510723147
 20
65.348610257900845
 30
0.0
 40
9.3871520000000004
 50
249.7438419999998
 51
290.2561580000002
  0
ARC
  5
323
  8
0
 10
39.803165510723147
 20
51.285630257900863
 30
0.0
 40
9.3871520000000004
 50
69.743841999999802
 51
110.2561580000002
  0
LINE
  5
324
  8
0
 10
36.553165510723147
 20
60.672782257900849
 30
0.0
 11
36.803165510723147
 21
60.817120257900861
 31
0.0
  0
LINE
  5
325
  8
0
 10
36.803165510723147
 20
60.817120257900861
 30
0.0
 11
49.303165510723147
 21
60.817120257900861
 31
0.0
  0
LINE
  5
327
  8
1
 10
113.0531655107231
 20
204.9991252035062
 30
0.0
 11
113.0531655107231
 21
176.6351153122954
 31
0.0
  0
CIRCLE
  5
329
  8
0
 10
113.0531655107231
 20
190.8171202579008
 30
0.0
 40
9.0
  0
CIRCLE
  5
32A
  8
3
 10
113.0531655107231
 20
190.8171202579008
 30
0.0
 40
3.399999999999999
  0
CIRCLE
  5
32B
  8
0
 10
113.0531655107231
 20
190.8171202579008
 30
0.0
 40
4.0
  0
LINE
  5
32C
  8
0
 10
117.0766765107231
 20
184.78604625790081
 30
0.0
 11
120.28798451072311
 21
190.34819425790079
 31
0.0
  0
LINE
  5
32D
  8
0
 10
120.28798451072311
 20
191.28604625790081
 30
0.0
 11
117.0766765107231
 21
196.84819425790079
 31
0.0
  0
LINE
  5
32E
  8
0
 10
116.26447351072311
 20
197.3171202579008
 30
0.0
 11
109.8418575107231
 21
197.3171202579008
 31
0.0
  0
LINE
  5
32F
  8
0
 10
109.02965451072311
 20
196.84819425790079
 30
0.0
 11
105.8183465107231
 21
191.28604625790081
 31
0.0
  0
LINE
  5
330
  8
0
 10
105.8183465107231
 20
190.34819425790079
 30
0.0
 11
109.02965451072311
 21
184.78604625790081
 31
0.0
  0
LINE
  5
331
  8
0
 10
109.8418575107231
 20
184.3171202579008
 30
0.0
 11
116.26447351072311
 21
184.3171202579008
 31
0.0
  0
ARC
  5
332
  8
0
 10
113.0531655107231
 20
190.8171202579008
 30
0.0
 40
7.25
 50
56.291554999999491
 51
63.708445000000069
  0
ARC
  5
333
  8
0
 10
113.0531655107231
 20
190.8171202579008
 30
0.0
 40
7.25
 50
116.2915549999999
 51
123.70844500000049
  0
ARC
  5
334
  8
0
 10
113.0531655107231
 20
190.8171202579008
 30
0.0
 40
7.25
 50
176.29155500000039
 51
183.70844499999961
  0
ARC
  5
335
  8
0
 10
113.0531655107231
 20
190.8171202579008
 30
0.0
 40
7.25
 50
236.29155499999951
 51
243.7084450000001
  0
ARC
  5
336
  8
0
 10
113.0531655107231
 20
190.8171202579008
 30
0.0
 40
7.25
 50
296.2915549999999
 51
303.70844500000049
  0
ARC
  5
337
  8
0
 10
113.0531655107231
 20
190.8171202579008
 30
0.0
 40
7.25
 50
356.29155500000041
 51
3.7084449999996121
  0
CIRCLE
  5
338
  8
0
 10
113.0531655107231
 20
190.8171202579008
 30
0.0
 40
6.25
  0
LINE
  5
339
  8
0
 10
105.5476125107231
 20
60.092226257900862
 30
0.0
 11
105.5476125107231
 21
56.54201425790086
 31
0.0
  0
LINE
  5
33A
  8
0
 10
119.3031655107231
 20
55.817120257900861
 30
0.0
 11
106.8031655107231
 21
55.817120257900861
 31
0.0
  0
LINE
  5
33B
  8
0
 10
106.8031655107231
 20
60.817120257900861
 30
0.0
 11
119.3031655107231
 21
60.817120257900861
 31
0.0
  0
ARC
  5
33C
  8
0
 10
118.68233051072311
 20
57.350213257900847
 30
0.0
 40
3.3225699999999989
 50
64.384246999999959
 51
124.3842470000001
  0
LINE
  5
33D
  8
0
 10
120.5587185107231
 20
60.09222625790084
 30
0.0
 11
119.3031655107231
 21
60.817120257900861
 31
0.0
  0
LINE
  5
33E
  8
0
 10
120.5587185107231
 20
56.542014257900838
 30
0.0
 11
119.3031655107231
 21
55.817120257900861
 31
0.0
  0
ARC
  5
33F
  8
0
 10
118.68233051072311
 20
59.284027257900853
 30
0.0
 40
3.3225699999999989
 50
235.6157529999997
 51
295.61575299999998
  0
LINE
  5
340
  8
0
 10
120.5587185107231
 20
60.09222625790084
 30
0.0
 11
120.5587185107231
 21
56.542014257900838
 31
0.0
  0
LINE
  5
341
  8
0
 10
116.8059425107231
 20
60.09222625790084
 30
0.0
 11
116.8059425107231
 21
56.54201425790086
 31
0.0
  0
LINE
  5
342
  8
0
 10
109.3003885107231
 20
60.09222625790084
 30
0.0
 11
109.3003885107231
 21
56.54201425790086
 31
0.0
  0
ARC
  5
343
  8
0
 10
113.0531655107231
 20
68.380901257900859
 30
0.0
 40
12.419442999999999
 50
252.41204599999921
 51
287.58795400000082
  0
ARC
  5
344
  8
0
 10
107.4240005107231
 20
59.284027257900853
 30
0.0
 40
3.3225699999999989
 50
244.38424699999999
 51
304.38424700000007
  0
LINE
  5
345
  8
0
 10
105.5476125107231
 20
56.54201425790086
 30
0.0
 11
106.8031655107231
 21
55.817120257900861
 31
0.0
  0
LINE
  5
346
  8
0
 10
105.5476125107231
 20
60.092226257900862
 30
0.0
 11
106.8031655107231
 21
60.817120257900861
 31
0.0
  0
ARC
  5
347
  8
0
 10
113.0531655107231
 20
48.253339257900862
 30
0.0
 40
12.419442999999999
 50
72.412045999999251
 51
107.58795400000071
  0
ARC
  5
348
  8
0
 10
107.4240005107231
 20
57.350213257900862
 30
0.0
 40
3.3225699999999989
 50
55.61575299999965
 51
115.615753
  0
LINE
  5
34B
  8
0
 10
52.553165510723147
 20
126.8171202579008
 30
0.0
 11
51.55316551072314
 21
127.8171202579008
 31
0.0
  0
LINE
  5
34C
  8
0
 10
51.55316551072314
 20
115.8171202579008
 30
0.0
 11
52.553165510723147
 21
116.8171202579008
 31
0.0
  0
LINE
  5
34D
  8
0
 10
33.553165510723147
 20
116.8171202579008
 30
0.0
 11
34.553165510723147
 21
115.8171202579008
 31
0.0
  0
LINE
  5
34E
  8
0
 10
34.553165510723147
 20
127.8171202579008
 30
0.0
 11
33.553165510723147
 21
126.8171202579008
 31
0.0
  0
LINE
  5
350
  8
0
 10
34.553165510723147
 20
127.8171202579008
 30
0.0
 11
51.55316551072314
 21
127.8171202579008
 31
0.0
  0
LINE
  5
351
  8
0
 10
33.553165510723147
 20
116.8171202579008
 30
0.0
 11
33.553165510723147
 21
126.8171202579008
 31
0.0
  0
LINE
  5
352
  8
0
 10
51.55316551072314
 20
115.8171202579008
 30
0.0
 11
34.553165510723147
 21
115.8171202579008
 31
0.0
  0
LINE
  5
353
  8
0
 10
52.553165510723147
 20
126.8171202579008
 30
0.0
 11
52.553165510723147
 21
116.8171202579008
 31
0.0
  0
LINE
  5
354
  8
0
 10
38.053165510723147
 20
124.8171202579008
 30
0.0
 11
38.053165510723147
 21
115.8171202579008
 31
0.0
  0
LINE
  5
355
  8
0
 10
48.053165510723147
 20
124.8171202579008
 30
0.0
 11
48.053165510723147
 21
115.8171202579008
 31
0.0
  0
LINE
  5
356
  8
0
 10
48.053165510723147
 20
124.8171202579008
 30
0.0
 11
38.053165510723147
 21
124.8171202579008
 31
0.0
  0
LINE
  5
357
  8
0
 10
35.166414510723143
 20
127.8171202579008
 30
0.0
 11
38.053165510723147
 21
124.8171202579008
 31
0.0
  0
LINE
  5
358
  8
0
 10
50.939916510723151
 20
127.8171202579008
 30
0.0
 11
48.053165510723147
 21
124.8171202579008
 31
0.0
  0
LINE
  5
35B
  8
0
 10
188.55316551072309
 20
116.8171202579008
 30
0.0
 11
188.55316551072309
 21
126.8171202579008
 31
0.0
  0
LINE
  5
35C
  8
0
 10
189.55316551072309
 20
127.8171202579008
 30
0.0
 11
206.5531655107232
 21
127.8171202579008
 31
0.0
  0
LINE
  5
35D
  8
0
 10
207.55316551072309
 20
126.8171202579008
 30
0.0
 11
207.55316551072309
 21
116.8171202579008
 31
0.0
  0
LINE
  5
35E
  8
0
 10
206.5531655107232
 20
115.8171202579008
 30
0.0
 11
189.55316551072309
 21
115.8171202579008
 31
0.0
  0
LINE
  5
360
  8
0
 10
193.55316551072309
 20
115.8171202579008
 30
0.0
 11
193.55316551072309
 21
120.8171202579008
 31
0.0
  0
LINE
  5
361
  8
0
 10
202.55316551072309
 20
115.8171202579008
 30
0.0
 11
202.55316551072309
 21
120.8171202579008
 31
0.0
  0
LINE
  5
362
  8
0
 10
202.55316551072309
 20
120.8171202579008
 30
0.0
 11
193.55316551072309
 21
120.8171202579008
 31
0.0
  0
LINE
  5
363
  8
0
 10
206.5531655107232
 20
115.8171202579008
 30
0.0
 11
207.55316551072309
 21
116.8171202579008
 31
0.0
  0
LINE
  5
364
  8
0
 10
207.55316551072309
 20
126.8171202579008
 30
0.0
 11
206.5531655107232
 21
127.8171202579008
 31
0.0
  0
LINE
  5
365
  8
0
 10
189.55316551072309
 20
127.8171202579008
 30
0.0
 11
188.55316551072309
 21
126.8171202579008
 31
0.0
  0
LINE
  5
366
  8
0
 10
188.55316551072309
 20
116.8171202579008
 30
0.0
 11
189.55316551072309
 21
115.8171202579008
 31
0.0
  0
LINE
  5
367
  8
0
 10
127.8984645107231
 20
188.8171202579008
 30
0.0
 11
130.20786651072311
 21
188.8171202579008
 31
0.0
  0
LINE
  5
368
  8
0
 10
130.20786651072311
 20
188.8171202579008
 30
0.0
 11
131.3625665107231
 21
190.8171202579008
 31
0.0
  0
LINE
  5
369
  8
0
 10
131.3625665107231
 20
190.8171202579008
 30
0.0
 11
130.20786651072311
 21
192.8171202579008
 31
0.0
  0
LINE
  5
36A
  8
0
 10
130.20786651072311
 20
192.8171202579008
 30
0.0
 11
127.8984645107231
 21
192.8171202579008
 31
0.0
  0
LINE
  5
36B
  8
0
 10
127.8984645107231
 20
192.8171202579008
 30
0.0
 11
126.7437645107231
 21
190.8171202579008
 31
0.0
  0
LINE
  5
36C
  8
0
 10
126.7437645107231
 20
190.8171202579008
 30
0.0
 11
127.8984645107231
 21
188.8171202579008
 31
0.0
  0
LINE
  5
36D
  8
1
 10
129.05316551072309
 20
201.3171202579008
 30
0.0
 11
129.05316551072309
 21
180.3171202579008
 31
0.0
  0
CIRCLE
  5
36F
  8
3
 10
129.05316551072309
 20
190.8171202579008
 30
0.0
 40
3.3235000000000001
  0
CIRCLE
  5
370
  8
0
 10
129.05316551072309
 20
190.8171202579008
 30
0.0
 40
4.0
  0
CIRCLE
  5
371
  8
2
 10
129.05316551072309
 20
190.8171202579008
 30
0.0
 40
6.0
  0
CIRCLE
  5
372
  8
2
 10
129.05316551072309
 20
190.8171202579008
 30
0.0
 40
8.0
  0
LINE
  5
374
  8
0
 10
92.053165510723133
 20
198.3171202579008
 30
0.0
 11
92.053165510723133
 21
183.3171202579008
 31
0.0
  0
LINE
  5
375
  8
0
 10
137.05316551072309
 20
198.3171202579008
 30
0.0
 11
135.05316551072309
 21
200.31712025790091
 31
0.0
  0
LINE
  5
376
  8
0
 10
135.05316551072309
 20
181.3171202579008
 30
0.0
 11
137.05316551072309
 21
183.3171202579008
 31
0.0
  0
LINE
  5
377
  8
0
 10
87.053165510723133
 20
195.8171202579008
 30
0.0
 11
94.847394510723134
 21
200.31712025790091
 31
0.0
  0
LINE
  5
378
  8
0
 10
87.053165510723133
 20
185.8171202579008
 30
0.0
 11
94.847394510723134
 21
181.3171202579008
 31
0.0
  0
LINE
  5
379
  8
0
 10
99.053165510723147
 20
195.3171202579008
 30
0.0
 11
105.2589368766632
 21
195.3171202579008
 31
0.0
  0
LINE
  5
37A
  8
0
 10
105.2589368766632
 20
186.3171202579008
 30
0.0
 11
99.053165510723147
 21
186.3171202579008
 31
0.0
  0
ARC
  5
37B
  8
0
 10
99.053165510723147
 20
190.8171202579008
 30
0.0
 40
4.5
 50
90.0
 51
270.0
  0
CIRCLE
  5
37D
  8
3
 10
129.05316551072309
 20
190.8171202579008
 30
0.0
 40
4.0
  0
LINE
  5
37E
  8
1
 10
99.053165510723147
 20
183.88516625790081
 30
0.0
 11
99.053165510723147
 21
197.89595725790079
 31
0.0
  0
LINE
  5
381
  8
2
 10
137.05316551072309
 20
195.3171202579008
 30
0.0
 11
105.2589368766632
 21
195.3171202579008
 31
0.0
  0
LINE
  5
382
  8
2
 10
137.05316551072309
 20
186.3171202579008
 30
0.0
 11
105.2589368766632
 21
186.3171202579008
 31
0.0
  0
LINE
  5
383
  8
1
 10
142.05316551072309
 20
190.8171202579008
 30
0.0
 11
82.053165510723133
 21
190.8171202579008
 31
0.0
  0
LINE
  5
384
  8
0
 10
135.05316551072309
 20
181.3171202579008
 30
0.0
 11
94.847394510723134
 21
181.3171202579008
 31
0.0
  0
LINE
  5
385
  8
0
 10
87.053165510723133
 20
185.8171202579008
 30
0.0
 11
87.053165510723133
 21
195.8171202579008
 31
0.0
  0
LINE
  5
386
  8
0
 10
94.847394510723134
 20
200.31712025790091
 30
0.0
 11
135.05316551072309
 21
200.31712025790091
 31
0.0
  0
LINE
  5
387
  8
0
 10
137.05316551072309
 20
198.3171202579008
 30
0.0
 11
137.05316551072309
 21
183.3171202579008
 31
0.0
  0
ARC
  5
388
  8
0
 10
118.4906655107231
 20
138.44886825790081
 30
0.0
 40
3.0256219999999998
 50
53.198083000000629
 51
53.198083000000629
  0
LINE
  5
389
  8
0
 10
120.3031655107231
 20
140.87151825790079
 30
0.0
 11
119.3031655107231
 21
141.44886825790081
 31
0.0
  0
LINE
  5
38A
  8
0
 10
105.8031655107231
 20
140.87151825790079
 30
0.0
 11
106.8031655107231
 21
141.44886825790081
 31
0.0
  0
ARC
  5
38B
  8
0
 10
107.6156655107231
 20
138.44886825790081
 30
0.0
 40
3.0256219999999998
 50
53.198083000000629
 51
113.19808300000039
  0
ARC
  5
38C
  8
0
 10
107.6156655107231
 20
138.44886825790081
 30
0.0
 40
3.0256219999999998
 50
126.80191699999931
 51
126.80191699999931
  0
LINE
  5
38D
  8
0
 10
106.8031655107231
 20
141.44886825790081
 30
0.0
 11
119.3031655107231
 21
141.44886825790081
 31
0.0
  0
LINE
  5
38E
  8
0
 10
120.3031655107231
 20
140.87151825790079
 30
0.0
 11
120.3031655107231
 21
133.34886825790079
 31
0.0
  0
LINE
  5
38F
  8
0
 10
122.0531655107231
 20
132.44886825790081
 30
0.0
 11
122.0531655107231
 21
131.1488682579008
 31
0.0
  0
LINE
  5
390
  8
0
 10
109.4281655107231
 20
140.87151825790079
 30
0.0
 11
109.4281655107231
 21
132.94886825790081
 31
0.0
  0
LINE
  5
391
  8
0
 10
104.0531655107231
 20
132.44886825790081
 30
0.0
 11
104.0531655107231
 21
131.1488682579008
 31
0.0
  0
LINE
  5
392
  8
0
 10
104.5531655107231
 20
132.94886825790081
 30
0.0
 11
121.5531655107231
 21
132.94886825790081
 31
0.0
  0
ARC
  5
393
  8
0
 10
113.0531655107231
 20
129.78007825790081
 30
0.0
 40
11.66879
 50
90.0
 51
108.0988730000003
  0
ARC
  5
395
  8
0
 10
120.7031655107231
 20
133.34886825790079
 30
0.0
 40
0.4
 50
180.0
 51
270.0
  0
LINE
  5
396
  8
0
 10
105.8031655107231
 20
140.87151825790079
 30
0.0
 11
105.8031655107231
 21
133.34886825790079
 31
0.0
  0
ARC
  5
397
  8
0
 10
105.4031655107231
 20
133.34886825790079
 30
0.0
 40
0.4
 50
270.0
 51
0.0
  0
LINE
  5
398
  8
0
 10
122.0531655107231
 20
132.44886825790081
 30
0.0
 11
121.5531655107231
 21
132.94886825790081
 31
0.0
  0
LINE
  5
399
  8
0
 10
104.5531655107231
 20
132.94886825790081
 30
0.0
 11
104.0531655107231
 21
132.44886825790081
 31
0.0
  0
ARC
  5
39A
  8
0
 10
113.0531655107231
 20
151.1488682579008
 30
0.0
 40
21.931712000000001
 50
292.02078169741372
 51
294.22774500000008
  0
ARC
  5
39C
  8
0
 10
113.0531655107231
 20
151.1488682579008
 30
0.0
 40
21.931712000000001
 50
245.77225499999989
 51
247.97921830258599
  0
LINE
  5
39D
  8
0
 10
104.0531655107231
 20
131.1488682579008
 30
0.0
 11
122.0531655107231
 21
131.1488682579008
 31
0.0
  0
ARC
  5
39E
  8
0
 10
113.0531655107231
 20
129.78007825790081
 30
0.0
 40
11.66879
 50
71.90112699999959
 51
90.0
  0
LINE
  5
39F
  8
0
 10
116.6781655107231
 20
140.87151825790079
 30
0.0
 11
116.6781655107231
 21
132.94886825790081
 31
0.0
  0
ARC
  5
3A0
  8
0
 10
118.4906655107231
 20
138.44886825790081
 30
0.0
 40
3.0256219999999998
 50
66.801916999999577
 51
126.80191699999931
  0
LINE
  5
3A2
  8
2
 10
108.3031655107231
 20
128.3171202579008
 30
0.0
 11
117.8031655107231
 21
128.3171202579008
 31
0.0
  0
LINE
  5
3A3
  8
2
 10
108.3031655107231
 20
129.54322425790079
 30
0.0
 11
117.8031655107231
 21
129.54322425790079
 31
0.0
  0
LINE
  5
3A4
  8
2
 10
108.3031655107231
 20
128.3171202579008
 30
0.0
 11
107.8031655107231
 21
127.8171202579008
 31
0.0
  0
LINE
  5
3A5
  8
2
 10
108.3031655107231
 20
129.54322425790079
 30
0.0
 11
108.3031655107231
 21
128.3171202579008
 31
0.0
  0
LINE
  5
3A6
  8
2
 10
104.8031655107231
 20
130.8171202579008
 30
0.0
 11
108.3031655107231
 21
129.54322425790079
 31
0.0
  0
LINE
  5
3A7
  8
2
 10
117.8031655107231
 20
128.3171202579008
 30
0.0
 11
118.3031655107231
 21
127.8171202579008
 31
0.0
  0
LINE
  5
3A8
  8
2
 10
117.8031655107231
 20
129.54322425790079
 30
0.0
 11
117.8031655107231
 21
128.3171202579008
 31
0.0
  0
LINE
  5
3A9
  8
2
 10
121.3031655107231
 20
130.8171202579008
 30
0.0
 11
117.8031655107231
 21
129.54322425790079
 31
0.0
  0
LINE
  5
3AA
  8
0
 10
122.0531655107231
 20
130.3171202579008
 30
0.0
 11
121.5531655107231
 21
130.8171202579008
 31
0.0
  0
LINE
  5
3AB
  8
0
 10
121.5531655107231
 20
127.8171202579008
 30
0.0
 11
122.0531655107231
 21
128.3171202579008
 31
0.0
  0
LINE
  5
3AC
  8
0
 10
104.0531655107231
 20
128.3171202579008
 30
0.0
 11
104.5531655107231
 21
127.8171202579008
 31
0.0
  0
LINE
  5
3AD
  8
0
 10
104.5531655107231
 20
130.8171202579008
 30
0.0
 11
104.0531655107231
 21
130.3171202579008
 31
0.0
  0
LINE
  5
3AE
  8
0
 10
104.0531655107231
 20
128.3171202579008
 30
0.0
 11
104.0531655107231
 21
130.3171202579008
 31
0.0
  0
LINE
  5
3B0
  8
0
 10
122.0531655107231
 20
130.3171202579008
 30
0.0
 11
122.0531655107231
 21
128.3171202579008
 31
0.0
  0
LINE
  5
3B1
  8
0
 10
104.5531655107231
 20
130.8171202579008
 30
0.0
 11
121.5531655107231
 21
130.8171202579008
 31
0.0
  0
ARC
  5
3B2
  8
0
 10
49.953134510723139
 20
133.34886825790079
 30
0.0
 40
0.4
 50
180.0
 51
270.0
  0
LINE
  5
3B3
  8
0
 10
43.05313451072314
 20
140.72397425790081
 30
0.0
 11
43.05313451072314
 21
137.17376225790079
 31
0.0
  0
ARC
  5
3B4
  8
0
 10
46.303134510723133
 20
133.8008742579008
 30
0.0
 40
7.6479939999999997
 50
64.85262400000012
 51
115.14737599999989
  0
ARC
  5
3B5
  8
0
 10
39.80313451072314
 20
133.8008742579008
 30
0.0
 40
7.6479939999999997
 50
64.85262400000012
 51
115.14737599999989
  0
LINE
  5
3B6
  8
0
 10
49.153134510723142
 20
141.44886825790081
 30
0.0
 11
49.55313451072314
 21
141.04886825790081
 31
0.0
  0
LINE
  5
3B7
  8
0
 10
36.953134510723153
 20
141.44886825790081
 30
0.0
 11
36.55313451072314
 21
141.04886825790081
 31
0.0
  0
LINE
  5
3B8
  8
0
 10
49.153134510723142
 20
141.44886825790081
 30
0.0
 11
36.953134510723153
 21
141.44886825790081
 31
0.0
  0
LINE
  5
3B9
  8
0
 10
49.55313451072314
 20
133.34886825790079
 30
0.0
 11
49.55313451072314
 21
141.04886825790081
 31
0.0
  0
LINE
  5
3BA
  8
0
 10
43.05313451072314
 20
140.72397425790081
 30
0.0
 11
43.05313451072314
 21
132.94886825790081
 31
0.0
  0
LINE
  5
3BB
  8
0
 10
36.553128510723141
 20
133.34886825790079
 30
0.0
 11
36.553128510723141
 21
141.04886825790081
 31
0.0
  0
ARC
  5
3BC
  8
0
 10
36.15312851072315
 20
133.34886825790079
 30
0.0
 40
0.4
 50
270.0
 51
0.0
  0
LINE
  5
3BD
  8
0
 10
52.05316551072314
 20
132.44886825790081
 30
0.0
 11
52.05316551072314
 21
131.1488682579008
 31
0.0
  0
LINE
  5
3BE
  8
0
 10
34.053165510723147
 20
132.44886825790081
 30
0.0
 11
34.053165510723147
 21
131.1488682579008
 31
0.0
  0
LINE
  5
3BF
  8
0
 10
34.553165510723147
 20
132.94886825790081
 30
0.0
 11
51.55316551072314
 21
132.94886825790081
 31
0.0
  0
LINE
  5
3C1
  8
0
 10
52.05316551072314
 20
132.44886825790081
 30
0.0
 11
51.55316551072314
 21
132.94886825790081
 31
0.0
  0
LINE
  5
3C2
  8
0
 10
34.553165510723147
 20
132.94886825790081
 30
0.0
 11
34.053165510723147
 21
132.44886825790081
 31
0.0
  0
ARC
  5
3C3
  8
0
 10
43.053165510723147
 20
151.1488682579008
 30
0.0
 40
21.931712000000001
 50
292.02078169741378
 51
294.22774500000008
  0
ARC
  5
3C5
  8
0
 10
43.053165510723147
 20
151.1488682579008
 30
0.0
 40
21.931712000000001
 50
245.77225499999989
 51
247.97921830258599
  0
LINE
  5
3C6
  8
0
 10
34.053165510723147
 20
131.1488682579008
 30
0.0
 11
52.05316551072314
 21
131.1488682579008
 31
0.0
  0
LINE
  5
3C8
  8
2
 10
38.303165510723147
 20
128.3171202579008
 30
0.0
 11
47.80316551072314
 21
128.3171202579008
 31
0.0
  0
LINE
  5
3C9
  8
2
 10
38.303165510723147
 20
129.54322425790079
 30
0.0
 11
47.80316551072314
 21
129.54322425790079
 31
0.0
  0
LINE
  5
3CA
  8
2
 10
38.303165510723147
 20
128.3171202579008
 30
0.0
 11
37.803165510723147
 21
127.8171202579008
 31
0.0
  0
LINE
  5
3CB
  8
2
 10
38.303165510723147
 20
129.54322425790079
 30
0.0
 11
38.303165510723147
 21
128.3171202579008
 31
0.0
  0
LINE
  5
3CC
  8
2
 10
34.803165510723147
 20
130.8171202579008
 30
0.0
 11
38.303165510723147
 21
129.54322425790079
 31
0.0
  0
LINE
  5
3CD
  8
2
 10
47.80316551072314
 20
128.3171202579008
 30
0.0
 11
48.30316551072314
 21
127.8171202579008
 31
0.0
  0
LINE
  5
3CE
  8
2
 10
47.80316551072314
 20
129.54322425790079
 30
0.0
 11
47.80316551072314
 21
128.3171202579008
 31
0.0
  0
LINE
  5
3CF
  8
2
 10
51.303165510723147
 20
130.8171202579008
 30
0.0
 11
47.80316551072314
 21
129.54322425790079
 31
0.0
  0
LINE
  5
3D0
  8
0
 10
52.05316551072314
 20
130.3171202579008
 30
0.0
 11
51.55316551072314
 21
130.8171202579008
 31
0.0
  0
LINE
  5
3D1
  8
0
 10
51.55316551072314
 20
127.8171202579008
 30
0.0
 11
52.05316551072314
 21
128.3171202579008
 31
0.0
  0
LINE
  5
3D2
  8
0
 10
34.053165510723147
 20
128.3171202579008
 30
0.0
 11
34.553165510723147
 21
127.8171202579008
 31
0.0
  0
LINE
  5
3D3
  8
0
 10
34.553165510723147
 20
130.8171202579008
 30
0.0
 11
34.053165510723147
 21
130.3171202579008
 31
0.0
  0
LINE
  5
3D4
  8
0
 10
34.053165510723147
 20
128.3171202579008
 30
0.0
 11
34.053165510723147
 21
130.3171202579008
 31
0.0
  0
LINE
  5
3D6
  8
0
 10
52.05316551072314
 20
130.3171202579008
 30
0.0
 11
52.05316551072314
 21
128.3171202579008
 31
0.0
  0
LINE
  5
3D7
  8
0
 10
34.553165510723147
 20
130.8171202579008
 30
0.0
 11
51.55316551072314
 21
130.8171202579008
 31
0.0
  0
ARC
  5
3D8
  8
0
 10
204.9531345107232
 20
133.34886825790079
 30
0.0
 40
0.4
 50
180.0
 51
270.0
  0
LINE
  5
3D9
  8
0
 10
198.05313451072311
 20
140.72397425790081
 30
0.0
 11
198.05313451072311
 21
138.94886825790081
 31
0.0
  0
ARC
  5
3DA
  8
0
 10
201.3031345107232
 20
133.8008742579008
 30
0.0
 40
7.6479939999999997
 50
64.852624000001072
 51
115.1473759999989
  0
ARC
  5
3DB
  8
0
 10
194.80313451072311
 20
133.8008742579008
 30
0.0
 40
7.6479939999999997
 50
64.852624000001072
 51
115.1473759999989
  0
LINE
  5
3DC
  8
0
 10
204.15313451072311
 20
141.44886825790081
 30
0.0
 11
204.5531345107232
 21
141.04886825790081
 31
0.0
  0
LINE
  5
3DD
  8
0
 10
191.95313451072309
 20
141.44886825790081
 30
0.0
 11
191.5531345107232
 21
141.04886825790081
 31
0.0
  0
LINE
  5
3DE
  8
0
 10
204.15313451072311
 20
141.44886825790081
 30
0.0
 11
191.95313451072309
 21
141.44886825790081
 31
0.0
  0
LINE
  5
3DF
  8
0
 10
204.5531345107232
 20
133.34886825790079
 30
0.0
 11
204.5531345107232
 21
141.04886825790081
 31
0.0
  0
LINE
  5
3E1
  8
0
 10
191.5531285107231
 20
133.34886825790079
 30
0.0
 11
191.5531285107231
 21
141.04886825790081
 31
0.0
  0
ARC
  5
3E2
  8
0
 10
191.15312851072309
 20
133.34886825790079
 30
0.0
 40
0.4
 50
270.0
 51
0.0
  0
LINE
  5
3E3
  8
0
 10
207.05316551072309
 20
132.44886825790081
 30
0.0
 11
207.05316551072309
 21
131.1488682579008
 31
0.0
  0
LINE
  5
3E4
  8
0
 10
189.05316551072309
 20
132.44886825790081
 30
0.0
 11
189.05316551072309
 21
131.1488682579008
 31
0.0
  0
LINE
  5
3E5
  8
0
 10
189.55316551072309
 20
132.94886825790081
 30
0.0
 11
194.05313451072311
 21
132.94886825790081
 31
0.0
  0
LINE
  5
3E7
  8
0
 10
207.05316551072309
 20
132.44886825790081
 30
0.0
 11
206.5531655107232
 21
132.94886825790081
 31
0.0
  0
LINE
  5
3E8
  8
0
 10
189.55316551072309
 20
132.94886825790081
 30
0.0
 11
189.05316551072309
 21
132.44886825790081
 31
0.0
  0
ARC
  5
3E9
  8
0
 10
198.05316551072309
 20
151.1488682579008
 30
0.0
 40
21.931712000000001
 50
292.02078169741372
 51
294.22774499999912
  0
ARC
  5
3EB
  8
0
 10
198.05316551072309
 20
151.1488682579008
 30
0.0
 40
21.931712000000001
 50
245.7722550000008
 51
247.9792183025861
  0
LINE
  5
3EC
  8
0
 10
189.05316551072309
 20
131.1488682579008
 30
0.0
 11
194.05313451072311
 21
131.1488682579008
 31
0.0
  0
LINE
  5
3F6
  8
0
 10
207.05316551072309
 20
130.3171202579008
 30
0.0
 11
206.5531655107232
 21
130.8171202579008
 31
0.0
  0
LINE
  5
3F7
  8
0
 10
206.5531655107232
 20
127.8171202579008
 30
0.0
 11
207.05316551072309
 21
128.3171202579008
 31
0.0
  0
LINE
  5
3F8
  8
0
 10
189.05316551072309
 20
128.3171202579008
 30
0.0
 11
189.55316551072309
 21
127.8171202579008
 31
0.0
  0
LINE
  5
3F9
  8
0
 10
189.55316551072309
 20
130.8171202579008
 30
0.0
 11
189.05316551072309
 21
130.3171202579008
 31
0.0
  0
LINE
  5
3FA
  8
0
 10
189.05316551072309
 20
128.3171202579008
 30
0.0
 11
189.05316551072309
 21
130.3171202579008
 31
0.0
  0
LINE
  5
3FC
  8
0
 10
207.05316551072309
 20
130.3171202579008
 30
0.0
 11
207.05316551072309
 21
128.3171202579008
 31
0.0
  0
LINE
  5
3FD
  8
0
 10
189.55316551072309
 20
130.8171202579008
 30
0.0
 11
194.05313451072311
 21
130.8171202579008
 31
0.0
  0
ARC
  5
3FE
  8
2
 10
113.0531655107231
 20
190.8171202579008
 30
0.0
 40
4.5000000000000284
 50
270.0
 51
90.0
  0
LINE
  5
406
  8
0
 10
39.05316551072314
 20
141.44886825790081
 30
0.0
 11
39.053165510723147
 21
159.61712025790081
 31
0.0
  0
LINE
  5
407
  8
0
 10
47.05316551072314
 20
115.8171202579008
 30
0.0
 11
47.053165510723133
 21
60.817120257900861
 31
0.0
  0
LINE
  5
408
  8
0
 10
47.053165510723133
 20
55.817120257900861
 30
0.0
 11
47.05316551072314
 21
37.017120257900856
 31
0.0
  0
LINE
  5
409
  8
3
 10
46.453165510723153
 20
55.817120257900861
 30
0.0
 11
46.453165510723153
 21
36.417120257900862
 31
0.0
  0
LINE
  5
40A
  8
3
 10
39.653165510723142
 20
55.817120257900861
 30
0.0
 11
39.653165510723142
 21
36.417120257900862
 31
0.0
  0
LINE
  5
40B
  8
0
 10
39.053165510723119
 20
60.817120257900861
 30
0.0
 11
39.05316551072314
 21
115.8171202579008
 31
0.0
  0
ARC
  5
40C
  8
0
 10
36.053165510723147
 20
60.817120257900861
 30
0.0
 40
1.0
 50
270.0
 51
299.99999999999989
  0
ARC
  5
40D
  8
0
 10
50.053165510723147
 20
60.817120257900861
 30
0.0
 40
1.0
 50
239.99999999999909
 51
270.0
  0
LINE
  5
40E
  8
0
 10
37.053165510723147
 20
64.317120257900854
 30
0.0
 11
37.553165510723147
 21
64.817120257900854
 31
0.0
  0
LINE
  5
40F
  8
0
 10
49.05316551072314
 20
64.317120257900854
 30
0.0
 11
48.553165510723147
 21
64.817120257900854
 31
0.0
  0
LINE
  5
410
  8
0
 10
51.053165510723147
 20
59.317120257900847
 30
0.0
 11
50.553165510723147
 21
59.817120257900847
 31
0.0
  0
LINE
  5
411
  8
0
 10
50.553165510723147
 20
55.817120257900861
 30
0.0
 11
51.053165510723147
 21
56.317120257900847
 31
0.0
  0
LINE
  5
412
  8
0
 10
35.053165510723147
 20
59.317120257900847
 30
0.0
 11
35.553165510723147
 21
59.817120257900847
 31
0.0
  0
LINE
  5
413
  8
0
 10
35.553165510723147
 20
55.817120257900861
 30
0.0
 11
35.053165510723147
 21
56.317120257900847
 31
0.0
  0
LINE
  5
414
  8
0
 10
35.053165510723147
 20
59.317120257900847
 30
0.0
 11
35.053165510723147
 21
56.317120257900847
 31
0.0
  0
LINE
  5
415
  8
0
 10
37.053165510723147
 20
64.317120257900854
 30
0.0
 11
37.053165510723147
 21
60.817120257900861
 31
0.0
  0
LINE
  5
416
  8
0
 10
49.05316551072314
 20
60.817120257900861
 30
0.0
 11
49.05316551072314
 21
64.317120257900854
 31
0.0
  0
LINE
  5
417
  8
0
 10
50.553165510723147
 20
59.817120257900847
 30
0.0
 11
49.55316551072314
 21
59.817120257900847
 31
0.0
  0
LINE
  5
418
  8
0
 10
51.053165510723147
 20
56.317120257900847
 30
0.0
 11
51.053165510723147
 21
59.317120257900847
 31
0.0
  0
LINE
  5
419
  8
0
 10
35.553165510723147
 20
55.817120257900861
 30
0.0
 11
50.553165510723147
 21
55.817120257900861
 31
0.0
  0
LINE
  5
41A
  8
0
 10
48.553165510723147
 20
64.817120257900854
 30
0.0
 11
47.05316551072314
 21
64.817120257900854
 31
0.0
  0
LINE
  5
41B
  8
0
 10
39.053165510723119
 20
64.817120257900854
 30
0.0
 11
37.553165510723147
 21
64.817120257900854
 31
0.0
  0
LINE
  5
41C
  8
0
 10
36.553165510723147
 20
59.817120257900847
 30
0.0
 11
35.553165510723147
 21
59.817120257900847
 31
0.0
  0
LINE
  5
420
  8
0
 10
109.0531655107231
 20
141.44886825790081
 30
0.0
 11
109.0531655107231
 21
159.61712025790081
 31
0.0
  0
LINE
  5
421
  8
0
 10
117.0531655107232
 20
115.8171202579008
 30
0.0
 11
117.0531655107232
 21
60.817120257900861
 31
0.0
  0
LINE
  5
422
  8
0
 10
117.0531655107232
 20
55.817120257900861
 30
0.0
 11
117.0531655107231
 21
37.017120257900856
 31
0.0
  0
LINE
  5
423
  8
3
 10
116.4531655107231
 20
55.817120257900861
 30
0.0
 11
116.4531655107231
 21
36.417120257900862
 31
0.0
  0
LINE
  5
424
  8
3
 10
109.6531655107231
 20
55.817120257900861
 30
0.0
 11
109.6531655107231
 21
36.417120257900862
 31
0.0
  0
LINE
  5
425
  8
0
 10
109.0531655107231
 20
60.817120257900861
 30
0.0
 11
109.0531655107231
 21
115.8171202579008
 31
0.0
  0
LINE
  5
426
  8
0
 10
133.05316551072309
 20
127.8171202579008
 30
0.0
 11
133.05316551072309
 21
137.61712025790081
 31
0.0
  0
LINE
  5
427
  8
3
 10
132.3761655107231
 20
115.8171202579008
 30
0.0
 11
132.3761655107231
 21
65.926254257900851
 31
0.0
  0
LINE
  5
428
  8
3
 10
125.7301655107231
 20
115.8171202579008
 30
0.0
 11
125.7301655107231
 21
65.926254257900851
 31
0.0
  0
LINE
  5
429
  8
0
 10
125.0531655107231
 20
115.8171202579008
 30
0.0
 11
125.0531655107231
 21
66.317120257900854
 31
0.0
  0
LINE
  5
42B
  8
0
 10
202.05316551072309
 20
55.817120257900861
 30
0.0
 11
202.0531655107232
 21
37.017120257900856
 31
0.0
  0
LINE
  5
42C
  8
3
 10
201.4531655107231
 20
55.817120257900861
 30
0.0
 11
201.4531655107231
 21
36.417120257900862
 31
0.0
  0
LINE
  5
42D
  8
3
 10
194.65316551072311
 20
55.817120257900861
 30
0.0
 11
194.65316551072311
 21
36.417120257900862
 31
0.0
  0
LINE
  5
42E
  8
0
 10
194.05316551072309
 20
64.817120257900854
 30
0.0
 11
194.05316551072309
 21
115.8171202579008
 31
0.0
  0
LINE
  5
42F
  8
0
 10
202.0531655107232
 20
115.8171202579008
 30
0.0
 11
202.0531655107232
 21
64.817120257900854
 31
0.0
  0
LINE
  5
430
  8
0
 10
194.05316551072309
 20
141.44886825790081
 30
0.0
 11
194.05316551072309
 21
159.61712025790081
 31
0.0
  0
LINE
  5
4C3
  8
0
 10
200.85313451072321
 20
138.94886825790081
 30
0.0
 11
195.2531345107231
 21
138.94886825790081
 31
0.0
  0
LINE
  5
4C4
  8
0
 10
194.05313451072311
 20
137.7488682579008
 30
0.0
 11
194.05313451072311
 21
127.8171202579008
 31
0.0
  0
LINE
  5
4C5
  8
0
 10
202.0531345107232
 20
127.8171202579008
 30
0.0
 11
202.0531345107232
 21
137.7488682579008
 31
0.0
  0
LINE
  5
4C6
  8
0
 10
200.85313451072321
 20
138.94886825790081
 30
0.0
 11
202.0531345107232
 21
137.7488682579008
 31
0.0
  0
LINE
  5
4C7
  8
0
 10
195.2531345107231
 20
138.94886825790081
 30
0.0
 11
194.05313451072311
 21
137.7488682579008
 31
0.0
  0
LINE
  5
4C8
  8
0
 10
202.0531345107232
 20
137.7488682579008
 30
0.0
 11
194.05313451072311
 21
137.7488682579008
 31
0.0
  0
LINE
  5
4C9
  8
3
 10
194.7301345107231
 20
138.42586825790079
 30
0.0
 11
194.73013451072319
 21
127.8171202579008
 31
0.0
  0
LINE
  5
4CA
  8
3
 10
201.3761345107232
 20
138.42586825790079
 30
0.0
 11
201.3761345107232
 21
127.8171202579008
 31
0.0
  0
LINE
  5
4CD
  8
0
 10
202.0531345107232
 20
130.8171202579008
 30
0.0
 11
206.5531655107232
 21
130.8171202579008
 31
0.0
  0
LINE
  5
4CE
  8
0
 10
202.0531345107232
 20
131.1488682579008
 30
0.0
 11
207.05316551072309
 21
131.1488682579008
 31
0.0
  0
LINE
  5
4CF
  8
0
 10
202.0531345107232
 20
132.94886825790081
 30
0.0
 11
206.5531655107232
 21
132.94886825790081
 31
0.0
  0
LINE
  5
4DE
  8
0
 10
190.54761251072321
 20
60.092226257900862
 30
0.0
 11
190.54761251072321
 21
59.811567257900897
 31
0.0
  0
LINE
  5
4DF
  8
0
 10
191.80316551072309
 20
60.817120257900861
 30
0.0
 11
192.05316551072309
 21
60.817120257900861
 31
0.0
  0
LINE
  5
4E0
  8
0
 10
190.54761251072321
 20
60.092226257900862
 30
0.0
 11
191.80316551072309
 21
60.817120257900861
 31
0.0
  0
ARC
  5
4E1
  8
0
 10
192.42400051072309
 20
57.350213257900862
 30
0.0
 40
3.3225699999999989
 50
96.651044102894133
 51
115.615753
  0
LINE
  5
4E2
  8
0
 10
205.55871851072311
 20
60.092226257900862
 30
0.0
 11
205.55871851072311
 21
59.811567257900897
 31
0.0
  0
LINE
  5
4E3
  8
0
 10
204.3031655107232
 20
60.817120257900861
 30
0.0
 11
204.0531655107232
 21
60.817120257900861
 31
0.0
  0
LINE
  5
4E4
  8
0
 10
205.55871851072311
 20
60.092226257900862
 30
0.0
 11
204.3031655107232
 21
60.817120257900861
 31
0.0
  0
ARC
  5
4E5
  8
0
 10
203.68233051072309
 20
57.350213257900862
 30
0.0
 40
3.3225699999999989
 50
64.384246999999959
 51
83.348955897103394
  0
TEXT
  5
584
  8
0
 62
     3
 10
0.0
 20
0.0
 30
0.0
 40
10.0
  1
BJ153-08050B3
  7
STANDARD1
  0
ENDSEC
  0
EOF
