  0
SECTION
  2
HEADER
  9
$ACADVER
  1
AC1009
  9
$INSBASE
 10
82.638099999999994
 20
103.82319099999999
 30
0.0
  9
$EXTMIN
 10
0.0
 20
-2.960436562073669
 30
0.0
  9
$EXTMAX
 10
297.5
 20
216.0
 30
0.0
  9
$LIMMIN
 10
0.0
 20
0.0
  9
$LIMMAX
 10
375.0
 20
270.0
  9
$ORTHOMODE
 70
     1
  9
$REGENMODE
 70
     1
  9
$FILLMODE
 70
     1
  9
$QTEXTMODE
 70
     0
  9
$MIRRTEXT
 70
     0
  9
$DRAGMODE
 70
     2
  9
$LTSCALE
 40
10.0
  9
$OSMODE
 70
  3071
  9
$ATTMODE
 70
     1
  9
$TEXTSIZE
 40
0.06
  9
$TRACEWID
 40
0.05
  9
$TEXTSTYLE
  7
STANDARD
  9
$CLAYER
  8
0
  9
$CELTYPE
  6
BYLAYER
  9
$CECOLOR
 62
   256
  9
$DIMSCALE
 40
1.0
  9
$DIMASZ
 40
3.0
  9
$DIMEXO
 40
2.0
  9
$DIMDLI
 40
10.0
  9
$DIMRND
 40
0.0
  9
$DIMDLE
 40
0.0
  9
$DIMEXE
 40
2.0
  9
$DIMTP
 40
0.0
  9
$DIMTM
 40
0.0
  9
$DIMTXT
 40
3.0
  9
$DIMCEN
 40
0.0
  9
$DIMTSZ
 40
0.0
  9
$DIMTOL
 70
     0
  9
$DIMLIM
 70
     0
  9
$DIMTIH
 70
     0
  9
$DIMTOH
 70
     0
  9
$DIMSE1
 70
     0
  9
$DIMSE2
 70
     0
  9
$DIMTAD
 70
     1
  9
$DIMZIN
 70
     0
  9
$DIMBLK
  1

  9
$DIMASO
 70
     0
  9
$DIMSHO
 70
     0
  9
$DIMPOST
  1

  9
$DIMAPOST
  1

  9
$DIMALT
 70
     0
  9
$DIMALTD
 70
     2
  9
$DIMALTF
 40
25.399999999999999
  9
$DIMLFAC
 40
1.0
  9
$DIMTOFL
 70
     1
  9
$DIMTVP
 40
1.6000000000000001
  9
$DIMTIX
 70
     1
  9
$DIMSOXD
 70
     0
  9
$DIMSAH
 70
     0
  9
$DIMBLK1
  1

  9
$DIMBLK2
  1

  9
$DIMSTYLE
  2
STANDARD
  9
$DIMCLRD
 70
     0
  9
$DIMCLRE
 70
     0
  9
$DIMCLRT
 70
     0
  9
$DIMTFAC
 40
1.0
  9
$DIMGAP
 40
0.09
  9
$LUNITS
 70
     2
  9
$LUPREC
 70
     4
  9
$SKETCHINC
 40
0.1
  9
$FILLETRAD
 40
0.0
  9
$AUNITS
 70
     0
  9
$AUPREC
 70
     4
  9
$MENU
  1
E:\r13\win\SUPPORT\ACAD
  9
$ELEVATION
 40
0.0
  9
$PELEVATION
 40
0.0
  9
$THICKNESS
 40
0.0
  9
$LIMCHECK
 70
     0
  9
$BLIPMODE
 70
     0
  9
$CHAMFERA
 40
0.0
  9
$CHAMFERB
 40
0.0
  9
$SKPOLY
 70
     0
  9
$TDCREATE
 40
2449840.3459837972
  9
$TDUPDATE
 40
2456597.6358519439
  9
$TDINDWG
 40
0.0468432407
  9
$TDUSRTIMER
 40
0.0468432407
  9
$USRTIMER
 70
     1
  9
$ANGBASE
 50
0.0
  9
$ANGDIR
 70
     0
  9
$PDMODE
 70
     1
  9
$PDSIZE
 40
0.0
  9
$PLINEWID
 40
0.0
  9
$COORDS
 70
     1
  9
$SPLFRAME
 70
     0
  9
$SPLINETYPE
 70
     6
  9
$SPLINESEGS
 70
     8
  9
$ATTDIA
 70
     0
  9
$ATTREQ
 70
     1
  9
$HANDLING
 70
     1
  9
$HANDSEED
  5
709
  9
$SURFTAB1
 70
     6
  9
$SURFTAB2
 70
     6
  9
$SURFTYPE
 70
     6
  9
$SURFU
 70
     6
  9
$SURFV
 70
     6
  9
$UCSNAME
  2

  9
$UCSORG
 10
0.0
 20
0.0
 30
0.0
  9
$UCSXDIR
 10
1.0
 20
0.0
 30
0.0
  9
$UCSYDIR
 10
0.0
 20
1.0
 30
0.0
  9
$PUCSNAME
  2

  9
$PUCSORG
 10
0.0
 20
0.0
 30
0.0
  9
$PUCSXDIR
 10
1.0
 20
0.0
 30
0.0
  9
$PUCSYDIR
 10
0.0
 20
1.0
 30
0.0
  9
$USERI1
 70
     3
  9
$USERI2
 70
     1
  9
$USERI3
 70
     0
  9
$USERI4
 70
     0
  9
$USERI5
 70
     0
  9
$USERR1
 40
1.0
  9
$USERR2
 40
3.0
  9
$USERR3
 40
3.0
  9
$USERR4
 40
3.0
  9
$USERR5
 40
10.0
  9
$WORLDVIEW
 70
     1
  9
$SHADEDGE
 70
     3
  9
$SHADEDIF
 70
    70
  9
$TILEMODE
 70
     1
  9
$MAXACTVP
 70
    16
  9
$PLIMCHECK
 70
     0
  9
$PEXTMIN
 10
1.0000000000000000E+020
 20
1.0000000000000000E+020
 30
1.0000000000000000E+020
  9
$PEXTMAX
 10
-1.0000000000000000E+020
 20
-1.0000000000000000E+020
 30
-1.0000000000000000E+020
  9
$PLIMMIN
 10
0.0
 20
0.0
  9
$PLIMMAX
 10
12.0
 20
9.0
  9
$UNITMODE
 70
     0
  9
$VISRETAIN
 70
     0
  9
$PLINEGEN
 70
     0
  9
$PSLTSCALE
 70
     0
  0
ENDSEC
  0
SECTION
  2
TABLES
  0
TABLE
  2
VPORT
 70
     1
  0
VPORT
  2
*ACTIVE
 70
     0
 10
0.0
 20
0.0
 11
1.0
 21
1.0
 12
195.0581083320873
 22
133.5127261426681
 13
0.0
 23
0.0
 14
5.0
 24
5.0
 15
10.0
 25
10.0
 16
0.0
 26
0.0
 36
1.0
 17
0.0
 27
0.0
 37
0.0
 40
275.42274993631997
 41
1.831871345029239
 42
50.0
 43
0.0
 44
0.0
 50
0.0
 51
0.0
 71
     0
 72
   100
 73
     1
 74
     0
 75
     0
 76
     0
 77
     0
 78
     0
  0
ENDTAB
  0
TABLE
  2
LTYPE
 70
     4
  0
LTYPE
  2
CONTINUOUS
 70
     0
  3
Solid Line
 72
    65
 73
     0
 40
0.0
  0
LTYPE
  2
CENTER
 70
     0
  3
____ _ ____ _ ____ _ ____ _ ____ _ ____ _ ____
 72
    65
 73
     4
 40
2.0
 49
1.25
 49
-0.25
 49
0.25
 49
-0.25
  0
LTYPE
  2
HIDDEN
 70
     0
  3
__ __ __ __ __ __ __ __ __ __ __ __ __ __ __ __
 72
    65
 73
     2
 40
0.375
 49
0.25
 49
-0.125
  0
LTYPE
  2
PHANTOM2
 70
     0
  3
___ _ _ ___ _ _ ___ _ _ ___ _ _
 72
    65
 73
     6
 40
1.25
 49
0.625
 49
-0.125
 49
0.125
 49
-0.125
 49
0.125
 49
-0.125
  0
ENDTAB
  0
TABLE
  2
LAYER
 70
     4
  0
LAYER
  2
0
 70
     0
 62
     7
  6
CONTINUOUS
  0
LAYER
  2
1
 70
     0
 62
     1
  6
CENTER
  0
LAYER
  2
2
 70
     0
 62
     2
  6
HIDDEN
  0
LAYER
  2
3
 70
     0
 62
     3
  6
CONTINUOUS
  0
ENDTAB
  0
TABLE
  2
STYLE
 70
     2
  0
STYLE
  2
STANDARD
 70
     0
 40
0.0
 41
1.0
 50
0.0
 71
     0
 42
0.06
  3
TXT
  4
BIGFONT
  0
STYLE
  2
STANDARD1
 70
     0
 40
0.0
 41
1.0
 50
0.0
 71
     0
 42
3.0
  3
txt
  4

  0
ENDTAB
  0
TABLE
  2
VIEW
 70
     0
  0
ENDTAB
  0
TABLE
  2
UCS
 70
     0
  0
ENDTAB
  0
TABLE
  2
APPID
 70
     3
  0
APPID
  2
ACAD
 70
     0
  0
APPID
  2
ACAD_MLEADERVER
 70
     0
  0
APPID
  2
ACAD_NAV_VCDISPLAY
 70
     0
  0
ENDTAB
  0
TABLE
  2
DIMSTYLE
 70
     1
  0
DIMSTYLE
  2
STANDARD
 70
     0
  3

  4

  5

  6

  7

 40
1.0
 41
0.18
 42
0.0625
 43
0.38
 44
0.18
 45
0.0
 46
0.0
 47
0.0
 48
0.0
140
0.18
141
0.09
142
0.0
143
25.399999999999999
144
1.0
145
0.0
146
1.0
147
0.09
 71
     0
 72
     0
 73
     1
 74
     1
 75
     0
 76
     0
 77
     0
 78
     0
170
     0
171
     2
172
     0
173
     0
174
     0
175
     0
176
     0
177
     0
178
     0
  0
ENDTAB
  0
ENDSEC
  0
SECTION
  2
BLOCKS
  0
BLOCK
  8
0
  2
$MODEL_SPACE
 70
     0
 10
0.0
 20
0.0
 30
0.0
  3
$MODEL_SPACE
  1

  0
ENDBLK
  5
23C
  8
0
  0
BLOCK
 67
     1
  8
0
  2
$PAPER_SPACE
 70
     0
 10
0.0
 20
0.0
 30
0.0
  3
$PAPER_SPACE
  1

  0
ENDBLK
  5
23A
 67
     1
  8
0
  0
ENDSEC
  0
SECTION
  2
ENTITIES
  0
CIRCLE
  5
449
  8
0
 10
190.0
 20
200.0
 30
0.0
 40
4.25
  0
CIRCLE
  5
44A
  8
3
 10
190.0
 20
200.0
 30
0.0
 40
5.0
  0
LINE
  5
44B
  8
0
 10
199.53793899999991
 20
199.520196
 30
0.0
 11
195.18449200000001
 21
191.979804
 31
0.0
  0
ARC
  5
44C
  8
0
 10
190.0
 20
200.0
 30
0.0
 40
9.5500000000000007
 50
357.1201729999998
 51
2.879827000000224
  0
ARC
  5
44D
  8
0
 10
190.0
 20
200.0
 30
0.0
 40
9.5500000000000007
 50
57.120173000000769
 51
62.879826999999651
  0
LINE
  5
44E
  8
0
 10
195.18449200000001
 20
208.020196
 30
0.0
 11
199.53793944527141
 21
200.4798032287672
 31
0.0
  0
ARC
  5
44F
  8
0
 10
190.0
 20
200.0
 30
0.0
 40
9.5500000000000007
 50
117.12017300000031
 51
122.8798269999992
  0
LINE
  5
450
  8
0
 10
185.6465529999999
 20
208.5
 30
0.0
 11
194.3534469999999
 21
208.5
 31
0.0
  0
ARC
  5
451
  8
0
 10
190.0
 20
200.0
 30
0.0
 40
9.5500000000000007
 50
177.12017299999971
 51
182.8798270000002
  0
LINE
  5
452
  8
0
 10
180.46206099999989
 20
200.479804
 30
0.0
 11
184.81550799999991
 21
208.020196
 31
0.0
  0
ARC
  5
453
  8
0
 10
190.0
 20
200.0
 30
0.0
 40
9.5500000000000007
 50
237.12017300000079
 51
242.87982699999969
  0
LINE
  5
454
  8
0
 10
184.81550799999991
 20
191.979804
 30
0.0
 11
180.46206099999989
 21
199.520196
 31
0.0
  0
ARC
  5
455
  8
0
 10
190.0
 20
200.0
 30
0.0
 40
9.5500000000000007
 50
297.12017300000042
 51
302.87982699999918
  0
LINE
  5
456
  8
0
 10
194.3534469999999
 20
191.5
 30
0.0
 11
185.6465529999999
 21
191.5
 31
0.0
  0
CIRCLE
  5
457
  8
0
 10
190.0
 20
200.0
 30
0.0
 40
8.0
  0
CIRCLE
  5
458
  8
0
 10
190.0
 20
200.0
 30
0.0
 40
11.0
  0
LINE
  5
459
  8
1
 10
190.0
 20
216.0
 30
0.0
 11
190.0
 21
184.0
 31
0.0
  0
LINE
  5
45A
  8
0
 10
179.0
 20
129.0
 30
0.0
 11
179.5
 21
129.5
 31
0.0
  0
LINE
  5
45B
  8
0
 10
179.5
 20
126.0
 30
0.0
 11
179.0
 21
126.5
 31
0.0
  0
LINE
  5
45C
  8
0
 10
201.0
 20
129.0
 30
0.0
 11
200.5
 21
129.5
 31
0.0
  0
LINE
  5
45D
  8
0
 10
200.5
 20
126.0
 30
0.0
 11
201.0
 21
126.5
 31
0.0
  0
LINE
  5
45E
  8
0
 10
179.0
 20
126.5
 30
0.0
 11
179.0
 21
129.0
 31
0.0
  0
LINE
  5
45F
  8
0
 10
200.5
 20
126.0
 30
0.0
 11
179.5
 21
126.0
 31
0.0
  0
LINE
  5
460
  8
0
 10
201.0
 20
129.0
 30
0.0
 11
201.0
 21
126.5
 31
0.0
  0
LINE
  5
461
  8
0
 10
179.5
 20
129.5
 30
0.0
 11
200.5
 21
129.5
 31
0.0
  0
LINE
  5
462
  8
0
 10
201.0
 20
131.528246
 30
0.0
 11
201.0
 21
129.928246
 31
0.0
  0
LINE
  5
463
  8
0
 10
194.77500000000001
 20
142.133353
 30
0.0
 11
194.77500000000001
 21
132.028246
 31
0.0
  0
ARC
  5
464
  8
0
 10
190.0
 20
129.84149600000001
 30
0.0
 40
13.18675
 50
68.770417000001473
 51
90.0
  0
ARC
  5
465
  8
0
 10
197.16249999999991
 20
139.403246
 30
0.0
 40
3.6267949999999991
 50
71.169949999999631
 51
131.16994999999989
  0
ARC
  5
466
  8
0
 10
190.0
 20
152.37818999999999
 30
0.0
 40
25.0
 50
243.89611899999761
 51
246.2238544403493
  0
ARC
  5
467
  8
0
 10
190.0
 20
152.37818999999999
 30
0.0
 40
25.0
 50
293.77614555965067
 51
296.10388100000239
  0
LINE
  5
468
  8
0
 10
201.0
 20
129.928246
 30
0.0
 11
179.0
 21
129.928246
 31
0.0
  0
LINE
  5
469
  8
0
 10
199.5499999999999
 20
142.133353
 30
0.0
 11
199.5499999999999
 21
132.428246
 31
0.0
  0
LINE
  5
46A
  8
0
 10
199.5499999999999
 20
142.133353
 30
0.0
 11
198.0
 21
143.028246
 31
0.0
  0
LINE
  5
46B
  8
0
 10
180.4499999999999
 20
142.133353
 30
0.0
 11
182.0
 21
143.028246
 31
0.0
  0
ARC
  5
46C
  8
0
 10
182.83750000000001
 20
139.403246
 30
0.0
 40
3.6267949999999991
 50
48.830050000000121
 51
108.8300500000003
  0
ARC
  5
46D
  8
0
 10
182.83750000000001
 20
139.403246
 30
0.0
 40
3.6267949999999991
 50
131.16994999999989
 51
131.16994999999989
  0
ARC
  5
46E
  8
0
 10
190.0
 20
129.84149600000001
 30
0.0
 40
13.18675
 50
90.0
 51
111.2295829999985
  0
LINE
  5
46F
  8
0
 10
198.0
 20
143.028246
 30
0.0
 11
182.0
 21
143.028246
 31
0.0
  0
LINE
  5
470
  8
0
 10
185.22499999999991
 20
142.133353
 30
0.0
 11
185.22499999999991
 21
132.028246
 31
0.0
  0
LINE
  5
471
  8
0
 10
180.4499999999999
 20
142.133353
 30
0.0
 11
180.4499999999999
 21
132.466465
 31
0.0
  0
ARC
  5
472
  8
0
 10
199.9499999999999
 20
132.428246
 30
0.0
 40
0.4
 50
180.0
 51
270.0
  0
LINE
  5
473
  8
0
 10
200.5
 20
132.028246
 30
0.0
 11
201.0
 21
131.528246
 31
0.0
  0
ARC
  5
474
  8
0
 10
180.0499999999999
 20
132.428246
 30
0.0
 40
0.4
 50
270.0
 51
0.0
  0
LINE
  5
475
  8
0
 10
179.0
 20
131.528246
 30
0.0
 11
179.0
 21
129.928246
 31
0.0
  0
LINE
  5
476
  8
0
 10
179.5
 20
132.028246
 30
0.0
 11
179.0
 21
131.528246
 31
0.0
  0
LINE
  5
477
  8
0
 10
179.5
 20
132.028246
 30
0.0
 11
200.5
 21
132.028246
 31
0.0
  0
LINE
  5
478
  8
1
 10
190.0
 20
172.0
 30
0.0
 11
190.0
 21
60.0
 31
0.0
  0
LINE
  5
479
  8
0
 10
185.0
 20
163.5
 30
0.0
 11
195.0
 21
163.5
 31
0.0
  0
LINE
  5
47A
  8
3
 10
185.75
 20
143.028246
 30
0.0
 11
185.75
 21
164.25
 31
0.0
  0
LINE
  5
47B
  8
3
 10
194.25
 20
143.028246
 30
0.0
 11
194.25
 21
164.25
 31
0.0
  0
LINE
  5
47C
  8
3
 10
194.25
 20
105.0
 30
0.0
 11
195.0
 21
106.299038
 31
0.0
  0
LINE
  5
47D
  8
3
 10
194.25
 20
105.0
 30
0.0
 11
194.25
 21
91.0
 31
0.0
  0
LINE
  5
47E
  8
3
 10
194.25
 20
85.0
 30
0.0
 11
194.25
 21
65.75
 31
0.0
  0
LINE
  5
47F
  8
3
 10
185.75
 20
105.0
 30
0.0
 11
185.0
 21
106.299038
 31
0.0
  0
LINE
  5
480
  8
0
 10
185.0
 20
66.5
 30
0.0
 11
195.0
 21
66.5
 31
0.0
  0
LINE
  5
481
  8
3
 10
185.75
 20
105.0
 30
0.0
 11
185.75
 21
91.0
 31
0.0
  0
LINE
  5
482
  8
3
 10
185.75
 20
85.0
 30
0.0
 11
185.75
 21
65.75
 31
0.0
  0
LINE
  5
483
  8
0
 10
195.0
 20
105.0
 30
0.0
 11
185.0
 21
105.0
 31
0.0
  0
LINE
  5
484
  8
0
 10
193.5
 20
165.0
 30
0.0
 11
195.0
 21
163.5
 31
0.0
  0
LINE
  5
485
  8
0
 10
185.0
 20
163.5
 30
0.0
 11
186.5
 21
165.0
 31
0.0
  0
LINE
  5
486
  8
0
 10
186.5
 20
65.0
 30
0.0
 11
185.0
 21
66.5
 31
0.0
  0
LINE
  5
487
  8
0
 10
193.5
 20
65.0
 30
0.0
 11
195.0
 21
66.5
 31
0.0
  0
LINE
  5
488
  8
0
 10
195.0
 20
163.5
 30
0.0
 11
195.0
 21
143.028246
 31
0.0
  0
LINE
  5
489
  8
0
 10
195.0
 20
110.0
 30
0.0
 11
195.0
 21
91.0
 31
0.0
  0
LINE
  5
48A
  8
0
 10
195.0
 20
85.0
 30
0.0
 11
195.0
 21
66.5
 31
0.0
  0
LINE
  5
48B
  8
0
 10
186.5
 20
165.0
 30
0.0
 11
193.5
 21
165.0
 31
0.0
  0
LINE
  5
48C
  8
0
 10
185.0
 20
66.5
 30
0.0
 11
185.0
 21
85.0
 31
0.0
  0
LINE
  5
48D
  8
0
 10
185.0
 20
91.0
 30
0.0
 11
185.0
 21
110.0
 31
0.0
  0
LINE
  5
48E
  8
0
 10
185.0
 20
143.028246
 30
0.0
 11
185.0
 21
163.5
 31
0.0
  0
LINE
  5
48F
  8
0
 10
193.5
 20
65.0
 30
0.0
 11
186.5
 21
65.0
 31
0.0
  0
LINE
  5
490
  8
0
 10
198.25
 20
85.0
 30
0.0
 11
181.75
 21
85.0
 31
0.0
  0
LINE
  5
491
  8
0
 10
181.75
 20
91.0
 30
0.0
 11
198.25
 21
91.0
 31
0.0
  0
ARC
  5
492
  8
0
 10
197.36121600000001
 20
86.510763999999995
 30
0.0
 40
4.344898999999999
 50
64.384247000000045
 51
124.38424699999671
  0
LINE
  5
493
  8
0
 10
199.8149549999998
 20
90.096473000000003
 30
0.0
 11
198.25
 21
91.0
 31
0.0
  0
LINE
  5
494
  8
0
 10
199.8149549999998
 20
85.903526999999997
 30
0.0
 11
198.25
 21
85.0
 31
0.0
  0
ARC
  5
495
  8
0
 10
197.36121600000001
 20
89.489236000000005
 30
0.0
 40
4.344898999999999
 50
235.6157530000032
 51
295.61575299999998
  0
LINE
  5
496
  8
0
 10
199.8149549999998
 20
90.096473000000003
 30
0.0
 11
199.8149549999998
 21
85.903526999999997
 31
0.0
  0
LINE
  5
497
  8
0
 10
194.907477
 20
90.096473000000003
 30
0.0
 11
194.907477
 21
85.903526999999997
 31
0.0
  0
LINE
  5
498
  8
0
 10
185.0925229999998
 20
90.096473000000003
 30
0.0
 11
185.0925229999998
 21
85.903526999999997
 31
0.0
  0
LINE
  5
499
  8
0
 10
180.18504499999989
 20
90.096473000000003
 30
0.0
 11
180.18504499999989
 21
85.903526999999997
 31
0.0
  0
ARC
  5
49A
  8
0
 10
190.0
 20
101.385148
 30
0.0
 40
16.24081099999999
 50
252.412046000001
 51
287.58795399999912
  0
ARC
  5
49B
  8
0
 10
182.63878399999999
 20
89.489236000000005
 30
0.0
 40
4.344898999999999
 50
244.38424699999999
 51
304.38424699999672
  0
LINE
  5
49C
  8
0
 10
180.18504499999989
 20
85.903526999999997
 30
0.0
 11
181.75
 21
85.0
 31
0.0
  0
LINE
  5
49D
  8
0
 10
180.18504499999989
 20
90.096473000000003
 30
0.0
 11
181.75
 21
91.0
 31
0.0
  0
ARC
  5
49E
  8
0
 10
190.0
 20
74.614851999999999
 30
0.0
 40
16.24081099999999
 50
72.412046000000942
 51
107.587953999999
  0
ARC
  5
49F
  8
0
 10
182.63878399999999
 20
86.510763999999995
 30
0.0
 40
4.344898999999999
 50
55.615753000003266
 51
115.6157529999999
  0
LINE
  5
4A0
  8
0
 10
235.0
 20
113.5
 30
0.0
 11
235.0
 21
110.40000000000001
 31
0.0
  0
LINE
  5
4A1
  8
0
 10
239.5
 20
109.42265
 30
0.0
 11
239.5
 21
102.57735
 31
0.0
  0
LINE
  5
4A2
  8
0
 10
238.92545499999991
 20
109.42265
 30
0.0
 11
238.92545499999991
 21
102.57735
 31
0.0
  0
LINE
  5
4A3
  8
0
 10
234.5095739999999
 20
109.42265
 30
0.0
 11
234.5095739999999
 21
102.57735
 31
0.0
  0
LINE
  5
4A4
  8
0
 10
233.12249899999989
 20
109.42265
 30
0.0
 11
233.12249899999989
 21
102.57735
 31
0.0
  0
LINE
  5
4A5
  8
0
 10
238.5
 20
110.0
 30
0.0
 11
239.5
 21
109.42265
 31
0.0
  0
LINE
  5
4A6
  8
0
 10
239.5
 20
109.42265
 30
0.0
 11
238.92545499999991
 21
109.42265
 31
0.0
  0
LINE
  5
4A7
  8
0
 10
234.5095739999999
 20
109.42265
 30
0.0
 11
233.12249899999989
 21
109.42265
 31
0.0
  0
LINE
  5
4A8
  8
0
 10
226.87750099999991
 20
109.42265
 30
0.0
 11
226.87750099999991
 21
102.57735
 31
0.0
  0
LINE
  5
4A9
  8
0
 10
234.5095739999999
 20
102.57735
 30
0.0
 11
233.12249899999989
 21
102.57735
 31
0.0
  0
LINE
  5
4AA
  8
0
 10
239.5
 20
102.57735
 30
0.0
 11
238.92545499999991
 21
102.57735
 31
0.0
  0
LINE
  5
4AB
  8
0
 10
238.5
 20
102.0
 30
0.0
 11
239.5
 21
102.57735
 31
0.0
  0
LINE
  5
4AC
  8
0
 10
220.5
 20
102.57735
 30
0.0
 11
221.074545
 21
102.57735
 31
0.0
  0
LINE
  5
4AD
  8
0
 10
225.4904259999999
 20
102.57735
 30
0.0
 11
226.87750099999991
 21
102.57735
 31
0.0
  0
LINE
  5
4AE
  8
0
 10
225.4904259999999
 20
109.42265
 30
0.0
 11
226.87750099999991
 21
109.42265
 31
0.0
  0
LINE
  5
4AF
  8
0
 10
220.5
 20
109.42265
 30
0.0
 11
221.074545
 21
109.42265
 31
0.0
  0
LINE
  5
4B0
  8
0
 10
226.87750099999991
 20
109.42265
 30
0.0
 11
226.87750099999991
 21
102.57735
 31
0.0
  0
LINE
  5
4B1
  8
0
 10
225.4904259999999
 20
109.42265
 30
0.0
 11
225.4904259999999
 21
102.57735
 31
0.0
  0
LINE
  5
4B2
  8
0
 10
221.074545
 20
109.42265
 30
0.0
 11
221.074545
 21
102.57735
 31
0.0
  0
LINE
  5
4B3
  8
0
 10
220.5
 20
109.42265
 30
0.0
 11
220.5
 21
102.57735
 31
0.0
  0
LINE
  5
4B4
  8
0
 10
238.5
 20
110.0
 30
0.0
 11
221.5
 21
110.0
 31
0.0
  0
LINE
  5
4B5
  8
0
 10
225.0
 20
101.59999999999999
 30
0.0
 11
225.0
 21
91.0
 31
0.0
  0
LINE
  5
4B6
  8
0
 10
225.0
 20
85.0
 30
0.0
 11
225.0
 21
56.5
 31
0.0
  0
LINE
  5
4B7
  8
3
 10
225.8119999999999
 20
100.193575
 30
0.0
 11
225.8119999999999
 21
91.0
 31
0.0
  0
LINE
  5
4B8
  8
3
 10
225.8119999999999
 20
85.0
 30
0.0
 11
225.8119999999999
 21
55.688000000000002
 31
0.0
  0
LINE
  5
4B9
  8
3
 10
234.1879999999999
 20
100.193575
 30
0.0
 11
234.1879999999999
 21
91.0
 31
0.0
  0
LINE
  5
4BA
  8
3
 10
234.1879999999999
 20
85.0
 30
0.0
 11
234.1879999999999
 21
55.688000000000002
 31
0.0
  0
LINE
  5
4BB
  8
0
 10
235.0
 20
101.59999999999999
 30
0.0
 11
235.0
 21
91.0
 31
0.0
  0
LINE
  5
4BC
  8
0
 10
235.0
 20
85.0
 30
0.0
 11
235.0
 21
56.5
 31
0.0
  0
LINE
  5
4BD
  8
0
 10
235.0
 20
100.193575
 30
0.0
 11
225.0
 21
100.193575
 31
0.0
  0
LINE
  5
4BE
  8
3
 10
234.1879999999999
 20
100.193575
 30
0.0
 11
235.0
 21
101.59999999999999
 31
0.0
  0
LINE
  5
4BF
  8
3
 10
225.8119999999999
 20
100.193575
 30
0.0
 11
225.0
 21
101.59999999999999
 31
0.0
  0
LINE
  5
4C0
  8
0
 10
221.5
 20
102.0
 30
0.0
 11
238.5
 21
102.0
 31
0.0
  0
ARC
  5
4C1
  8
0
 10
235.40000000000001
 20
101.59999999999999
 30
0.0
 40
0.4
 50
90.0
 51
180.0
  0
ARC
  5
4C2
  8
0
 10
224.59999999999991
 20
101.59999999999999
 30
0.0
 40
0.4
 50
0.0
 51
90.0
  0
LINE
  5
4C3
  8
0
 10
221.5
 20
110.0
 30
0.0
 11
220.5
 21
109.42265
 31
0.0
  0
LINE
  5
4C4
  8
0
 10
221.5
 20
102.0
 30
0.0
 11
220.5
 21
102.57735
 31
0.0
  0
ARC
  5
4C5
  8
0
 10
236.71751399999999
 20
103.52889999999999
 30
0.0
 40
6.2937500000000002
 50
69.462843999997673
 51
110.5371560000023
  0
ARC
  5
4C6
  8
0
 10
230.0
 20
97.435149999999993
 30
0.0
 40
12.387499999999999
 50
75.400048999998717
 51
104.5999510000013
  0
ARC
  5
4C7
  8
0
 10
236.71751399999999
 20
108.47110000000001
 30
0.0
 40
6.2937500000000002
 50
249.4628439999976
 51
290.53715600000231
  0
ARC
  5
4C8
  8
0
 10
230.0
 20
114.56485000000001
 30
0.0
 40
12.387499999999999
 50
255.40004899999869
 51
284.59995100000128
  0
ARC
  5
4C9
  8
0
 10
223.28248600000001
 20
108.47110000000001
 30
0.0
 40
6.2937500000000002
 50
249.4628439999976
 51
290.53715600000231
  0
ARC
  5
4CA
  8
0
 10
223.28248600000001
 20
103.52889999999999
 30
0.0
 40
6.2937500000000002
 50
69.462843999997673
 51
110.5371560000023
  0
LINE
  5
4CB
  8
1
 10
230.0
 20
119.0
 30
0.0
 11
230.0
 21
50.0
 31
0.0
  0
ARC
  5
4CC
  8
0
 10
235.40000000000001
 20
110.40000000000001
 30
0.0
 40
0.4
 50
180.0
 51
270.0
  0
LINE
  5
4CD
  8
0
 10
233.5
 20
55.0
 30
0.0
 11
226.5
 21
55.0
 31
0.0
  0
LINE
  5
4CE
  8
0
 10
235.0
 20
56.5
 30
0.0
 11
233.5
 21
55.0
 31
0.0
  0
LINE
  5
4CF
  8
0
 10
226.5
 20
55.0
 30
0.0
 11
225.0
 21
56.5
 31
0.0
  0
LINE
  5
4D0
  8
0
 10
235.0
 20
56.5
 30
0.0
 11
225.0
 21
56.5
 31
0.0
  0
LINE
  5
4D1
  8
0
 10
238.25
 20
85.0
 30
0.0
 11
221.75
 21
85.0
 31
0.0
  0
LINE
  5
4D2
  8
0
 10
221.75
 20
91.0
 30
0.0
 11
238.25
 21
91.0
 31
0.0
  0
ARC
  5
4D3
  8
0
 10
237.36121600000001
 20
86.510763999999995
 30
0.0
 40
4.344898999999999
 50
64.384247000000045
 51
124.38424699999671
  0
LINE
  5
4D4
  8
0
 10
239.8149549999998
 20
90.096473000000003
 30
0.0
 11
238.25
 21
91.0
 31
0.0
  0
LINE
  5
4D5
  8
0
 10
239.8149549999998
 20
85.903526999999997
 30
0.0
 11
238.25
 21
85.0
 31
0.0
  0
ARC
  5
4D6
  8
0
 10
237.36121600000001
 20
89.489236000000005
 30
0.0
 40
4.344898999999999
 50
235.6157530000032
 51
295.61575299999998
  0
LINE
  5
4D7
  8
0
 10
239.8149549999998
 20
90.096473000000003
 30
0.0
 11
239.8149549999998
 21
85.903526999999997
 31
0.0
  0
LINE
  5
4D8
  8
0
 10
234.907477
 20
90.096473000000003
 30
0.0
 11
234.907477
 21
85.903526999999997
 31
0.0
  0
LINE
  5
4D9
  8
0
 10
225.0925229999998
 20
90.096473000000003
 30
0.0
 11
225.0925229999998
 21
85.903526999999997
 31
0.0
  0
LINE
  5
4DA
  8
0
 10
220.18504499999989
 20
90.096473000000003
 30
0.0
 11
220.18504499999989
 21
85.903526999999997
 31
0.0
  0
ARC
  5
4DB
  8
0
 10
230.0
 20
101.385148
 30
0.0
 40
16.24081099999999
 50
252.412046000001
 51
287.58795399999912
  0
ARC
  5
4DC
  8
0
 10
222.63878399999999
 20
89.489236000000005
 30
0.0
 40
4.344898999999999
 50
244.38424699999999
 51
304.38424699999672
  0
LINE
  5
4DD
  8
0
 10
220.18504499999989
 20
85.903526999999997
 30
0.0
 11
221.75
 21
85.0
 31
0.0
  0
LINE
  5
4DE
  8
0
 10
220.18504499999989
 20
90.096473000000003
 30
0.0
 11
221.75
 21
91.0
 31
0.0
  0
ARC
  5
4DF
  8
0
 10
230.0
 20
74.614851999999999
 30
0.0
 40
16.24081099999999
 50
72.412046000000942
 51
107.587953999999
  0
ARC
  5
4E0
  8
0
 10
222.63878399999999
 20
86.510763999999995
 30
0.0
 40
4.344898999999999
 50
55.615753000003266
 51
115.6157529999999
  0
ARC
  5
4E1
  8
0
 10
230.0
 20
200.0
 30
0.0
 40
5.0
 50
130.48230073512681
 51
229.5176992648731
  0
ARC
  5
4E2
  8
0
 10
230.0
 20
200.0
 30
0.0
 40
10.0
 50
18.19487200000064
 51
26.805128000000028
  0
LINE
  5
4E3
  8
0
 10
234.99999999999989
 20
191.56497100000001
 30
0.0
 11
238.92545499999991
 21
195.49042600000001
 31
0.0
  0
LINE
  5
4E4
  8
0
 10
239.5
 20
196.877501
 30
0.0
 11
239.5
 21
203.122499
 31
0.0
  0
LINE
  5
4E5
  8
0
 10
238.92545499999991
 20
204.50957399999999
 30
0.0
 11
234.99999999999989
 21
208.4350290000001
 31
0.0
  0
ARC
  5
4E6
  8
0
 10
230.0
 20
200.0
 30
0.0
 40
10.0
 50
333.19487199999998
 51
341.8051279999994
  0
LINE
  5
4E7
  8
1
 10
244.5
 20
200.0
 30
0.0
 11
215.5
 21
200.0
 31
0.0
  0
LINE
  5
4E8
  8
1
 10
230.0
 20
185.5
 30
0.0
 11
230.0
 21
214.5
 31
0.0
  0
ARC
  5
4E9
  8
0
 10
230.0
 20
200.0
 30
0.0
 40
8.5
 50
159.68076713687211
 51
200.31923286312781
  0
ARC
  5
4EA
  8
0
 10
230.0
 20
200.0
 30
0.0
 40
8.5
 50
306.0318790724728
 51
53.968120927527231
  0
ARC
  5
4EB
  8
0
 10
289.25
 20
78.580156000000002
 30
0.0
 40
12.275506999999999
 50
69.743841999999773
 51
110.2561580000002
  0
LINE
  5
4EC
  8
0
 10
293.5
 20
90.855661999999995
 30
0.0
 11
293.25
 21
91.0
 31
0.0
  0
LINE
  5
4ED
  8
0
 10
293.5
 20
85.144338000000005
 30
0.0
 11
293.25
 21
85.0
 31
0.0
  0
ARC
  5
4EE
  8
0
 10
289.25
 20
97.419843999999983
 30
0.0
 40
12.275506999999999
 50
249.7438419999998
 51
290.2561580000002
  0
LINE
  5
4EF
  8
0
 10
293.5
 20
90.855661999999995
 30
0.0
 11
293.5
 21
85.144338000000005
 31
0.0
  0
LINE
  5
4F0
  8
0
 10
285.0
 20
90.096473000000003
 30
0.0
 11
285.0
 21
85.903526999999997
 31
0.0
  0
LINE
  5
4F1
  8
0
 10
276.5
 20
90.855661999999995
 30
0.0
 11
276.5
 21
85.144338000000005
 31
0.0
  0
LINE
  5
4F2
  8
0
 10
276.5
 20
85.144338000000005
 30
0.0
 11
276.75
 21
85.0
 31
0.0
  0
ARC
  5
4F3
  8
0
 10
280.75
 20
97.419843999999983
 30
0.0
 40
12.275506999999999
 50
249.7438419999998
 51
290.2561580000002
  0
LINE
  5
4F4
  8
0
 10
276.5
 20
90.855661999999995
 30
0.0
 11
276.75
 21
91.0
 31
0.0
  0
ARC
  5
4F5
  8
0
 10
280.75
 20
78.580156000000002
 30
0.0
 40
12.275506999999999
 50
69.743841999999773
 51
110.2561580000002
  0
LINE
  5
4F6
  8
0
 10
293.25
 20
91.0
 30
0.0
 11
276.75
 21
91.0
 31
0.0
  0
LINE
  5
4F7
  8
0
 10
276.75
 20
85.0
 30
0.0
 11
293.25
 21
85.0
 31
0.0
  0
LINE
  5
4F8
  8
1
 10
94.999999999999943
 20
172.0
 30
0.0
 11
94.999999999999943
 21
49.0
 31
0.0
  0
LINE
  5
4F9
  8
0
 10
89.999999999999943
 20
163.5
 30
0.0
 11
99.999999999999943
 21
163.5
 31
0.0
  0
LINE
  5
4FA
  8
3
 10
90.749999999999929
 20
143.02824599999991
 30
0.0
 11
90.749999999999929
 21
164.25
 31
0.0
  0
LINE
  5
4FB
  8
3
 10
99.249999999999943
 20
143.02824599999991
 30
0.0
 11
99.249999999999943
 21
164.25
 31
0.0
  0
LINE
  5
4FC
  8
3
 10
99.249999999999943
 20
105.0
 30
0.0
 11
99.999999999999943
 21
106.299038
 31
0.0
  0
LINE
  5
4FD
  8
3
 10
99.249999999999943
 20
105.0
 30
0.0
 11
99.249999999999901
 21
91.0
 31
0.0
  0
LINE
  5
4FE
  8
3
 10
99.249999999999901
 20
85.0
 30
0.0
 11
99.249999999999943
 21
65.75
 31
0.0
  0
LINE
  5
4FF
  8
3
 10
90.749999999999929
 20
105.0
 30
0.0
 11
89.999999999999943
 21
106.299038
 31
0.0
  0
LINE
  5
500
  8
0
 10
89.999999999999943
 20
66.5
 30
0.0
 11
99.999999999999943
 21
66.5
 31
0.0
  0
LINE
  5
501
  8
3
 10
90.749999999999929
 20
105.0
 30
0.0
 11
90.749999999999886
 21
91.0
 31
0.0
  0
LINE
  5
502
  8
3
 10
90.749999999999886
 20
85.0
 30
0.0
 11
90.749999999999929
 21
65.75
 31
0.0
  0
LINE
  5
503
  8
0
 10
99.999999999999943
 20
105.0
 30
0.0
 11
89.999999999999943
 21
105.0
 31
0.0
  0
LINE
  5
504
  8
0
 10
98.499999999999943
 20
165.0
 30
0.0
 11
99.999999999999943
 21
163.5
 31
0.0
  0
LINE
  5
505
  8
0
 10
89.999999999999943
 20
163.5
 30
0.0
 11
91.499999999999943
 21
165.0
 31
0.0
  0
LINE
  5
506
  8
0
 10
91.499999999999943
 20
65.0
 30
0.0
 11
89.999999999999943
 21
66.5
 31
0.0
  0
LINE
  5
507
  8
0
 10
98.499999999999943
 20
65.0
 30
0.0
 11
99.999999999999943
 21
66.5
 31
0.0
  0
LINE
  5
508
  8
0
 10
99.999999999999943
 20
163.5
 30
0.0
 11
99.999999999999943
 21
143.028246
 31
0.0
  0
LINE
  5
509
  8
0
 10
99.999999999999943
 20
110.0
 30
0.0
 11
99.999999999999886
 21
91.0
 31
0.0
  0
LINE
  5
50A
  8
0
 10
99.999999999999886
 20
85.0
 30
0.0
 11
99.999999999999943
 21
66.5
 31
0.0
  0
LINE
  5
50B
  8
0
 10
91.499999999999943
 20
165.0
 30
0.0
 11
98.499999999999943
 21
165.0
 31
0.0
  0
LINE
  5
50C
  8
0
 10
89.999999999999943
 20
66.5
 30
0.0
 11
89.999999999999886
 21
85.0
 31
0.0
  0
LINE
  5
50D
  8
0
 10
89.999999999999886
 20
91.0
 30
0.0
 11
89.999999999999943
 21
110.0
 31
0.0
  0
LINE
  5
50E
  8
0
 10
89.999999999999943
 20
143.028246
 30
0.0
 11
89.999999999999943
 21
163.5
 31
0.0
  0
LINE
  5
50F
  8
0
 10
98.499999999999943
 20
65.0
 30
0.0
 11
91.499999999999943
 21
65.0
 31
0.0
  0
ARC
  5
510
  8
0
 10
99.249999999999901
 20
78.580156000000002
 30
0.0
 40
12.275506999999999
 50
69.743841999999773
 51
110.2561580000002
  0
LINE
  5
511
  8
0
 10
103.4999999999999
 20
90.855661999999995
 30
0.0
 11
103.2499999999999
 21
91.0
 31
0.0
  0
LINE
  5
512
  8
0
 10
103.4999999999999
 20
85.144338000000005
 30
0.0
 11
103.2499999999999
 21
85.0
 31
0.0
  0
ARC
  5
513
  8
0
 10
99.249999999999901
 20
97.419843999999983
 30
0.0
 40
12.275506999999999
 50
249.7438419999998
 51
290.2561580000002
  0
LINE
  5
514
  8
0
 10
103.4999999999999
 20
90.855661999999995
 30
0.0
 11
103.4999999999999
 21
85.144338000000005
 31
0.0
  0
LINE
  5
515
  8
0
 10
94.999999999999886
 20
90.096473000000003
 30
0.0
 11
94.999999999999886
 21
85.903526999999997
 31
0.0
  0
LINE
  5
516
  8
0
 10
86.499999999999886
 20
90.855661999999995
 30
0.0
 11
86.499999999999886
 21
85.144338000000005
 31
0.0
  0
LINE
  5
517
  8
0
 10
86.499999999999886
 20
85.144338000000005
 30
0.0
 11
86.749999999999886
 21
85.0
 31
0.0
  0
ARC
  5
518
  8
0
 10
90.749999999999886
 20
97.419843999999983
 30
0.0
 40
12.275506999999999
 50
249.7438419999998
 51
290.2561580000002
  0
LINE
  5
519
  8
0
 10
86.499999999999886
 20
90.855661999999995
 30
0.0
 11
86.749999999999886
 21
91.0
 31
0.0
  0
ARC
  5
51A
  8
0
 10
90.749999999999886
 20
78.580156000000002
 30
0.0
 40
12.275506999999999
 50
69.743841999999773
 51
110.2561580000002
  0
LINE
  5
51B
  8
0
 10
103.2499999999999
 20
91.0
 30
0.0
 11
86.749999999999886
 21
91.0
 31
0.0
  0
LINE
  5
51C
  8
0
 10
86.749999999999886
 20
85.0
 30
0.0
 11
103.2499999999999
 21
85.0
 31
0.0
  0
CIRCLE
  5
51D
  8
0
 10
225.0
 20
200.0
 30
0.0
 40
4.1879999999999988
  0
LINE
  5
51E
  8
1
 10
245.0
 20
200.0
 30
0.0
 11
124.9999999999999
 21
200.0
 31
0.0
  0
LINE
  5
51F
  8
0
 10
139.9296929999999
 20
210.5
 30
0.0
 11
139.9296929999999
 21
189.5
 31
0.0
  0
LINE
  5
520
  8
2
 10
180.4737205583711
 20
205.5
 30
0.0
 11
235.0
 21
205.5
 31
0.0
  0
LINE
  5
521
  8
2
 10
180.4737205583711
 20
194.5
 30
0.0
 11
235.0
 21
194.5
 31
0.0
  0
LINE
  5
522
  8
0
 10
235.0
 20
189.5
 30
0.0
 11
233.0
 21
187.5
 31
0.0
  0
LINE
  5
523
  8
0
 10
233.0
 20
212.5
 30
0.0
 11
235.0
 21
210.5
 31
0.0
  0
LINE
  5
524
  8
0
 10
134.99999999999989
 20
207.5
 30
0.0
 11
143.6602539999999
 21
212.5
 31
0.0
  0
LINE
  5
525
  8
0
 10
134.99999999999989
 20
192.5
 30
0.0
 11
143.6602539999999
 21
187.5
 31
0.0
  0
ARC
  5
526
  8
0
 10
149.99999999999989
 20
200.0
 30
0.0
 40
5.5
 50
90.0
 51
270.0
  0
ARC
  5
527
  8
2
 10
190.0
 20
200.0
 30
0.0
 40
5.5
 50
270.0
 51
90.0
  0
CIRCLE
  5
528
  8
3
 10
225.0
 20
200.0
 30
0.0
 40
5.0
  0
LINE
  5
529
  8
0
 10
180.4737205583711
 20
205.5
 30
0.0
 11
149.99999999999989
 21
205.5
 31
0.0
  0
LINE
  5
52A
  8
0
 10
180.4737205583711
 20
194.5
 30
0.0
 11
149.99999999999989
 21
194.5
 31
0.0
  0
LINE
  5
52B
  8
1
 10
149.99999999999989
 20
191.02083300000001
 30
0.0
 11
149.99999999999989
 21
208.95623499999999
 31
0.0
  0
LINE
  5
52C
  8
1
 10
225.0
 20
191.02083300000001
 30
0.0
 11
225.0
 21
208.95623499999999
 31
0.0
  0
LINE
  5
52D
  8
0
 10
235.0
 20
210.5
 30
0.0
 11
235.0
 21
189.5
 31
0.0
  0
LINE
  5
52E
  8
0
 10
143.6602539999999
 20
212.5
 30
0.0
 11
233.0
 21
212.5
 31
0.0
  0
LINE
  5
52F
  8
0
 10
134.99999999999989
 20
192.5
 30
0.0
 11
134.99999999999989
 21
207.5
 31
0.0
  0
LINE
  5
530
  8
0
 10
233.0
 20
187.5
 30
0.0
 11
143.6602539999999
 21
187.5
 31
0.0
  0
LINE
  5
531
  8
0
 10
234.0
 20
110.0
 30
0.0
 11
135.99999999999989
 21
110.0
 31
0.0
  0
LINE
  5
532
  8
0
 10
134.99999999999989
 20
111.0
 30
0.0
 11
134.99999999999989
 21
123.0
 31
0.0
  0
LINE
  5
533
  8
0
 10
140.19615200000001
 20
126.0
 30
0.0
 11
234.0
 21
126.0
 31
0.0
  0
LINE
  5
534
  8
0
 10
235.0
 20
125.0
 30
0.0
 11
235.0
 21
111.0
 31
0.0
  0
LINE
  5
535
  8
1
 10
225.0
 20
105.0
 30
0.0
 11
225.0
 21
131.0
 31
0.0
  0
LINE
  5
536
  8
1
 10
149.99999999999989
 20
105.0
 30
0.0
 11
149.99999999999989
 21
131.0
 31
0.0
  0
LINE
  5
537
  8
2
 10
195.5
 20
115.0
 30
0.0
 11
195.5
 21
126.0
 31
0.0
  0
LINE
  5
538
  8
2
 10
144.49999999999989
 20
110.0
 30
0.0
 11
144.49999999999989
 21
126.0
 31
0.0
  0
LINE
  5
539
  8
0
 10
134.99999999999989
 20
123.0
 30
0.0
 11
140.19615200000001
 21
126.0
 31
0.0
  0
LINE
  5
53A
  8
0
 10
234.0
 20
126.0
 30
0.0
 11
235.0
 21
125.0
 31
0.0
  0
LINE
  5
53B
  8
0
 10
235.0
 20
111.0
 30
0.0
 11
234.0
 21
110.0
 31
0.0
  0
LINE
  5
53C
  8
0
 10
135.99999999999989
 20
110.0
 30
0.0
 11
134.99999999999989
 21
111.0
 31
0.0
  0
LINE
  5
53D
  8
2
 10
234.0
 20
115.0
 30
0.0
 11
190.0
 21
115.0
 31
0.0
  0
LINE
  5
53E
  8
2
 10
230.0
 20
115.0
 30
0.0
 11
230.0
 21
126.0
 31
0.0
  0
LINE
  5
53F
  8
2
 10
229.1879999999999
 20
115.0
 30
0.0
 11
229.1879999999999
 21
126.0
 31
0.0
  0
LINE
  5
540
  8
2
 10
220.8119999999999
 20
115.0
 30
0.0
 11
220.8119999999999
 21
126.0
 31
0.0
  0
LINE
  5
541
  8
2
 10
220.0
 20
115.0
 30
0.0
 11
220.0
 21
126.0
 31
0.0
  0
LINE
  5
542
  8
0
 10
143.55413699999991
 20
126.057554
 30
0.0
 11
143.55413699999991
 21
110.00060000000001
 31
0.0
  0
LINE
  5
543
  8
0
 10
296.5
 20
110.0
 30
0.0
 11
297.5
 21
111.0
 31
0.0
  0
LINE
  5
544
  8
0
 10
272.5
 20
111.0
 30
0.0
 11
273.5
 21
110.0
 31
0.0
  0
LINE
  5
545
  8
0
 10
273.5
 20
126.0
 30
0.0
 11
272.5
 21
125.0
 31
0.0
  0
LINE
  5
546
  8
0
 10
296.5
 20
126.0
 30
0.0
 11
297.5
 21
125.0
 31
0.0
  0
LINE
  5
547
  8
0
 10
283.0
 20
115.0
 30
0.0
 11
290.60476599999993
 21
115.0
 31
0.0
  0
LINE
  5
548
  8
0
 10
290.5
 20
115.0
 30
0.0
 11
290.5
 21
110.0
 31
0.0
  0
LINE
  5
549
  8
0
 10
279.5
 20
115.0
 30
0.0
 11
279.5
 21
110.0
 31
0.0
  0
LINE
  5
54A
  8
0
 10
285.0
 20
115.0
 30
0.0
 11
279.5
 21
115.0
 31
0.0
  0
LINE
  5
54B
  8
0
 10
296.5
 20
110.0
 30
0.0
 11
273.5
 21
110.0
 31
0.0
  0
LINE
  5
54C
  8
0
 10
297.5
 20
125.0
 30
0.0
 11
297.5
 21
111.0
 31
0.0
  0
LINE
  5
54D
  8
0
 10
273.5
 20
126.0
 30
0.0
 11
296.5
 21
126.0
 31
0.0
  0
LINE
  5
54E
  8
0
 10
272.5
 20
111.0
 30
0.0
 11
272.5
 21
125.0
 31
0.0
  0
LINE
  5
54F
  8
0
 10
290.0
 20
113.5
 30
0.0
 11
290.0
 21
110.40000000000001
 31
0.0
  0
LINE
  5
550
  8
0
 10
289.5
 20
114.0
 30
0.0
 11
280.5
 21
114.0
 31
0.0
  0
LINE
  5
551
  8
0
 10
294.5
 20
109.42265
 30
0.0
 11
294.5
 21
102.57735
 31
0.0
  0
LINE
  5
552
  8
0
 10
293.92545499999989
 20
109.42265
 30
0.0
 11
293.92545499999989
 21
102.57735
 31
0.0
  0
LINE
  5
553
  8
0
 10
289.50957399999999
 20
109.42265
 30
0.0
 11
289.50957399999999
 21
102.57735
 31
0.0
  0
LINE
  5
554
  8
0
 10
288.12249899999989
 20
109.42265
 30
0.0
 11
288.12249899999989
 21
102.57735
 31
0.0
  0
LINE
  5
555
  8
0
 10
293.5
 20
110.0
 30
0.0
 11
294.5
 21
109.42265
 31
0.0
  0
LINE
  5
556
  8
0
 10
294.5
 20
109.42265
 30
0.0
 11
293.92545499999989
 21
109.42265
 31
0.0
  0
LINE
  5
557
  8
0
 10
289.50957399999999
 20
109.42265
 30
0.0
 11
288.12249899999989
 21
109.42265
 31
0.0
  0
LINE
  5
558
  8
0
 10
281.87750099999988
 20
109.42265
 30
0.0
 11
281.87750099999988
 21
102.57735
 31
0.0
  0
LINE
  5
559
  8
0
 10
289.50957399999999
 20
102.57735
 30
0.0
 11
288.12249899999989
 21
102.57735
 31
0.0
  0
LINE
  5
55A
  8
0
 10
294.5
 20
102.57735
 30
0.0
 11
293.92545499999989
 21
102.57735
 31
0.0
  0
LINE
  5
55B
  8
0
 10
293.5
 20
102.0
 30
0.0
 11
294.5
 21
102.57735
 31
0.0
  0
LINE
  5
55C
  8
0
 10
275.5
 20
102.57735
 30
0.0
 11
276.07454499999989
 21
102.57735
 31
0.0
  0
LINE
  5
55D
  8
0
 10
280.49042600000001
 20
102.57735
 30
0.0
 11
281.87750099999988
 21
102.57735
 31
0.0
  0
LINE
  5
55E
  8
0
 10
280.49042600000001
 20
109.42265
 30
0.0
 11
281.87750099999988
 21
109.42265
 31
0.0
  0
LINE
  5
55F
  8
0
 10
275.5
 20
109.42265
 30
0.0
 11
276.07454499999989
 21
109.42265
 31
0.0
  0
LINE
  5
560
  8
0
 10
281.87750099999988
 20
109.42265
 30
0.0
 11
281.87750099999988
 21
102.57735
 31
0.0
  0
LINE
  5
561
  8
0
 10
280.49042600000001
 20
109.42265
 30
0.0
 11
280.49042600000001
 21
102.57735
 31
0.0
  0
LINE
  5
562
  8
0
 10
276.07454499999989
 20
109.42265
 30
0.0
 11
276.07454499999989
 21
102.57735
 31
0.0
  0
LINE
  5
563
  8
0
 10
275.5
 20
109.42265
 30
0.0
 11
275.5
 21
102.57735
 31
0.0
  0
LINE
  5
564
  8
0
 10
293.5
 20
110.0
 30
0.0
 11
276.5
 21
110.0
 31
0.0
  0
LINE
  5
565
  8
0
 10
280.0
 20
101.59999999999999
 30
0.0
 11
280.0
 21
91.0
 31
0.0
  0
LINE
  5
566
  8
0
 10
280.0
 20
85.0
 30
0.0
 11
280.0
 21
56.5
 31
0.0
  0
LINE
  5
567
  8
3
 10
280.8119999999999
 20
100.193575
 30
0.0
 11
280.8119999999999
 21
91.0
 31
0.0
  0
LINE
  5
568
  8
3
 10
280.8119999999999
 20
85.0
 30
0.0
 11
280.8119999999999
 21
55.688000000000002
 31
0.0
  0
LINE
  5
569
  8
3
 10
289.18799999999987
 20
100.193575
 30
0.0
 11
289.18799999999987
 21
91.0
 31
0.0
  0
LINE
  5
56A
  8
3
 10
289.18799999999987
 20
85.0
 30
0.0
 11
289.18799999999987
 21
55.688000000000002
 31
0.0
  0
LINE
  5
56B
  8
0
 10
290.0
 20
101.59999999999999
 30
0.0
 11
290.0
 21
91.0
 31
0.0
  0
LINE
  5
56C
  8
0
 10
290.0
 20
85.0
 30
0.0
 11
290.0
 21
56.5
 31
0.0
  0
LINE
  5
56D
  8
0
 10
290.0
 20
100.193575
 30
0.0
 11
280.0
 21
100.193575
 31
0.0
  0
LINE
  5
56E
  8
3
 10
289.18799999999987
 20
100.193575
 30
0.0
 11
290.0
 21
101.59999999999999
 31
0.0
  0
LINE
  5
56F
  8
3
 10
280.8119999999999
 20
100.193575
 30
0.0
 11
280.0
 21
101.59999999999999
 31
0.0
  0
LINE
  5
570
  8
0
 10
276.5
 20
102.0
 30
0.0
 11
293.5
 21
102.0
 31
0.0
  0
ARC
  5
571
  8
0
 10
290.39999999999992
 20
101.59999999999999
 30
0.0
 40
0.4
 50
90.0
 51
180.0
  0
ARC
  5
572
  8
0
 10
279.59999999999991
 20
101.59999999999999
 30
0.0
 40
0.4
 50
0.0
 51
90.0
  0
LINE
  5
573
  8
0
 10
276.5
 20
110.0
 30
0.0
 11
275.5
 21
109.42265
 31
0.0
  0
LINE
  5
574
  8
0
 10
276.5
 20
102.0
 30
0.0
 11
275.5
 21
102.57735
 31
0.0
  0
ARC
  5
575
  8
0
 10
291.71751399999988
 20
103.52889999999999
 30
0.0
 40
6.2937500000000002
 50
69.462843999997673
 51
110.5371560000023
  0
ARC
  5
576
  8
0
 10
285.0
 20
97.435149999999993
 30
0.0
 40
12.387499999999999
 50
75.400048999998717
 51
104.5999510000013
  0
ARC
  5
577
  8
0
 10
291.71751399999988
 20
108.47110000000001
 30
0.0
 40
6.2937500000000002
 50
249.4628439999976
 51
290.53715600000231
  0
ARC
  5
578
  8
0
 10
285.0
 20
114.56485000000001
 30
0.0
 40
12.387499999999999
 50
255.40004899999869
 51
284.59995100000128
  0
ARC
  5
579
  8
0
 10
278.28248599999989
 20
108.47110000000001
 30
0.0
 40
6.2937500000000002
 50
249.4628439999976
 51
290.53715600000231
  0
ARC
  5
57A
  8
0
 10
278.28248599999989
 20
103.52889999999999
 30
0.0
 40
6.2937500000000002
 50
69.462843999997673
 51
110.5371560000023
  0
LINE
  5
57B
  8
1
 10
285.0
 20
172.0
 30
0.0
 11
285.0
 21
50.0
 31
0.0
  0
ARC
  5
57C
  8
0
 10
290.39999999999992
 20
110.40000000000001
 30
0.0
 40
0.4
 50
180.0
 51
270.0
  0
ARC
  5
57D
  8
0
 10
279.59999999999991
 20
110.40000000000001
 30
0.0
 40
0.4
 50
270.0
 51
0.0
  0
LINE
  5
57E
  8
0
 10
280.0
 20
113.5
 30
0.0
 11
280.0
 21
110.40000000000001
 31
0.0
  0
LINE
  5
57F
  8
0
 10
290.0
 20
113.5
 30
0.0
 11
289.5
 21
114.0
 31
0.0
  0
LINE
  5
580
  8
0
 10
280.5
 20
114.0
 30
0.0
 11
280.0
 21
113.5
 31
0.0
  0
LINE
  5
581
  8
0
 10
288.5
 20
55.0
 30
0.0
 11
281.5
 21
55.0
 31
0.0
  0
LINE
  5
582
  8
0
 10
290.0
 20
56.5
 30
0.0
 11
288.5
 21
55.0
 31
0.0
  0
LINE
  5
583
  8
0
 10
281.5
 20
55.0
 30
0.0
 11
280.0
 21
56.5
 31
0.0
  0
LINE
  5
584
  8
0
 10
290.0
 20
56.5
 30
0.0
 11
280.0
 21
56.5
 31
0.0
  0
LINE
  5
585
  8
0
 10
274.0
 20
129.0
 30
0.0
 11
274.5
 21
129.5
 31
0.0
  0
LINE
  5
586
  8
0
 10
274.5
 20
126.0
 30
0.0
 11
274.0
 21
126.5
 31
0.0
  0
LINE
  5
587
  8
0
 10
296.0
 20
129.0
 30
0.0
 11
295.5
 21
129.5
 31
0.0
  0
LINE
  5
588
  8
0
 10
295.5
 20
126.0
 30
0.0
 11
296.0
 21
126.5
 31
0.0
  0
LINE
  5
589
  8
0
 10
274.0
 20
126.5
 30
0.0
 11
274.0
 21
129.0
 31
0.0
  0
LINE
  5
58A
  8
0
 10
295.5
 20
126.0
 30
0.0
 11
274.5
 21
126.0
 31
0.0
  0
LINE
  5
58B
  8
0
 10
296.0
 20
129.0
 30
0.0
 11
296.0
 21
126.5
 31
0.0
  0
LINE
  5
58C
  8
0
 10
274.5
 20
129.5
 30
0.0
 11
295.5
 21
129.5
 31
0.0
  0
LINE
  5
58D
  8
0
 10
293.5
 20
142.57824600000001
 30
0.0
 11
293.5
 21
132.428246
 31
0.0
  0
ARC
  5
58E
  8
0
 10
293.89999999999992
 20
132.428246
 30
0.0
 40
0.4
 50
180.0
 51
270.0
  0
LINE
  5
58F
  8
0
 10
285.0
 20
142.124719
 30
0.0
 11
285.0
 21
132.028246
 31
0.0
  0
LINE
  5
590
  8
0
 10
276.5
 20
142.57824600000001
 30
0.0
 11
276.5
 21
132.428246
 31
0.0
  0
LINE
  5
591
  8
0
 10
293.0499999999999
 20
143.028246
 30
0.0
 11
276.94999999999987
 21
143.028246
 31
0.0
  0
LINE
  5
592
  8
0
 10
276.94999999999987
 20
143.028246
 30
0.0
 11
276.5
 21
142.57824600000001
 31
0.0
  0
LINE
  5
593
  8
0
 10
293.5
 20
142.57824600000001
 30
0.0
 11
293.0499999999999
 21
143.028246
 31
0.0
  0
ARC
  5
594
  8
0
 10
280.75
 20
132.58093099999999
 30
0.0
 40
10.447315
 50
65.995832000001244
 51
114.0041679999988
  0
ARC
  5
595
  8
0
 10
289.25
 20
132.58093099999999
 30
0.0
 40
10.447315
 50
65.995832000001244
 51
114.0041679999988
  0
LINE
  5
596
  8
0
 10
285.0
 20
142.124719
 30
0.0
 11
285.0
 21
137.93177299999999
 31
0.0
  0
ARC
  5
597
  8
0
 10
276.09999999999991
 20
132.428246
 30
0.0
 40
0.4
 50
270.0
 51
0.0
  0
LINE
  5
598
  8
0
 10
274.5
 20
132.028246
 30
0.0
 11
295.5
 21
132.028246
 31
0.0
  0
LINE
  5
599
  8
0
 10
274.5
 20
132.028246
 30
0.0
 11
274.0
 21
131.528246
 31
0.0
  0
LINE
  5
59A
  8
0
 10
274.0
 20
131.528246
 30
0.0
 11
274.0
 21
129.928246
 31
0.0
  0
LINE
  5
59B
  8
0
 10
295.5
 20
132.028246
 30
0.0
 11
296.0
 21
131.528246
 31
0.0
  0
LINE
  5
59C
  8
0
 10
296.0
 20
129.928246
 30
0.0
 11
274.0
 21
129.928246
 31
0.0
  0
ARC
  5
59D
  8
0
 10
285.0
 20
152.37818999999999
 30
0.0
 40
25.0
 50
293.77614555965067
 51
296.10388100000239
  0
ARC
  5
59E
  8
0
 10
285.0
 20
152.37818999999999
 30
0.0
 40
25.0
 50
243.89611899999761
 51
246.2238544403493
  0
LINE
  5
59F
  8
0
 10
296.0
 20
131.528246
 30
0.0
 11
296.0
 21
129.928246
 31
0.0
  0
LINE
  5
5A0
  8
0
 10
87.499999999999943
 20
123.0
 30
0.0
 11
84.499999999999929
 21
126.0
 31
0.0
  0
LINE
  5
5A1
  8
0
 10
102.4999999999999
 20
123.0
 30
0.0
 11
105.4999999999999
 21
126.0
 31
0.0
  0
LINE
  5
5A2
  8
0
 10
83.499999999999943
 20
126.0
 30
0.0
 11
82.499999999999943
 21
125.0
 31
0.0
  0
LINE
  5
5A3
  8
0
 10
107.4999999999999
 20
125.0
 30
0.0
 11
106.4999999999999
 21
126.0
 31
0.0
  0
LINE
  5
5A4
  8
0
 10
106.4999999999999
 20
110.0
 30
0.0
 11
107.4999999999999
 21
111.0
 31
0.0
  0
LINE
  5
5A5
  8
0
 10
83.499999999999943
 20
110.0
 30
0.0
 11
82.499999999999943
 21
111.0
 31
0.0
  0
LINE
  5
5A6
  8
0
 10
102.4999999999999
 20
123.0
 30
0.0
 11
87.499999999999943
 21
123.0
 31
0.0
  0
LINE
  5
5A7
  8
0
 10
83.499999999999943
 20
126.0
 30
0.0
 11
106.4999999999999
 21
126.0
 31
0.0
  0
LINE
  5
5A8
  8
0
 10
82.499999999999943
 20
111.0
 30
0.0
 11
82.499999999999943
 21
125.0
 31
0.0
  0
LINE
  5
5A9
  8
0
 10
106.4999999999999
 20
110.0
 30
0.0
 11
83.499999999999943
 21
110.0
 31
0.0
  0
LINE
  5
5AA
  8
0
 10
107.4999999999999
 20
125.0
 30
0.0
 11
107.4999999999999
 21
111.0
 31
0.0
  0
LINE
  5
5AB
  8
0
 10
102.4999999999999
 20
123.0
 30
0.0
 11
102.4999999999999
 21
110.0
 31
0.0
  0
LINE
  5
5AC
  8
0
 10
87.499999999999943
 20
123.0
 30
0.0
 11
87.499999999999943
 21
110.0
 31
0.0
  0
LINE
  5
5AD
  8
0
 10
83.999999999999943
 20
129.0
 30
0.0
 11
84.499999999999929
 21
129.5
 31
0.0
  0
LINE
  5
5AE
  8
0
 10
84.499999999999929
 20
126.0
 30
0.0
 11
83.999999999999943
 21
126.5
 31
0.0
  0
LINE
  5
5AF
  8
0
 10
105.9999999999999
 20
129.0
 30
0.0
 11
105.4999999999999
 21
129.5
 31
0.0
  0
LINE
  5
5B0
  8
0
 10
105.4999999999999
 20
126.0
 30
0.0
 11
105.9999999999999
 21
126.5
 31
0.0
  0
LINE
  5
5B1
  8
0
 10
83.999999999999943
 20
126.5
 30
0.0
 11
83.999999999999943
 21
129.0
 31
0.0
  0
LINE
  5
5B2
  8
0
 10
105.4999999999999
 20
126.0
 30
0.0
 11
84.499999999999929
 21
126.0
 31
0.0
  0
LINE
  5
5B3
  8
0
 10
105.9999999999999
 20
129.0
 30
0.0
 11
105.9999999999999
 21
126.5
 31
0.0
  0
LINE
  5
5B4
  8
0
 10
84.499999999999929
 20
129.5
 30
0.0
 11
105.4999999999999
 21
129.5
 31
0.0
  0
LINE
  5
5B5
  8
0
 10
103.4999999999999
 20
142.57824600000001
 30
0.0
 11
103.4999999999999
 21
132.428246
 31
0.0
  0
ARC
  5
5B6
  8
0
 10
103.89999999999991
 20
132.428246
 30
0.0
 40
0.4
 50
180.0
 51
270.0
  0
LINE
  5
5B7
  8
0
 10
94.999999999999943
 20
142.124719
 30
0.0
 11
94.999999999999943
 21
132.028246
 31
0.0
  0
LINE
  5
5B8
  8
0
 10
86.499999999999943
 20
142.57824600000001
 30
0.0
 11
86.499999999999943
 21
132.428246
 31
0.0
  0
LINE
  5
5B9
  8
0
 10
103.0499999999999
 20
143.028246
 30
0.0
 11
86.949999999999932
 21
143.028246
 31
0.0
  0
LINE
  5
5BA
  8
0
 10
86.949999999999932
 20
143.028246
 30
0.0
 11
86.499999999999943
 21
142.57824600000001
 31
0.0
  0
LINE
  5
5BB
  8
0
 10
103.4999999999999
 20
142.57824600000001
 30
0.0
 11
103.0499999999999
 21
143.028246
 31
0.0
  0
ARC
  5
5BC
  8
0
 10
90.749999999999929
 20
132.58093099999999
 30
0.0
 40
10.447315
 50
65.995832000001144
 51
114.0041679999988
  0
ARC
  5
5BD
  8
0
 10
99.249999999999943
 20
132.58093099999999
 30
0.0
 40
10.447315
 50
65.995832000001144
 51
114.0041679999988
  0
LINE
  5
5BE
  8
0
 10
94.999999999999943
 20
142.124719
 30
0.0
 11
94.999999999999943
 21
137.93177299999999
 31
0.0
  0
ARC
  5
5BF
  8
0
 10
86.099999999999895
 20
132.428246
 30
0.0
 40
0.4
 50
270.0
 51
0.0
  0
LINE
  5
5C0
  8
0
 10
84.499999999999929
 20
132.028246
 30
0.0
 11
105.4999999999999
 21
132.028246
 31
0.0
  0
LINE
  5
5C1
  8
0
 10
84.499999999999929
 20
132.028246
 30
0.0
 11
83.999999999999943
 21
131.528246
 31
0.0
  0
LINE
  5
5C2
  8
0
 10
83.999999999999943
 20
131.528246
 30
0.0
 11
83.999999999999943
 21
129.928246
 31
0.0
  0
LINE
  5
5C3
  8
0
 10
105.4999999999999
 20
132.028246
 30
0.0
 11
105.9999999999999
 21
131.528246
 31
0.0
  0
LINE
  5
5C4
  8
0
 10
105.9999999999999
 20
129.928246
 30
0.0
 11
83.999999999999943
 21
129.928246
 31
0.0
  0
ARC
  5
5C5
  8
0
 10
94.999999999999943
 20
152.37818999999999
 30
0.0
 40
25.0
 50
293.77614555965067
 51
296.10388100000239
  0
ARC
  5
5C6
  8
0
 10
94.999999999999943
 20
152.37818999999999
 30
0.0
 40
25.0
 50
243.89611899999761
 51
246.2238544403493
  0
LINE
  5
5C7
  8
0
 10
105.9999999999999
 20
131.528246
 30
0.0
 11
105.9999999999999
 21
129.928246
 31
0.0
  0
LINE
  5
5C8
  8
0
 10
104.4999999999999
 20
109.42265
 30
0.0
 11
104.4999999999999
 21
102.57735
 31
0.0
  0
LINE
  5
5C9
  8
0
 10
103.9254549999999
 20
109.42265
 30
0.0
 11
103.9254549999999
 21
102.57735
 31
0.0
  0
LINE
  5
5CA
  8
0
 10
103.4999999999999
 20
110.0
 30
0.0
 11
104.4999999999999
 21
109.42265
 31
0.0
  0
LINE
  5
5CB
  8
0
 10
104.4999999999999
 20
109.42265
 30
0.0
 11
103.9254549999999
 21
109.42265
 31
0.0
  0
LINE
  5
5CC
  8
0
 10
104.4999999999999
 20
102.57735
 30
0.0
 11
103.9254549999999
 21
102.57735
 31
0.0
  0
LINE
  5
5CD
  8
0
 10
103.4999999999999
 20
102.0
 30
0.0
 11
104.4999999999999
 21
102.57735
 31
0.0
  0
LINE
  5
5CE
  8
0
 10
85.499999999999943
 20
102.57735
 30
0.0
 11
86.074544999999944
 21
102.57735
 31
0.0
  0
LINE
  5
5CF
  8
0
 10
85.499999999999943
 20
109.42265
 30
0.0
 11
86.074544999999944
 21
109.42265
 31
0.0
  0
LINE
  5
5D0
  8
0
 10
86.074544999999944
 20
109.42265
 30
0.0
 11
86.074544999999944
 21
102.57735
 31
0.0
  0
LINE
  5
5D1
  8
0
 10
85.499999999999943
 20
109.42265
 30
0.0
 11
85.499999999999943
 21
102.57735
 31
0.0
  0
LINE
  5
5D2
  8
0
 10
86.499999999999943
 20
102.0
 30
0.0
 11
89.999999999999943
 21
102.0
 31
0.0
  0
LINE
  5
5D3
  8
0
 10
99.999999999999943
 20
102.0
 30
0.0
 11
103.4999999999999
 21
102.0
 31
0.0
  0
LINE
  5
5D4
  8
0
 10
86.499999999999943
 20
110.0
 30
0.0
 11
85.499999999999943
 21
109.42265
 31
0.0
  0
LINE
  5
5D5
  8
0
 10
86.499999999999943
 20
102.0
 30
0.0
 11
85.499999999999943
 21
102.57735
 31
0.0
  0
ARC
  5
5D6
  8
0
 10
101.71751399999989
 20
103.52889999999999
 30
0.0
 40
6.2937500000000002
 50
69.462843999997673
 51
105.83643019684131
  0
ARC
  5
5D7
  8
0
 10
101.71751399999989
 20
108.47110000000001
 30
0.0
 40
6.2937500000000002
 50
254.16356980315871
 51
290.53715600000231
  0
ARC
  5
5D8
  8
0
 10
88.282485999999935
 20
108.47110000000001
 30
0.0
 40
6.2937500000000002
 50
249.4628439999976
 51
285.83643019684132
  0
ARC
  5
5D9
  8
0
 10
88.282485999999935
 20
103.52889999999999
 30
0.0
 40
6.2937500000000002
 50
74.163569803158722
 51
110.5371560000023
  0
LINE
  5
5DA
  8
0
 10
280.0
 20
163.5
 30
0.0
 11
290.0
 21
163.5
 31
0.0
  0
LINE
  5
5DB
  8
3
 10
280.75
 20
143.028246
 30
0.0
 11
280.75
 21
164.25
 31
0.0
  0
LINE
  5
5DC
  8
3
 10
289.25
 20
143.028246
 30
0.0
 11
289.25
 21
164.25
 31
0.0
  0
LINE
  5
5DD
  8
0
 10
288.5
 20
165.0
 30
0.0
 11
290.0
 21
163.5
 31
0.0
  0
LINE
  5
5DE
  8
0
 10
280.0
 20
163.5
 30
0.0
 11
281.5
 21
165.0
 31
0.0
  0
LINE
  5
5DF
  8
0
 10
290.0
 20
163.5
 30
0.0
 11
290.0
 21
143.028246
 31
0.0
  0
LINE
  5
5E0
  8
0
 10
281.5
 20
165.0
 30
0.0
 11
288.5
 21
165.0
 31
0.0
  0
LINE
  5
5E1
  8
0
 10
280.0
 20
143.028246
 30
0.0
 11
280.0
 21
163.5
 31
0.0
  0
LINE
  5
5E2
  8
0
 10
89.999999999999943
 20
66.5
 30
0.0
 11
89.999999999999943
 21
56.5
 31
0.0
  0
LINE
  5
5E3
  8
3
 10
90.811999999999955
 20
65.687999999999988
 30
0.0
 11
90.811999999999955
 21
55.688000000000002
 31
0.0
  0
LINE
  5
5E4
  8
3
 10
99.187999999999931
 20
65.688000000000002
 30
0.0
 11
99.187999999999931
 21
55.688000000000002
 31
0.0
  0
LINE
  5
5E5
  8
0
 10
99.999999999999943
 20
66.5
 30
0.0
 11
99.999999999999943
 21
56.5
 31
0.0
  0
LINE
  5
5E6
  8
0
 10
98.499999999999943
 20
55.0
 30
0.0
 11
91.499999999999943
 21
55.0
 31
0.0
  0
LINE
  5
5E7
  8
0
 10
99.999999999999943
 20
56.5
 30
0.0
 11
98.499999999999943
 21
55.0
 31
0.0
  0
LINE
  5
5E8
  8
0
 10
91.499999999999943
 20
55.0
 30
0.0
 11
89.999999999999943
 21
56.5
 31
0.0
  0
LINE
  5
5E9
  8
0
 10
99.999999999999943
 20
56.5
 30
0.0
 11
89.999999999999943
 21
56.5
 31
0.0
  0
TEXT
  5
6A3
  8
0
 62
     3
 10
0.0
 20
0.0
 30
0.0
 40
10.0
  1
BJ153-10100A2
  7
STANDARD1
  0
ENDSEC
  0
EOF
