  0
SECTION
  2
HEADER
  9
$ACADVER
  1
AC1009
  9
$INSBASE
 10
82.638099999999994
 20
103.82319099999999
 30
0.0
  9
$EXTMIN
 10
0.0
 20
-2.960436562073669
 30
0.0
  9
$EXTMAX
 10
292.5
 20
216.0
 30
0.0
  9
$LIMMIN
 10
0.0
 20
0.0
  9
$LIMMAX
 10
375.0
 20
270.0
  9
$ORTHOMODE
 70
     1
  9
$REGENMODE
 70
     1
  9
$FILLMODE
 70
     1
  9
$QTEXTMODE
 70
     0
  9
$MIRRTEXT
 70
     0
  9
$DRAGMODE
 70
     2
  9
$LTSCALE
 40
10.0
  9
$OSMODE
 70
  3071
  9
$ATTMODE
 70
     1
  9
$TEXTSIZE
 40
0.06
  9
$TRACEWID
 40
0.05
  9
$TEXTSTYLE
  7
STANDARD
  9
$CLAYER
  8
0
  9
$CELTYPE
  6
BYLAYER
  9
$CECOLOR
 62
   256
  9
$DIMSCALE
 40
1.0
  9
$DIMASZ
 40
3.0
  9
$DIMEXO
 40
2.0
  9
$DIMDLI
 40
10.0
  9
$DIMRND
 40
0.0
  9
$DIMDLE
 40
0.0
  9
$DIMEXE
 40
2.0
  9
$DIMTP
 40
0.0
  9
$DIMTM
 40
0.0
  9
$DIMTXT
 40
3.0
  9
$DIMCEN
 40
0.0
  9
$DIMTSZ
 40
0.0
  9
$DIMTOL
 70
     0
  9
$DIMLIM
 70
     0
  9
$DIMTIH
 70
     0
  9
$DIMTOH
 70
     0
  9
$DIMSE1
 70
     0
  9
$DIMSE2
 70
     0
  9
$DIMTAD
 70
     1
  9
$DIMZIN
 70
     0
  9
$DIMBLK
  1

  9
$DIMASO
 70
     0
  9
$DIMSHO
 70
     0
  9
$DIMPOST
  1

  9
$DIMAPOST
  1

  9
$DIMALT
 70
     0
  9
$DIMALTD
 70
     2
  9
$DIMALTF
 40
25.399999999999999
  9
$DIMLFAC
 40
1.0
  9
$DIMTOFL
 70
     1
  9
$DIMTVP
 40
1.6000000000000001
  9
$DIMTIX
 70
     1
  9
$DIMSOXD
 70
     0
  9
$DIMSAH
 70
     0
  9
$DIMBLK1
  1

  9
$DIMBLK2
  1

  9
$DIMSTYLE
  2
STANDARD
  9
$DIMCLRD
 70
     0
  9
$DIMCLRE
 70
     0
  9
$DIMCLRT
 70
     0
  9
$DIMTFAC
 40
1.0
  9
$DIMGAP
 40
0.09
  9
$LUNITS
 70
     2
  9
$LUPREC
 70
     4
  9
$SKETCHINC
 40
0.1
  9
$FILLETRAD
 40
0.0
  9
$AUNITS
 70
     0
  9
$AUPREC
 70
     4
  9
$MENU
  1
E:\r13\win\SUPPORT\ACAD
  9
$ELEVATION
 40
0.0
  9
$PELEVATION
 40
0.0
  9
$THICKNESS
 40
0.0
  9
$LIMCHECK
 70
     0
  9
$BLIPMODE
 70
     0
  9
$CHAMFERA
 40
0.0
  9
$CHAMFERB
 40
0.0
  9
$SKPOLY
 70
     0
  9
$TDCREATE
 40
2449840.3468865738
  9
$TDUPDATE
 40
2456597.6358843632
  9
$TDINDWG
 40
0.0062998958
  9
$TDUSRTIMER
 40
0.0062998958
  9
$USRTIMER
 70
     1
  9
$ANGBASE
 50
0.0
  9
$ANGDIR
 70
     0
  9
$PDMODE
 70
     1
  9
$PDSIZE
 40
0.0
  9
$PLINEWID
 40
0.0
  9
$COORDS
 70
     1
  9
$SPLFRAME
 70
     0
  9
$SPLINETYPE
 70
     6
  9
$SPLINESEGS
 70
     8
  9
$ATTDIA
 70
     0
  9
$ATTREQ
 70
     1
  9
$HANDLING
 70
     1
  9
$HANDSEED
  5
623
  9
$SURFTAB1
 70
     6
  9
$SURFTAB2
 70
     6
  9
$SURFTYPE
 70
     6
  9
$SURFU
 70
     6
  9
$SURFV
 70
     6
  9
$UCSNAME
  2

  9
$UCSORG
 10
0.0
 20
0.0
 30
0.0
  9
$UCSXDIR
 10
1.0
 20
0.0
 30
0.0
  9
$UCSYDIR
 10
0.0
 20
1.0
 30
0.0
  9
$PUCSNAME
  2

  9
$PUCSORG
 10
0.0
 20
0.0
 30
0.0
  9
$PUCSXDIR
 10
1.0
 20
0.0
 30
0.0
  9
$PUCSYDIR
 10
0.0
 20
1.0
 30
0.0
  9
$USERI1
 70
     3
  9
$USERI2
 70
     1
  9
$USERI3
 70
     0
  9
$USERI4
 70
     0
  9
$USERI5
 70
     0
  9
$USERR1
 40
1.0
  9
$USERR2
 40
3.0
  9
$USERR3
 40
3.0
  9
$USERR4
 40
3.0
  9
$USERR5
 40
10.0
  9
$WORLDVIEW
 70
     1
  9
$SHADEDGE
 70
     3
  9
$SHADEDIF
 70
    70
  9
$TILEMODE
 70
     1
  9
$MAXACTVP
 70
    16
  9
$PLIMCHECK
 70
     0
  9
$PEXTMIN
 10
1.0000000000000000E+020
 20
1.0000000000000000E+020
 30
1.0000000000000000E+020
  9
$PEXTMAX
 10
-1.0000000000000000E+020
 20
-1.0000000000000000E+020
 30
-1.0000000000000000E+020
  9
$PLIMMIN
 10
0.0
 20
0.0
  9
$PLIMMAX
 10
12.0
 20
9.0
  9
$UNITMODE
 70
     0
  9
$VISRETAIN
 70
     0
  9
$PLINEGEN
 70
     0
  9
$PSLTSCALE
 70
     0
  0
ENDSEC
  0
SECTION
  2
TABLES
  0
TABLE
  2
VPORT
 70
     1
  0
VPORT
  2
*ACTIVE
 70
     0
 10
0.0
 20
0.0
 11
1.0
 21
1.0
 12
195.0581083320873
 22
133.5127261426681
 13
0.0
 23
0.0
 14
5.0
 24
5.0
 15
10.0
 25
10.0
 16
0.0
 26
0.0
 36
1.0
 17
0.0
 27
0.0
 37
0.0
 40
275.42274993631997
 41
1.831871345029239
 42
50.0
 43
0.0
 44
0.0
 50
0.0
 51
0.0
 71
     0
 72
   100
 73
     1
 74
     0
 75
     0
 76
     0
 77
     0
 78
     0
  0
ENDTAB
  0
TABLE
  2
LTYPE
 70
     4
  0
LTYPE
  2
CONTINUOUS
 70
     0
  3
Solid Line
 72
    65
 73
     0
 40
0.0
  0
LTYPE
  2
CENTER
 70
     0
  3
____ _ ____ _ ____ _ ____ _ ____ _ ____ _ ____
 72
    65
 73
     4
 40
2.0
 49
1.25
 49
-0.25
 49
0.25
 49
-0.25
  0
LTYPE
  2
HIDDEN
 70
     0
  3
__ __ __ __ __ __ __ __ __ __ __ __ __ __ __ __
 72
    65
 73
     2
 40
0.375
 49
0.25
 49
-0.125
  0
LTYPE
  2
PHANTOM2
 70
     0
  3
___ _ _ ___ _ _ ___ _ _ ___ _ _
 72
    65
 73
     6
 40
1.25
 49
0.625
 49
-0.125
 49
0.125
 49
-0.125
 49
0.125
 49
-0.125
  0
ENDTAB
  0
TABLE
  2
LAYER
 70
     4
  0
LAYER
  2
0
 70
     0
 62
     7
  6
CONTINUOUS
  0
LAYER
  2
1
 70
     0
 62
     1
  6
CENTER
  0
LAYER
  2
2
 70
     0
 62
     2
  6
HIDDEN
  0
LAYER
  2
3
 70
     0
 62
     3
  6
CONTINUOUS
  0
ENDTAB
  0
TABLE
  2
STYLE
 70
     2
  0
STYLE
  2
STANDARD
 70
     0
 40
0.0
 41
1.0
 50
0.0
 71
     0
 42
0.06
  3
TXT
  4
BIGFONT
  0
STYLE
  2
STANDARD1
 70
     0
 40
0.0
 41
1.0
 50
0.0
 71
     0
 42
3.0
  3
txt
  4

  0
ENDTAB
  0
TABLE
  2
VIEW
 70
     0
  0
ENDTAB
  0
TABLE
  2
UCS
 70
     0
  0
ENDTAB
  0
TABLE
  2
APPID
 70
     4
  0
APPID
  2
ACAD
 70
     0
  0
APPID
  2
ACAD_EXEMPT_FROM_CAD_STANDARDS
 70
     0
  0
APPID
  2
ACAD_MLEADERVER
 70
     0
  0
APPID
  2
ACAD_NAV_VCDISPLAY
 70
     0
  0
ENDTAB
  0
TABLE
  2
DIMSTYLE
 70
     1
  0
DIMSTYLE
  2
STANDARD
 70
     0
  3

  4

  5

  6

  7

 40
1.0
 41
0.18
 42
0.0625
 43
0.38
 44
0.18
 45
0.0
 46
0.0
 47
0.0
 48
0.0
140
0.18
141
0.09
142
0.0
143
25.399999999999999
144
1.0
145
0.0
146
1.0
147
0.09
 71
     0
 72
     0
 73
     1
 74
     1
 75
     0
 76
     0
 77
     0
 78
     0
170
     0
171
     2
172
     0
173
     0
174
     0
175
     0
176
     0
177
     0
178
     0
  0
ENDTAB
  0
ENDSEC
  0
SECTION
  2
BLOCKS
  0
BLOCK
  8
0
  2
$MODEL_SPACE
 70
     0
 10
0.0
 20
0.0
 30
0.0
  3
$MODEL_SPACE
  1

  0
ENDBLK
  5
20E
  8
0
  0
BLOCK
 67
     1
  8
0
  2
$PAPER_SPACE
 70
     0
 10
0.0
 20
0.0
 30
0.0
  3
$PAPER_SPACE
  1

  0
ENDBLK
  5
20C
 67
     1
  8
0
  0
ENDSEC
  0
SECTION
  2
ENTITIES
  0
LINE
  5
27C
  8
0
 10
234.0
 20
110.0
 30
0.0
 11
136.0
 21
110.0
 31
0.0
  0
LINE
  5
27D
  8
0
 10
135.0
 20
111.0
 30
0.0
 11
135.0
 21
123.0
 31
0.0
  0
LINE
  5
27E
  8
0
 10
140.19615200000001
 20
126.0
 30
0.0
 11
234.0
 21
126.0
 31
0.0
  0
LINE
  5
27F
  8
0
 10
235.0
 20
125.0
 30
0.0
 11
235.0
 21
111.0
 31
0.0
  0
LINE
  5
282
  8
1
 10
150.0
 20
105.0
 30
0.0
 11
150.0
 21
131.0
 31
0.0
  0
LINE
  5
283
  8
2
 10
195.5
 20
115.0
 30
0.0
 11
195.5
 21
126.0
 31
0.0
  0
LINE
  5
284
  8
2
 10
144.5
 20
110.0
 30
0.0
 11
144.5
 21
126.0
 31
0.0
  0
LINE
  5
285
  8
0
 10
135.0
 20
123.0
 30
0.0
 11
140.19615200000001
 21
126.0
 31
0.0
  0
LINE
  5
286
  8
0
 10
234.0
 20
126.0
 30
0.0
 11
235.0
 21
125.0
 31
0.0
  0
LINE
  5
287
  8
0
 10
235.0
 20
111.0
 30
0.0
 11
234.0
 21
110.0
 31
0.0
  0
LINE
  5
288
  8
0
 10
136.0
 20
110.0
 30
0.0
 11
135.0
 21
111.0
 31
0.0
  0
LINE
  5
289
  8
2
 10
234.0
 20
115.0
 30
0.0
 11
190.0
 21
115.0
 31
0.0
  0
LINE
  5
28A
  8
2
 10
230.0
 20
115.0
 30
0.0
 11
230.0
 21
126.0
 31
0.0
  0
LINE
  5
28B
  8
2
 10
229.18799999999999
 20
115.0
 30
0.0
 11
229.18799999999999
 21
126.0
 31
0.0
  0
LINE
  5
28C
  8
2
 10
220.81200000000001
 20
115.0
 30
0.0
 11
220.81200000000001
 21
126.0
 31
0.0
  0
LINE
  5
28D
  8
2
 10
220.0
 20
115.0
 30
0.0
 11
220.0
 21
126.0
 31
0.0
  0
LINE
  5
28E
  8
0
 10
143.554137
 20
126.057554
 30
0.0
 11
143.554137
 21
110.00060000000001
 31
0.0
  0
ARC
  5
28F
  8
0
 10
99.25
 20
78.580156000000002
 30
0.0
 40
12.275506999999999
 50
69.743841999999916
 51
110.2561580000001
  0
LINE
  5
290
  8
0
 10
103.5
 20
90.855661999999995
 30
0.0
 11
103.25
 21
91.0
 31
0.0
  0
LINE
  5
291
  8
0
 10
103.5
 20
85.144338000000005
 30
0.0
 11
103.25
 21
85.0
 31
0.0
  0
ARC
  5
292
  8
0
 10
99.25
 20
97.419843999999983
 30
0.0
 40
12.275506999999999
 50
249.74384199999989
 51
290.25615800000008
  0
LINE
  5
293
  8
0
 10
103.5
 20
90.855661999999995
 30
0.0
 11
103.5
 21
85.144338000000005
 31
0.0
  0
LINE
  5
294
  8
0
 10
95.0
 20
90.096473000000003
 30
0.0
 11
95.0
 21
85.903526999999997
 31
0.0
  0
LINE
  5
295
  8
0
 10
86.5
 20
90.855661999999995
 30
0.0
 11
86.5
 21
85.144338000000005
 31
0.0
  0
LINE
  5
296
  8
0
 10
86.5
 20
85.144338000000005
 30
0.0
 11
86.75
 21
85.0
 31
0.0
  0
ARC
  5
297
  8
0
 10
90.750000000000014
 20
97.419843999999983
 30
0.0
 40
12.275506999999999
 50
249.74384199999989
 51
290.25615800000008
  0
LINE
  5
298
  8
0
 10
86.5
 20
90.855661999999995
 30
0.0
 11
86.75
 21
91.0
 31
0.0
  0
ARC
  5
299
  8
0
 10
90.750000000000014
 20
78.580156000000002
 30
0.0
 40
12.275506999999999
 50
69.743841999999916
 51
110.2561580000001
  0
LINE
  5
29A
  8
0
 10
103.25
 20
91.0
 30
0.0
 11
86.75
 21
91.0
 31
0.0
  0
LINE
  5
29E
  8
1
 10
95.0
 20
172.5
 30
0.0
 11
95.0
 21
60.0
 31
0.0
  0
LINE
  5
2A0
  8
0
 10
90.0
 20
163.5
 30
0.0
 11
100.0
 21
163.5
 31
0.0
  0
LINE
  5
2A2
  8
3
 10
90.750000000000014
 20
143.028246
 30
0.0
 11
90.750000000000014
 21
164.25
 31
0.0
  0
LINE
  5
2A3
  8
3
 10
99.250000000000014
 20
143.028246
 30
0.0
 11
99.25
 21
164.25
 31
0.0
  0
LINE
  5
2A4
  8
3
 10
99.25
 20
105.0
 30
0.0
 11
100.0
 21
106.299038
 31
0.0
  0
LINE
  5
2A5
  8
3
 10
99.25
 20
105.0
 30
0.0
 11
99.25
 21
91.0
 31
0.0
  0
LINE
  5
2A6
  8
3
 10
90.750000000000014
 20
105.0
 30
0.0
 11
90.0
 21
106.299038
 31
0.0
  0
LINE
  5
2A7
  8
0
 10
90.0
 20
66.5
 30
0.0
 11
100.0
 21
66.5
 31
0.0
  0
LINE
  5
2A8
  8
3
 10
90.750000000000014
 20
105.0
 30
0.0
 11
90.750000000000014
 21
91.0
 31
0.0
  0
LINE
  5
2A9
  8
0
 10
100.0
 20
105.0
 30
0.0
 11
90.0
 21
105.0
 31
0.0
  0
LINE
  5
2AA
  8
0
 10
98.500000000000014
 20
165.0
 30
0.0
 11
100.0
 21
163.5
 31
0.0
  0
LINE
  5
2AB
  8
0
 10
90.0
 20
163.5
 30
0.0
 11
91.5
 21
165.0
 31
0.0
  0
LINE
  5
2AC
  8
0
 10
91.5
 20
65.0
 30
0.0
 11
90.0
 21
66.5
 31
0.0
  0
LINE
  5
2AD
  8
0
 10
98.500000000000014
 20
65.0
 30
0.0
 11
100.0
 21
66.5
 31
0.0
  0
LINE
  5
2AE
  8
0
 10
100.0
 20
163.5
 30
0.0
 11
100.0
 21
143.028246
 31
0.0
  0
LINE
  5
2AF
  8
0
 10
91.5
 20
165.0
 30
0.0
 11
98.500000000000014
 21
165.0
 31
0.0
  0
LINE
  5
2B0
  8
0
 10
90.0
 20
66.5
 30
0.0
 11
90.0
 21
85.0
 31
0.0
  0
LINE
  5
2B1
  8
0
 10
98.500000000000014
 20
65.0
 30
0.0
 11
91.5
 21
65.0
 31
0.0
  0
LINE
  5
2B4
  8
1
 10
280.0
 20
172.5
 30
0.0
 11
280.0
 21
60.0
 31
0.0
  0
LINE
  5
2B6
  8
0
 10
275.0
 20
163.5
 30
0.0
 11
285.0
 21
163.5
 31
0.0
  0
LINE
  5
2B8
  8
3
 10
275.75
 20
126.0
 30
0.0
 11
275.75
 21
164.25
 31
0.0
  0
LINE
  5
2B9
  8
3
 10
284.25
 20
126.0
 30
0.0
 11
284.25
 21
164.25
 31
0.0
  0
LINE
  5
2BB
  8
3
 10
284.25
 20
110.0
 30
0.0
 11
284.25
 21
96.0
 31
0.0
  0
LINE
  5
2BD
  8
0
 10
275.0
 20
66.5
 30
0.0
 11
285.0
 21
66.5
 31
0.0
  0
LINE
  5
2BE
  8
3
 10
275.75
 20
110.0
 30
0.0
 11
275.75
 21
96.0
 31
0.0
  0
LINE
  5
2C0
  8
0
 10
283.5
 20
165.0
 30
0.0
 11
285.0
 21
163.5
 31
0.0
  0
LINE
  5
2C1
  8
0
 10
275.0
 20
163.5
 30
0.0
 11
276.5
 21
165.0
 31
0.0
  0
LINE
  5
2C2
  8
0
 10
276.5
 20
65.0
 30
0.0
 11
275.0
 21
66.5
 31
0.0
  0
LINE
  5
2C3
  8
0
 10
283.5
 20
65.0
 30
0.0
 11
285.0
 21
66.5
 31
0.0
  0
LINE
  5
2C4
  8
0
 10
285.0
 20
163.5
 30
0.0
 11
285.0
 21
126.0
 31
0.0
  0
LINE
  5
2C5
  8
0
 10
276.5
 20
165.0
 30
0.0
 11
283.5
 21
165.0
 31
0.0
  0
LINE
  5
2C6
  8
0
 10
275.0
 20
66.5
 30
0.0
 11
275.0
 21
85.0
 31
0.0
  0
LINE
  5
2C7
  8
0
 10
283.5
 20
65.0
 30
0.0
 11
276.5
 21
65.0
 31
0.0
  0
LINE
  5
2C8
  8
0
 10
290.0
 20
85.5
 30
0.0
 11
290.0
 21
89.500000000000014
 31
0.0
  0
LINE
  5
2C9
  8
0
 10
287.5
 20
92.0
 30
0.0
 11
287.5
 21
95.5
 31
0.0
  0
LINE
  5
2CC
  8
0
 10
289.5
 20
85.0
 30
0.0
 11
290.0
 21
85.5
 31
0.0
  0
LINE
  5
2CD
  8
0
 10
290.0
 20
89.500000000000014
 30
0.0
 11
289.5
 21
90.0
 31
0.0
  0
LINE
  5
2CE
  8
0
 10
287.5
 20
95.5
 30
0.0
 11
287.0
 21
96.0
 31
0.0
  0
ARC
  5
2CF
  8
0
 10
289.5
 20
92.0
 30
0.0
 40
2.0
 50
180.0
 51
270.0
  0
ARC
  5
2D0
  8
0
 10
270.5
 20
92.0
 30
0.0
 40
2.0
 50
270.0
 51
0.0
  0
LINE
  5
2D1
  8
0
 10
272.5
 20
92.0
 30
0.0
 11
272.5
 21
95.5
 31
0.0
  0
LINE
  5
2D2
  8
0
 10
272.5
 20
95.5
 30
0.0
 11
273.0
 21
96.0
 31
0.0
  0
LINE
  5
2D3
  8
0
 10
273.0
 20
96.0
 30
0.0
 11
287.0
 21
96.0
 31
0.0
  0
LINE
  5
2D4
  8
0
 10
270.0
 20
89.500000000000014
 30
0.0
 11
270.5
 21
90.0
 31
0.0
  0
LINE
  5
2D5
  8
0
 10
270.0
 20
85.5
 30
0.0
 11
270.0
 21
89.500000000000014
 31
0.0
  0
LINE
  5
2D6
  8
0
 10
270.5
 20
85.0
 30
0.0
 11
270.0
 21
85.5
 31
0.0
  0
LINE
  5
2D7
  8
0
 10
289.5
 20
85.0
 30
0.0
 11
270.5
 21
85.0
 31
0.0
  0
LINE
  5
2D9
  8
3
 10
275.75
 20
147.82637700000001
 30
0.0
 11
275.75000000000011
 21
126.0
 31
0.0
  0
LINE
  5
2DA
  8
3
 10
284.25
 20
147.82637700000001
 30
0.0
 11
284.25
 21
126.0
 31
0.0
  0
LINE
  5
2DB
  8
0
 10
276.39999999999998
 20
96.768086999999994
 30
0.0
 11
283.60000000000002
 21
96.768086999999994
 31
0.0
  0
LINE
  5
2DC
  8
0
 10
276.39999999999998
 20
96.768086999999994
 30
0.0
 11
276.39999999999998
 21
96.0
 31
0.0
  0
LINE
  5
2DD
  8
0
 10
275.0
 20
97.576377000000008
 30
0.0
 11
276.39999999999998
 21
96.768086999999994
 31
0.0
  0
LINE
  5
2DE
  8
0
 10
283.60000000000002
 20
96.768086999999994
 30
0.0
 11
283.60000000000002
 21
96.0
 31
0.0
  0
LINE
  5
2E0
  8
0
 10
285.0
 20
97.576377000000008
 30
0.0
 11
283.60000000000002
 21
96.768086999999994
 31
0.0
  0
LINE
  5
2E6
  8
0
 10
285.0
 20
97.576377000000008
 30
0.0
 11
275.0
 21
97.576377000000008
 31
0.0
  0
LINE
  5
2E7
  8
0
 10
285.0
 20
147.07637700000001
 30
0.0
 11
285.0
 21
126.0
 31
0.0
  0
LINE
  5
2E8
  8
0
 10
289.5
 20
90.0
 30
0.0
 11
270.5
 21
90.0
 31
0.0
  0
LINE
  5
2E9
  8
0
 10
198.25
 20
85.0
 30
0.0
 11
181.75
 21
85.0
 31
0.0
  0
LINE
  5
2EA
  8
0
 10
181.75
 20
91.0
 30
0.0
 11
198.25
 21
91.0
 31
0.0
  0
ARC
  5
2EB
  8
0
 10
197.36121600000001
 20
86.510763999999995
 30
0.0
 40
4.344898999999999
 50
64.384247000000116
 51
124.3842470000001
  0
LINE
  5
2EC
  8
0
 10
199.814955
 20
90.096473000000003
 30
0.0
 11
198.25
 21
91.0
 31
0.0
  0
LINE
  5
2ED
  8
0
 10
199.814955
 20
85.903526999999997
 30
0.0
 11
198.25
 21
85.0
 31
0.0
  0
ARC
  5
2EE
  8
0
 10
197.36121600000001
 20
89.489236000000005
 30
0.0
 40
4.344898999999999
 50
235.6157529999999
 51
295.61575299999993
  0
LINE
  5
2EF
  8
0
 10
199.814955
 20
90.096473000000003
 30
0.0
 11
199.814955
 21
85.903526999999997
 31
0.0
  0
LINE
  5
2F0
  8
0
 10
194.907477
 20
90.096473000000003
 30
0.0
 11
194.907477
 21
85.903526999999997
 31
0.0
  0
LINE
  5
2F1
  8
0
 10
185.092523
 20
90.096473000000003
 30
0.0
 11
185.092523
 21
85.903526999999997
 31
0.0
  0
LINE
  5
2F2
  8
0
 10
180.185045
 20
90.096473000000003
 30
0.0
 11
180.185045
 21
85.903526999999997
 31
0.0
  0
ARC
  5
2F3
  8
0
 10
190.0
 20
101.385148
 30
0.0
 40
16.24081099999999
 50
252.41204599999941
 51
287.58795400000059
  0
ARC
  5
2F4
  8
0
 10
182.63878399999999
 20
89.489236000000005
 30
0.0
 40
4.344898999999999
 50
244.3842470000001
 51
304.38424700000007
  0
LINE
  5
2F5
  8
0
 10
180.185045
 20
85.903526999999997
 30
0.0
 11
181.75
 21
85.0
 31
0.0
  0
LINE
  5
2F6
  8
0
 10
180.185045
 20
90.096473000000003
 30
0.0
 11
181.75
 21
91.0
 31
0.0
  0
ARC
  5
2F7
  8
0
 10
190.0
 20
74.614851999999999
 30
0.0
 40
16.24081099999999
 50
72.412045999999393
 51
107.58795400000059
  0
ARC
  5
2F8
  8
0
 10
182.63878399999999
 20
86.510763999999995
 30
0.0
 40
4.344898999999999
 50
55.61575299999987
 51
115.6157529999999
  0
LINE
  5
2FB
  8
1
 10
190.0
 20
172.5
 30
0.0
 11
190.0
 21
60.0
 31
0.0
  0
LINE
  5
2FD
  8
0
 10
185.0
 20
163.5
 30
0.0
 11
195.0
 21
163.5
 31
0.0
  0
LINE
  5
2FF
  8
3
 10
185.75
 20
143.028246
 30
0.0
 11
185.75
 21
164.25
 31
0.0
  0
LINE
  5
300
  8
3
 10
194.25
 20
143.028246
 30
0.0
 11
194.25
 21
164.25
 31
0.0
  0
LINE
  5
301
  8
3
 10
194.25
 20
105.0
 30
0.0
 11
195.0
 21
106.299038
 31
0.0
  0
LINE
  5
302
  8
3
 10
194.25
 20
105.0
 30
0.0
 11
194.25
 21
91.0
 31
0.0
  0
LINE
  5
303
  8
3
 10
185.75
 20
105.0
 30
0.0
 11
185.0
 21
106.299038
 31
0.0
  0
LINE
  5
304
  8
0
 10
185.0
 20
66.5
 30
0.0
 11
195.0
 21
66.5
 31
0.0
  0
LINE
  5
305
  8
3
 10
185.75
 20
105.0
 30
0.0
 11
185.75
 21
91.0
 31
0.0
  0
LINE
  5
306
  8
0
 10
195.0
 20
105.0
 30
0.0
 11
185.0
 21
105.0
 31
0.0
  0
LINE
  5
307
  8
0
 10
193.5
 20
165.0
 30
0.0
 11
195.0
 21
163.5
 31
0.0
  0
LINE
  5
308
  8
0
 10
185.0
 20
163.5
 30
0.0
 11
186.5
 21
165.0
 31
0.0
  0
LINE
  5
309
  8
0
 10
186.5
 20
65.0
 30
0.0
 11
185.0
 21
66.5
 31
0.0
  0
LINE
  5
30A
  8
0
 10
193.5
 20
65.0
 30
0.0
 11
195.0
 21
66.5
 31
0.0
  0
LINE
  5
30B
  8
0
 10
195.0
 20
163.5
 30
0.0
 11
195.0
 21
143.028246
 31
0.0
  0
LINE
  5
30C
  8
0
 10
186.5
 20
165.0
 30
0.0
 11
193.5
 21
165.0
 31
0.0
  0
LINE
  5
30D
  8
0
 10
185.0
 20
66.5
 30
0.0
 11
185.0
 21
85.0
 31
0.0
  0
LINE
  5
30E
  8
0
 10
193.5
 20
65.0
 30
0.0
 11
186.5
 21
65.0
 31
0.0
  0
LINE
  5
30F
  8
0
 10
235.0
 20
85.5
 30
0.0
 11
235.0
 21
89.500000000000014
 31
0.0
  0
LINE
  5
310
  8
0
 10
232.5
 20
92.0
 30
0.0
 11
232.5
 21
95.5
 31
0.0
  0
LINE
  5
311
  8
0
 10
232.0
 20
96.0
 30
0.0
 11
218.0
 21
96.0
 31
0.0
  0
LINE
  5
312
  8
0
 10
215.5
 20
85.0
 30
0.0
 11
234.5
 21
85.0
 31
0.0
  0
LINE
  5
313
  8
0
 10
234.5
 20
85.0
 30
0.0
 11
235.0
 21
85.5
 31
0.0
  0
LINE
  5
314
  8
0
 10
235.0
 20
89.500000000000014
 30
0.0
 11
234.5
 21
90.0
 31
0.0
  0
LINE
  5
315
  8
0
 10
232.5
 20
95.5
 30
0.0
 11
232.0
 21
96.0
 31
0.0
  0
ARC
  5
316
  8
0
 10
234.5
 20
92.0
 30
0.0
 40
2.0
 50
180.0
 51
270.0
  0
ARC
  5
317
  8
0
 10
215.5
 20
92.0
 30
0.0
 40
2.0
 50
270.0
 51
0.0
  0
LINE
  5
318
  8
0
 10
217.5
 20
92.0
 30
0.0
 11
217.5
 21
95.5
 31
0.0
  0
LINE
  5
319
  8
0
 10
217.5
 20
95.5
 30
0.0
 11
218.0
 21
96.0
 31
0.0
  0
LINE
  5
31B
  8
0
 10
215.0
 20
89.500000000000014
 30
0.0
 11
215.5
 21
90.0
 31
0.0
  0
LINE
  5
31C
  8
0
 10
215.0
 20
85.5
 30
0.0
 11
215.0
 21
89.500000000000014
 31
0.0
  0
LINE
  5
31D
  8
0
 10
215.5
 20
85.0
 30
0.0
 11
215.0
 21
85.5
 31
0.0
  0
LINE
  5
31F
  8
1
 10
225.0
 20
156.33811
 30
0.0
 11
225.0
 21
81.789373999999995
 31
0.0
  0
LINE
  5
320
  8
3
 10
220.75
 20
147.82637700000001
 30
0.0
 11
220.75
 21
126.0
 31
0.0
  0
LINE
  5
321
  8
3
 10
229.25
 20
147.82637700000001
 30
0.0
 11
229.25
 21
126.0
 31
0.0
  0
LINE
  5
322
  8
0
 10
221.40000000000001
 20
96.768086999999994
 30
0.0
 11
228.59999999999999
 21
96.768086999999994
 31
0.0
  0
LINE
  5
323
  8
0
 10
221.40000000000001
 20
96.768086999999994
 30
0.0
 11
221.40000000000001
 21
96.0
 31
0.0
  0
LINE
  5
324
  8
0
 10
220.0
 20
97.576377000000008
 30
0.0
 11
221.40000000000001
 21
96.768086999999994
 31
0.0
  0
LINE
  5
325
  8
0
 10
228.59999999999999
 20
96.768086999999994
 30
0.0
 11
228.59999999999999
 21
96.0
 31
0.0
  0
LINE
  5
327
  8
0
 10
230.0
 20
97.576377000000008
 30
0.0
 11
228.59999999999999
 21
96.768086999999994
 31
0.0
  0
LINE
  5
328
  8
0
 10
230.0
 20
147.07637700000001
 30
0.0
 11
220.0
 21
147.07637700000001
 31
0.0
  0
LINE
  5
329
  8
0
 10
221.5
 20
148.57637700000001
 30
0.0
 11
220.0
 21
147.07637700000001
 31
0.0
  0
LINE
  5
32A
  8
0
 10
230.0
 20
147.07637700000001
 30
0.0
 11
228.5
 21
148.57637700000001
 31
0.0
  0
LINE
  5
32B
  8
0
 10
221.5
 20
148.57637700000001
 30
0.0
 11
228.5
 21
148.57637700000001
 31
0.0
  0
LINE
  5
32C
  8
0
 10
220.0
 20
97.576377000000008
 30
0.0
 11
220.0
 21
110.0
 31
0.0
  0
LINE
  5
32D
  8
0
 10
230.0
 20
97.576377000000008
 30
0.0
 11
220.0
 21
97.576377000000008
 31
0.0
  0
LINE
  5
32E
  8
0
 10
230.0
 20
147.07637700000001
 30
0.0
 11
230.0
 21
126.0
 31
0.0
  0
LINE
  5
32F
  8
0
 10
234.5
 20
90.0
 30
0.0
 11
215.5
 21
90.0
 31
0.0
  0
CIRCLE
  5
330
  8
3
 10
190.0
 20
200.0
 30
0.0
 40
4.25
  0
CIRCLE
  5
331
  8
0
 10
190.0
 20
200.0
 30
0.0
 40
5.0
  0
LINE
  5
332
  8
0
 10
199.53793899999999
 20
199.520196
 30
0.0
 11
195.18449200000001
 21
191.979804
 31
0.0
  0
ARC
  5
333
  8
0
 10
190.0
 20
200.0
 30
0.0
 40
9.5500000000000007
 50
357.1201729999998
 51
2.879827000000224
  0
ARC
  5
334
  8
0
 10
190.0
 20
200.0
 30
0.0
 40
9.5500000000000007
 50
57.120173000000619
 51
62.879826999999793
  0
LINE
  5
335
  8
0
 10
195.18449200000001
 20
208.020196
 30
0.0
 11
199.53793899999999
 21
200.479804
 31
0.0
  0
ARC
  5
336
  8
0
 10
190.0
 20
200.0
 30
0.0
 40
9.5500000000000007
 50
117.12017300000019
 51
122.8798269999993
  0
LINE
  5
337
  8
0
 10
185.64655300000001
 20
208.5
 30
0.0
 11
194.35344699999999
 21
208.5
 31
0.0
  0
ARC
  5
338
  8
0
 10
190.0
 20
200.0
 30
0.0
 40
9.5500000000000007
 50
177.12017299999971
 51
182.8798270000002
  0
LINE
  5
339
  8
0
 10
180.46206100000001
 20
200.479804
 30
0.0
 11
184.81550799999999
 21
208.020196
 31
0.0
  0
ARC
  5
33A
  8
0
 10
190.0
 20
200.0
 30
0.0
 40
9.5500000000000007
 50
237.12017300000059
 51
242.87982699999981
  0
LINE
  5
33B
  8
0
 10
184.81550799999999
 20
191.979804
 30
0.0
 11
180.46206100000001
 21
199.520196
 31
0.0
  0
ARC
  5
33C
  8
0
 10
190.0
 20
200.0
 30
0.0
 40
9.5500000000000007
 50
297.12017300000019
 51
302.87982699999941
  0
LINE
  5
33D
  8
0
 10
194.35344699999999
 20
191.5
 30
0.0
 11
185.64655300000001
 21
191.5
 31
0.0
  0
CIRCLE
  5
33E
  8
0
 10
190.0
 20
200.0
 30
0.0
 40
8.0
  0
CIRCLE
  5
33F
  8
0
 10
190.0
 20
200.0
 30
0.0
 40
11.0
  0
LINE
  5
340
  8
1
 10
190.0
 20
216.0
 30
0.0
 11
190.0
 21
184.0
 31
0.0
  0
LINE
  5
347
  8
0
 10
87.5
 20
123.0
 30
0.0
 11
84.500000000000014
 21
126.0
 31
0.0
  0
LINE
  5
348
  8
0
 10
102.5
 20
123.0
 30
0.0
 11
105.5
 21
126.0
 31
0.0
  0
LINE
  5
349
  8
0
 10
83.499999999999986
 20
126.0
 30
0.0
 11
82.5
 21
125.0
 31
0.0
  0
LINE
  5
34A
  8
0
 10
107.5
 20
125.0
 30
0.0
 11
106.5
 21
126.0
 31
0.0
  0
LINE
  5
34B
  8
0
 10
106.5
 20
110.0
 30
0.0
 11
107.5
 21
111.0
 31
0.0
  0
LINE
  5
34C
  8
0
 10
83.499999999999986
 20
110.0
 30
0.0
 11
82.5
 21
111.0
 31
0.0
  0
LINE
  5
34D
  8
0
 10
102.5
 20
123.0
 30
0.0
 11
87.5
 21
123.0
 31
0.0
  0
LINE
  5
34E
  8
0
 10
83.499999999999986
 20
126.0
 30
0.0
 11
106.5
 21
126.0
 31
0.0
  0
LINE
  5
34F
  8
0
 10
82.5
 20
111.0
 30
0.0
 11
82.5
 21
125.0
 31
0.0
  0
LINE
  5
350
  8
0
 10
106.5
 20
110.0
 30
0.0
 11
83.499999999999986
 21
110.0
 31
0.0
  0
LINE
  5
351
  8
0
 10
107.5
 20
125.0
 30
0.0
 11
107.5
 21
111.0
 31
0.0
  0
LINE
  5
352
  8
0
 10
102.5
 20
123.0
 30
0.0
 11
102.5
 21
110.0
 31
0.0
  0
LINE
  5
353
  8
0
 10
87.5
 20
123.0
 30
0.0
 11
87.5
 21
110.0
 31
0.0
  0
LINE
  5
356
  8
0
 10
291.5
 20
110.0
 30
0.0
 11
292.5
 21
111.0
 31
0.0
  0
LINE
  5
357
  8
0
 10
267.5
 20
111.0
 30
0.0
 11
268.5
 21
110.0
 31
0.0
  0
LINE
  5
358
  8
0
 10
268.5
 20
126.0
 30
0.0
 11
267.5
 21
125.0
 31
0.0
  0
LINE
  5
359
  8
0
 10
291.5
 20
126.0
 30
0.0
 11
292.5
 21
125.0
 31
0.0
  0
LINE
  5
35B
  8
0
 10
285.5
 20
115.0
 30
0.0
 11
285.5
 21
110.0
 31
0.0
  0
LINE
  5
35C
  8
0
 10
274.5
 20
115.0
 30
0.0
 11
274.5
 21
110.0
 31
0.0
  0
LINE
  5
35D
  8
0
 10
285.5
 20
115.0
 30
0.0
 11
274.5
 21
115.0
 31
0.0
  0
LINE
  5
35F
  8
0
 10
291.5
 20
110.0
 30
0.0
 11
268.5
 21
110.0
 31
0.0
  0
LINE
  5
360
  8
0
 10
292.5
 20
125.0
 30
0.0
 11
292.5
 21
111.0
 31
0.0
  0
LINE
  5
361
  8
0
 10
268.5
 20
126.0
 30
0.0
 11
291.5
 21
126.0
 31
0.0
  0
LINE
  5
362
  8
0
 10
267.5
 20
111.0
 30
0.0
 11
267.5
 21
125.0
 31
0.0
  0
LINE
  5
363
  8
0
 10
223.556624
 20
197.5
 30
0.0
 11
226.443376
 21
197.5
 31
0.0
  0
LINE
  5
364
  8
0
 10
226.443376
 20
197.5
 30
0.0
 11
227.886751
 21
200.0
 31
0.0
  0
LINE
  5
365
  8
0
 10
227.886751
 20
200.0
 30
0.0
 11
226.443376
 21
202.5
 31
0.0
  0
LINE
  5
366
  8
0
 10
226.443376
 20
202.5
 30
0.0
 11
223.556624
 21
202.5
 31
0.0
  0
LINE
  5
367
  8
0
 10
223.556624
 20
202.5
 30
0.0
 11
222.113249
 21
200.0
 31
0.0
  0
LINE
  5
368
  8
0
 10
222.113249
 20
200.0
 30
0.0
 11
223.556624
 21
197.5
 31
0.0
  0
LINE
  5
369
  8
1
 10
225.0
 20
212.5
 30
0.0
 11
225.0
 21
187.5
 31
0.0
  0
CIRCLE
  5
36B
  8
0
 10
225.0
 20
200.0
 30
0.0
 40
5.0
  0
CIRCLE
  5
36C
  8
3
 10
225.0
 20
200.0
 30
0.0
 40
4.25
  0
CIRCLE
  5
36D
  8
2
 10
225.0
 20
200.0
 30
0.0
 40
7.5
  0
CIRCLE
  5
36E
  8
2
 10
225.0
 20
200.0
 30
0.0
 40
10.0
  0
LINE
  5
370
  8
1
 10
245.0
 20
200.0
 30
0.0
 11
125.0
 21
200.0
 31
0.0
  0
LINE
  5
371
  8
0
 10
139.92969299999999
 20
210.5
 30
0.0
 11
139.92969299999999
 21
189.5
 31
0.0
  0
LINE
  5
372
  8
2
 10
180.47372055837121
 20
205.5
 30
0.0
 11
235.0
 21
205.5
 31
0.0
  0
LINE
  5
373
  8
2
 10
180.47372055837121
 20
194.5
 30
0.0
 11
235.0
 21
194.5
 31
0.0
  0
LINE
  5
374
  8
0
 10
235.0
 20
189.5
 30
0.0
 11
233.0
 21
187.5
 31
0.0
  0
LINE
  5
375
  8
0
 10
233.0
 20
212.5
 30
0.0
 11
235.0
 21
210.5
 31
0.0
  0
LINE
  5
376
  8
0
 10
135.0
 20
207.5
 30
0.0
 11
143.66025400000001
 21
212.5
 31
0.0
  0
LINE
  5
377
  8
0
 10
135.0
 20
192.5
 30
0.0
 11
143.66025400000001
 21
187.5
 31
0.0
  0
ARC
  5
378
  8
0
 10
150.0
 20
200.0
 30
0.0
 40
5.5
 50
90.0
 51
270.0
  0
ARC
  5
379
  8
2
 10
190.0
 20
200.0
 30
0.0
 40
5.5
 50
270.0
 51
90.0
  0
LINE
  5
37B
  8
0
 10
180.47372055837121
 20
205.5
 30
0.0
 11
150.0
 21
205.5
 31
0.0
  0
LINE
  5
37C
  8
0
 10
180.47372055837121
 20
194.5
 30
0.0
 11
150.0
 21
194.5
 31
0.0
  0
LINE
  5
37D
  8
1
 10
150.0
 20
191.02083300000001
 30
0.0
 11
150.0
 21
208.95623499999999
 31
0.0
  0
LINE
  5
380
  8
0
 10
235.0
 20
210.5
 30
0.0
 11
235.0
 21
189.5
 31
0.0
  0
LINE
  5
381
  8
0
 10
143.66025400000001
 20
212.5
 30
0.0
 11
233.0
 21
212.5
 31
0.0
  0
LINE
  5
382
  8
0
 10
135.0
 20
192.5
 30
0.0
 11
135.0
 21
207.5
 31
0.0
  0
LINE
  5
383
  8
0
 10
233.0
 20
187.5
 30
0.0
 11
143.66025400000001
 21
187.5
 31
0.0
  0
LINE
  5
384
  8
0
 10
201.0
 20
131.528246
 30
0.0
 11
201.0
 21
129.928246
 31
0.0
  0
LINE
  5
385
  8
0
 10
194.77500000000001
 20
142.133353
 30
0.0
 11
194.77500000000001
 21
132.028246
 31
0.0
  0
ARC
  5
386
  8
0
 10
190.0
 20
129.84149600000001
 30
0.0
 40
13.18675
 50
68.770416999999682
 51
90.0
  0
ARC
  5
387
  8
0
 10
197.16249999999999
 20
139.403246
 30
0.0
 40
3.6267949999999991
 50
71.169949999999758
 51
131.1699500000002
  0
ARC
  5
388
  8
0
 10
190.0
 20
152.37818999999999
 30
0.0
 40
25.0
 50
243.89611899999929
 51
246.22385444034629
  0
ARC
  5
389
  8
0
 10
190.0
 20
152.37818999999999
 30
0.0
 40
25.0
 50
293.77614555965363
 51
296.10388100000068
  0
LINE
  5
38A
  8
0
 10
201.0
 20
129.928246
 30
0.0
 11
179.0
 21
129.928246
 31
0.0
  0
LINE
  5
38B
  8
0
 10
199.55000000000001
 20
142.133353
 30
0.0
 11
199.55000000000001
 21
132.428246
 31
0.0
  0
LINE
  5
38D
  8
0
 10
199.55000000000001
 20
142.133353
 30
0.0
 11
198.0
 21
143.028246
 31
0.0
  0
LINE
  5
38E
  8
0
 10
180.44999999999999
 20
142.133353
 30
0.0
 11
182.0
 21
143.028246
 31
0.0
  0
ARC
  5
38F
  8
0
 10
182.83750000000001
 20
139.403246
 30
0.0
 40
3.6267949999999991
 50
48.83004999999978
 51
108.8300500000002
  0
ARC
  5
390
  8
0
 10
182.83750000000001
 20
139.403246
 30
0.0
 40
3.6267949999999991
 50
131.1699500000002
 51
131.1699500000002
  0
ARC
  5
391
  8
0
 10
190.0
 20
129.84149600000001
 30
0.0
 40
13.18675
 50
90.0
 51
111.2295830000003
  0
LINE
  5
392
  8
0
 10
198.0
 20
143.028246
 30
0.0
 11
182.0
 21
143.028246
 31
0.0
  0
LINE
  5
393
  8
0
 10
185.22499999999999
 20
142.133353
 30
0.0
 11
185.22499999999999
 21
132.028246
 31
0.0
  0
LINE
  5
394
  8
0
 10
180.44999999999999
 20
142.133353
 30
0.0
 11
180.44999999999999
 21
132.466465
 31
0.0
  0
ARC
  5
395
  8
0
 10
199.94999999999999
 20
132.428246
 30
0.0
 40
0.4
 50
180.0
 51
270.0
  0
LINE
  5
396
  8
0
 10
200.5
 20
132.028246
 30
0.0
 11
201.0
 21
131.528246
 31
0.0
  0
ARC
  5
397
  8
0
 10
180.05000000000001
 20
132.428246
 30
0.0
 40
0.4
 50
270.0
 51
0.0
  0
LINE
  5
398
  8
0
 10
179.0
 20
131.528246
 30
0.0
 11
179.0
 21
129.928246
 31
0.0
  0
LINE
  5
399
  8
0
 10
179.5
 20
132.028246
 30
0.0
 11
179.0
 21
131.528246
 31
0.0
  0
LINE
  5
39A
  8
0
 10
179.5
 20
132.028246
 30
0.0
 11
200.5
 21
132.028246
 31
0.0
  0
LINE
  5
39D
  8
2
 10
184.0
 20
127.95312699999999
 30
0.0
 11
196.0
 21
127.95312699999999
 31
0.0
  0
LINE
  5
39E
  8
2
 10
184.0
 20
126.5
 30
0.0
 11
196.0
 21
126.5
 31
0.0
  0
LINE
  5
39F
  8
2
 10
184.0
 20
126.5
 30
0.0
 11
183.5
 21
126.0
 31
0.0
  0
LINE
  5
3A0
  8
2
 10
184.0
 20
126.5
 30
0.0
 11
184.0
 21
127.95312699999999
 31
0.0
  0
LINE
  5
3A1
  8
2
 10
179.75
 20
129.5
 30
0.0
 11
184.0
 21
127.95312699999999
 31
0.0
  0
LINE
  5
3A2
  8
2
 10
196.0
 20
126.5
 30
0.0
 11
196.5
 21
126.0
 31
0.0
  0
LINE
  5
3A3
  8
2
 10
200.25
 20
129.5
 30
0.0
 11
196.0
 21
127.95312699999999
 31
0.0
  0
LINE
  5
3A4
  8
2
 10
196.0
 20
126.5
 30
0.0
 11
196.0
 21
127.95312699999999
 31
0.0
  0
LINE
  5
3A5
  8
0
 10
179.0
 20
129.0
 30
0.0
 11
179.5
 21
129.5
 31
0.0
  0
LINE
  5
3A6
  8
0
 10
179.5
 20
126.0
 30
0.0
 11
179.0
 21
126.5
 31
0.0
  0
LINE
  5
3A7
  8
0
 10
201.0
 20
129.0
 30
0.0
 11
200.5
 21
129.5
 31
0.0
  0
LINE
  5
3A8
  8
0
 10
200.5
 20
126.0
 30
0.0
 11
201.0
 21
126.5
 31
0.0
  0
LINE
  5
3A9
  8
0
 10
179.0
 20
126.5
 30
0.0
 11
179.0
 21
129.0
 31
0.0
  0
LINE
  5
3AB
  8
0
 10
201.0
 20
129.0
 30
0.0
 11
201.0
 21
126.5
 31
0.0
  0
LINE
  5
3AC
  8
0
 10
179.5
 20
129.5
 30
0.0
 11
200.5
 21
129.5
 31
0.0
  0
LINE
  5
3AE
  8
0
 10
103.5
 20
142.57824600000001
 30
0.0
 11
103.5
 21
132.428246
 31
0.0
  0
ARC
  5
3AF
  8
0
 10
103.90000000000001
 20
132.428246
 30
0.0
 40
0.4
 50
180.0
 51
270.0
  0
LINE
  5
3B0
  8
0
 10
95.0
 20
142.124719
 30
0.0
 11
95.0
 21
132.028246
 31
0.0
  0
LINE
  5
3B1
  8
0
 10
86.5
 20
142.57824600000001
 30
0.0
 11
86.5
 21
132.428246
 31
0.0
  0
LINE
  5
3B2
  8
0
 10
103.05
 20
143.028246
 30
0.0
 11
86.950000000000003
 21
143.028246
 31
0.0
  0
LINE
  5
3B3
  8
0
 10
86.950000000000003
 20
143.028246
 30
0.0
 11
86.5
 21
142.57824600000001
 31
0.0
  0
LINE
  5
3B4
  8
0
 10
103.5
 20
142.57824600000001
 30
0.0
 11
103.05
 21
143.028246
 31
0.0
  0
ARC
  5
3B5
  8
0
 10
90.750000000000014
 20
132.58093099999999
 30
0.0
 40
10.447315
 50
65.995832000000064
 51
114.00416799999989
  0
ARC
  5
3B6
  8
0
 10
99.25
 20
132.58093099999999
 30
0.0
 40
10.447315
 50
65.995832000000064
 51
114.00416799999989
  0
LINE
  5
3B7
  8
0
 10
95.0
 20
142.124719
 30
0.0
 11
95.0
 21
137.93177299999999
 31
0.0
  0
ARC
  5
3B8
  8
0
 10
86.099999999999994
 20
132.428246
 30
0.0
 40
0.4
 50
270.0
 51
0.0
  0
LINE
  5
3B9
  8
0
 10
84.500000000000014
 20
132.028246
 30
0.0
 11
105.5
 21
132.028246
 31
0.0
  0
LINE
  5
3BA
  8
0
 10
84.500000000000014
 20
132.028246
 30
0.0
 11
84.0
 21
131.528246
 31
0.0
  0
LINE
  5
3BB
  8
0
 10
84.0
 20
131.528246
 30
0.0
 11
84.0
 21
129.928246
 31
0.0
  0
LINE
  5
3BC
  8
0
 10
105.5
 20
132.028246
 30
0.0
 11
106.0
 21
131.528246
 31
0.0
  0
LINE
  5
3BE
  8
0
 10
106.0
 20
129.928246
 30
0.0
 11
84.0
 21
129.928246
 31
0.0
  0
ARC
  5
3BF
  8
0
 10
95.0
 20
152.37818999999999
 30
0.0
 40
25.0
 50
293.77614555965363
 51
296.10388099999989
  0
ARC
  5
3C0
  8
0
 10
95.0
 20
152.37818999999999
 30
0.0
 40
25.0
 50
243.89611900000011
 51
246.22385444034629
  0
LINE
  5
3C1
  8
0
 10
106.0
 20
131.528246
 30
0.0
 11
106.0
 21
129.928246
 31
0.0
  0
LINE
  5
3C3
  8
2
 10
89.0
 20
127.95312699999999
 30
0.0
 11
101.0
 21
127.95312699999999
 31
0.0
  0
LINE
  5
3C4
  8
2
 10
89.0
 20
126.5
 30
0.0
 11
101.0
 21
126.5
 31
0.0
  0
LINE
  5
3C5
  8
2
 10
89.0
 20
126.5
 30
0.0
 11
88.499999999999986
 21
126.0
 31
0.0
  0
LINE
  5
3C6
  8
2
 10
89.0
 20
126.5
 30
0.0
 11
89.0
 21
127.95312699999999
 31
0.0
  0
LINE
  5
3C7
  8
2
 10
84.749999999999986
 20
129.5
 30
0.0
 11
89.0
 21
127.95312699999999
 31
0.0
  0
LINE
  5
3C8
  8
2
 10
101.0
 20
126.5
 30
0.0
 11
101.5
 21
126.0
 31
0.0
  0
LINE
  5
3C9
  8
2
 10
105.25
 20
129.5
 30
0.0
 11
101.0
 21
127.95312699999999
 31
0.0
  0
LINE
  5
3CA
  8
2
 10
101.0
 20
126.5
 30
0.0
 11
101.0
 21
127.95312699999999
 31
0.0
  0
LINE
  5
3CB
  8
0
 10
84.0
 20
129.0
 30
0.0
 11
84.500000000000014
 21
129.5
 31
0.0
  0
LINE
  5
3CC
  8
0
 10
84.500000000000014
 20
126.0
 30
0.0
 11
84.0
 21
126.5
 31
0.0
  0
LINE
  5
3CD
  8
0
 10
106.0
 20
129.0
 30
0.0
 11
105.5
 21
129.5
 31
0.0
  0
LINE
  5
3CE
  8
0
 10
105.5
 20
126.0
 30
0.0
 11
106.0
 21
126.5
 31
0.0
  0
LINE
  5
3CF
  8
0
 10
84.0
 20
126.5
 30
0.0
 11
84.0
 21
129.0
 31
0.0
  0
LINE
  5
3D1
  8
0
 10
106.0
 20
129.0
 30
0.0
 11
106.0
 21
126.5
 31
0.0
  0
LINE
  5
3D2
  8
0
 10
84.500000000000014
 20
129.5
 30
0.0
 11
105.5
 21
129.5
 31
0.0
  0
LINE
  5
3D4
  8
0
 10
288.5
 20
142.57824600000001
 30
0.0
 11
288.5
 21
132.428246
 31
0.0
  0
ARC
  5
3D5
  8
0
 10
288.89999999999998
 20
132.428246
 30
0.0
 40
0.4
 50
180.0
 51
270.0
  0
LINE
  5
3D7
  8
0
 10
271.5
 20
142.57824600000001
 30
0.0
 11
271.5
 21
132.428246
 31
0.0
  0
LINE
  5
3D8
  8
0
 10
288.05000000000001
 20
143.028246
 30
0.0
 11
285.0
 21
143.028246
 31
0.0
  0
LINE
  5
3D9
  8
0
 10
271.94999999999999
 20
143.028246
 30
0.0
 11
271.5
 21
142.57824600000001
 31
0.0
  0
LINE
  5
3DA
  8
0
 10
288.5
 20
142.57824600000001
 30
0.0
 11
288.05000000000001
 21
143.028246
 31
0.0
  0
ARC
  5
3DB
  8
0
 10
275.75
 20
132.58093099999999
 30
0.0
 40
10.447315
 50
94.116735318734015
 51
114.0041679999992
  0
ARC
  5
3DC
  8
0
 10
284.25
 20
132.58093099999999
 30
0.0
 40
10.447315
 50
65.995832000000817
 51
85.883264681265985
  0
ARC
  5
3DE
  8
0
 10
271.10000000000002
 20
132.428246
 30
0.0
 40
0.4
 50
270.0
 51
0.0
  0
LINE
  5
3DF
  8
0
 10
269.5
 20
132.028246
 30
0.0
 11
275.0
 21
132.028246
 31
0.0
  0
LINE
  5
3E0
  8
0
 10
269.5
 20
132.028246
 30
0.0
 11
269.0
 21
131.528246
 31
0.0
  0
LINE
  5
3E1
  8
0
 10
269.0
 20
131.528246
 30
0.0
 11
269.0
 21
129.928246
 31
0.0
  0
LINE
  5
3E2
  8
0
 10
290.5
 20
132.028246
 30
0.0
 11
291.0
 21
131.528246
 31
0.0
  0
LINE
  5
3E4
  8
0
 10
291.0
 20
129.928246
 30
0.0
 11
285.0
 21
129.928246
 31
0.0
  0
ARC
  5
3E5
  8
0
 10
280.0
 20
152.37818999999999
 30
0.0
 40
25.0
 50
293.77614555965363
 51
296.10388099999932
  0
ARC
  5
3E6
  8
0
 10
280.0
 20
152.37818999999999
 30
0.0
 40
25.0
 50
243.89611900000079
 51
246.22385444034629
  0
LINE
  5
3E7
  8
0
 10
291.0
 20
131.528246
 30
0.0
 11
291.0
 21
129.928246
 31
0.0
  0
LINE
  5
3F1
  8
0
 10
269.0
 20
129.0
 30
0.0
 11
269.5
 21
129.5
 31
0.0
  0
LINE
  5
3F2
  8
0
 10
269.5
 20
126.0
 30
0.0
 11
269.0
 21
126.5
 31
0.0
  0
LINE
  5
3F3
  8
0
 10
291.0
 20
129.0
 30
0.0
 11
290.5
 21
129.5
 31
0.0
  0
LINE
  5
3F4
  8
0
 10
290.5
 20
126.0
 30
0.0
 11
291.0
 21
126.5
 31
0.0
  0
LINE
  5
3F5
  8
0
 10
269.0
 20
126.5
 30
0.0
 11
269.0
 21
129.0
 31
0.0
  0
LINE
  5
3F7
  8
0
 10
291.0
 20
129.0
 30
0.0
 11
291.0
 21
126.5
 31
0.0
  0
LINE
  5
3F8
  8
0
 10
269.5
 20
129.5
 30
0.0
 11
275.0
 21
129.5
 31
0.0
  0
LINE
  5
3F9
  8
0
 10
100.0
 20
85.0
 30
0.0
 11
100.0
 21
66.5
 31
0.0
  0
LINE
  5
3FA
  8
3
 10
99.25
 20
85.0
 30
0.0
 11
99.25
 21
65.75
 31
0.0
  0
LINE
  5
3FB
  8
3
 10
90.750000000000014
 20
85.0
 30
0.0
 11
90.750000000000014
 21
65.75
 31
0.0
  0
LINE
  5
3FC
  8
0
 10
90.0
 20
91.0
 30
0.0
 11
90.0
 21
110.0
 31
0.0
  0
LINE
  5
3FD
  8
0
 10
100.0
 20
110.0
 30
0.0
 11
100.0
 21
91.0
 31
0.0
  0
LINE
  5
3FE
  8
0
 10
90.0
 20
143.028246
 30
0.0
 11
90.0
 21
163.5
 31
0.0
  0
LINE
  5
44C
  8
0
 10
195.0
 20
110.0
 30
0.0
 11
195.0
 21
91.0
 31
0.0
  0
LINE
  5
44D
  8
0
 10
185.0
 20
143.028246
 30
0.0
 11
185.0
 21
163.5
 31
0.0
  0
LINE
  5
44E
  8
0
 10
195.0
 20
85.0
 30
0.0
 11
195.0
 21
66.5
 31
0.0
  0
LINE
  5
44F
  8
3
 10
194.25
 20
85.0
 30
0.0
 11
194.25
 21
65.75
 31
0.0
  0
LINE
  5
450
  8
0
 10
185.0
 20
91.0
 30
0.0
 11
185.0
 21
110.0
 31
0.0
  0
LINE
  5
451
  8
3
 10
185.75
 20
85.0
 30
0.0
 11
185.75
 21
65.75
 31
0.0
  0
LINE
  5
459
  8
0
 10
230.0
 20
110.0
 30
0.0
 11
230.0
 21
97.576377000000008
 31
0.0
  0
LINE
  5
45A
  8
3
 10
229.25
 20
110.0
 30
0.0
 11
229.25
 21
97.143365000000017
 31
0.0
  0
LINE
  5
45C
  8
3
 10
220.75
 20
110.0
 30
0.0
 11
220.75
 21
97.143365000000017
 31
0.0
  0
LINE
  5
45D
  8
0
 10
220.0
 20
126.0
 30
0.0
 11
220.0
 21
147.07637700000001
 31
0.0
  0
LINE
  5
45E
  8
0
 10
105.0
 20
85.5
 30
0.0
 11
105.0
 21
89.500000000000014
 31
0.0
  0
LINE
  5
45F
  8
0
 10
102.5
 20
92.0
 30
0.0
 11
102.5
 21
95.5
 31
0.0
  0
LINE
  5
460
  8
0
 10
102.0
 20
96.0
 30
0.0
 11
100.0
 21
96.0
 31
0.0
  0
LINE
  5
461
  8
0
 10
85.5
 20
85.0
 30
0.0
 11
104.5
 21
85.0
 31
0.0
  0
LINE
  5
462
  8
0
 10
104.5
 20
85.0
 30
0.0
 11
105.0
 21
85.5
 31
0.0
  0
LINE
  5
463
  8
0
 10
105.0
 20
89.500000000000014
 30
0.0
 11
104.5
 21
90.0
 31
0.0
  0
LINE
  5
464
  8
0
 10
102.5
 20
95.5
 30
0.0
 11
102.0
 21
96.0
 31
0.0
  0
ARC
  5
465
  8
0
 10
104.5
 20
92.0
 30
0.0
 40
2.0
 50
180.0
 51
210.0
  0
ARC
  5
466
  8
0
 10
85.5
 20
92.0
 30
0.0
 40
2.0
 50
270.0
 51
299.99999999999989
  0
LINE
  5
467
  8
0
 10
87.5
 20
92.0
 30
0.0
 11
87.5
 21
95.5
 31
0.0
  0
LINE
  5
468
  8
0
 10
87.5
 20
95.5
 30
0.0
 11
88.0
 21
96.0
 31
0.0
  0
LINE
  5
469
  8
0
 10
85.0
 20
89.500000000000014
 30
0.0
 11
85.5
 21
90.0
 31
0.0
  0
LINE
  5
46A
  8
0
 10
85.0
 20
85.5
 30
0.0
 11
85.0
 21
89.500000000000014
 31
0.0
  0
LINE
  5
46B
  8
0
 10
85.5
 20
85.0
 30
0.0
 11
85.0
 21
85.5
 31
0.0
  0
LINE
  5
46C
  8
0
 10
104.5
 20
90.0
 30
0.0
 11
103.5
 21
90.0
 31
0.0
  0
LINE
  5
46D
  8
0
 10
90.0
 20
96.0
 30
0.0
 11
88.0
 21
96.0
 31
0.0
  0
LINE
  5
46E
  8
0
 10
86.5
 20
90.0
 30
0.0
 11
85.5
 21
90.0
 31
0.0
  0
ARC
  5
46F
  8
0
 10
85.5
 20
92.0
 30
0.0
 40
2.0
 50
330.00000000000011
 51
0.0
  0
ARC
  5
470
  8
0
 10
104.5
 20
92.0
 30
0.0
 40
2.0
 50
240.0000000000004
 51
270.0
  0
LINE
  5
4B7
  8
0
 10
275.0
 20
126.0
 30
0.0
 11
275.0
 21
163.5
 31
0.0
  0
LINE
  5
4B8
  8
0
 10
275.0
 20
126.0
 30
0.0
 11
275.0
 21
147.07637700000001
 31
0.0
  0
LINE
  5
4B9
  8
0
 10
285.0
 20
110.0
 30
0.0
 11
285.0
 21
96.0
 31
0.0
  0
LINE
  5
4BC
  8
0
 10
285.0
 20
85.0
 30
0.0
 11
285.0
 21
66.5
 31
0.0
  0
LINE
  5
4BD
  8
3
 10
284.25
 20
85.0
 30
0.0
 11
284.25
 21
65.75
 31
0.0
  0
LINE
  5
4BE
  8
3
 10
275.75
 20
85.0
 30
0.0
 11
275.75
 21
65.75
 31
0.0
  0
LINE
  5
4BF
  8
0
 10
275.0
 20
96.0
 30
0.0
 11
275.0
 21
110.0
 31
0.0
  0
LINE
  5
4C0
  8
0
 10
271.75
 20
91.0
 30
0.0
 11
272.2320508075689
 21
91.0
 31
0.0
  0
LINE
  5
4C1
  8
0
 10
270.185045
 20
90.096473000000003
 30
0.0
 11
270.185045
 21
89.685044999999988
 31
0.0
  0
LINE
  5
4C2
  8
0
 10
270.185045
 20
90.096473000000003
 30
0.0
 11
271.75
 21
91.0
 31
0.0
  0
ARC
  5
4C3
  8
0
 10
272.63878399999999
 20
86.510763999999995
 30
0.0
 40
4.344898999999999
 50
96.884541325763806
 51
115.6157529999999
  0
LINE
  5
4C4
  8
0
 10
288.25
 20
91.0
 30
0.0
 11
287.7679491924311
 21
91.0
 31
0.0
  0
LINE
  5
4C5
  8
0
 10
289.814955
 20
90.096473000000003
 30
0.0
 11
289.814955
 21
89.685044999999988
 31
0.0
  0
LINE
  5
4C6
  8
0
 10
289.814955
 20
90.096473000000003
 30
0.0
 11
288.25
 21
91.0
 31
0.0
  0
ARC
  5
4C7
  8
0
 10
287.36121600000001
 20
86.510763999999995
 30
0.0
 40
4.344898999999999
 50
64.384247000000045
 51
83.115458674239278
  0
LINE
  5
4CA
  8
0
 10
285.0
 20
129.5
 30
0.0
 11
290.5
 21
129.5
 31
0.0
  0
LINE
  5
4CB
  8
0
 10
275.0
 20
129.928246
 30
0.0
 11
269.0
 21
129.928246
 31
0.0
  0
LINE
  5
4CC
  8
0
 10
285.0
 20
132.028246
 30
0.0
 11
290.5
 21
132.028246
 31
0.0
  0
LINE
  5
4CD
  8
0
 10
275.0
 20
143.02824599999991
 30
0.0
 11
271.94999999999999
 21
143.028246
 31
0.0
  0
LINE
  5
4CE
  8
0
 10
285.0
 20
147.07637700000001
 30
0.0
 11
275.0
 21
147.07637700000001
 31
0.0
  0
LINE
  5
4CF
  8
0
 10
276.5
 20
148.57637700000001
 30
0.0
 11
275.0
 21
147.07637700000001
 31
0.0
  0
LINE
  5
4D0
  8
0
 10
285.0
 20
147.07637700000001
 30
0.0
 11
283.5
 21
148.57637700000001
 31
0.0
  0
LINE
  5
4D1
  8
0
 10
276.5
 20
148.57637700000001
 30
0.0
 11
283.5
 21
148.57637700000001
 31
0.0
  0
TEXT
  5
5BE
  8
0
 62
     3
 10
0.0
 20
0.0
 30
0.0
 40
10.0
  1
BJ153-10100B1
  7
STANDARD1
  0
ENDSEC
  0
EOF
