  0
SECTION
  2
HEADER
  9
$ACADVER
  1
AC1009
  9
$INSBASE
 10
82.638099999999994
 20
103.82319099999999
 30
0.0
  9
$EXTMIN
 10
0.0
 20
-2.960436562073669
 30
0.0
  9
$EXTMAX
 10
317.5
 20
244.94941631236779
 30
0.0
  9
$LIMMIN
 10
0.0
 20
0.0
  9
$LIMMAX
 10
375.0
 20
270.0
  9
$ORTHOMODE
 70
     1
  9
$REGENMODE
 70
     1
  9
$FILLMODE
 70
     1
  9
$QTEXTMODE
 70
     0
  9
$MIRRTEXT
 70
     0
  9
$DRAGMODE
 70
     2
  9
$LTSCALE
 40
10.0
  9
$OSMODE
 70
  3071
  9
$ATTMODE
 70
     1
  9
$TEXTSIZE
 40
0.06
  9
$TRACEWID
 40
0.05
  9
$TEXTSTYLE
  7
STANDARD
  9
$CLAYER
  8
0
  9
$CELTYPE
  6
BYLAYER
  9
$CECOLOR
 62
   256
  9
$DIMSCALE
 40
1.0
  9
$DIMASZ
 40
3.0
  9
$DIMEXO
 40
2.0
  9
$DIMDLI
 40
10.0
  9
$DIMRND
 40
0.0
  9
$DIMDLE
 40
0.0
  9
$DIMEXE
 40
2.0
  9
$DIMTP
 40
0.0
  9
$DIMTM
 40
0.0
  9
$DIMTXT
 40
3.0
  9
$DIMCEN
 40
0.0
  9
$DIMTSZ
 40
0.0
  9
$DIMTOL
 70
     0
  9
$DIMLIM
 70
     0
  9
$DIMTIH
 70
     0
  9
$DIMTOH
 70
     0
  9
$DIMSE1
 70
     0
  9
$DIMSE2
 70
     0
  9
$DIMTAD
 70
     1
  9
$DIMZIN
 70
     0
  9
$DIMBLK
  1

  9
$DIMASO
 70
     0
  9
$DIMSHO
 70
     0
  9
$DIMPOST
  1

  9
$DIMAPOST
  1

  9
$DIMALT
 70
     0
  9
$DIMALTD
 70
     2
  9
$DIMALTF
 40
25.399999999999999
  9
$DIMLFAC
 40
1.0
  9
$DIMTOFL
 70
     1
  9
$DIMTVP
 40
1.6000000000000001
  9
$DIMTIX
 70
     1
  9
$DIMSOXD
 70
     0
  9
$DIMSAH
 70
     0
  9
$DIMBLK1
  1

  9
$DIMBLK2
  1

  9
$DIMSTYLE
  2
STANDARD
  9
$DIMCLRD
 70
     0
  9
$DIMCLRE
 70
     0
  9
$DIMCLRT
 70
     0
  9
$DIMTFAC
 40
1.0
  9
$DIMGAP
 40
0.09
  9
$LUNITS
 70
     2
  9
$LUPREC
 70
     4
  9
$SKETCHINC
 40
0.1
  9
$FILLETRAD
 40
0.0
  9
$AUNITS
 70
     0
  9
$AUPREC
 70
     4
  9
$MENU
  1
E:\r13\win\SUPPORT\ACAD
  9
$ELEVATION
 40
0.0
  9
$PELEVATION
 40
0.0
  9
$THICKNESS
 40
0.0
  9
$LIMCHECK
 70
     0
  9
$BLIPMODE
 70
     0
  9
$CHAMFERA
 40
0.0
  9
$CHAMFERB
 40
0.0
  9
$SKPOLY
 70
     0
  9
$TDCREATE
 40
2449840.3469675919
  9
$TDUPDATE
 40
2456597.636063912
  9
$TDINDWG
 40
0.0115805671
  9
$TDUSRTIMER
 40
0.0115805671
  9
$USRTIMER
 70
     1
  9
$ANGBASE
 50
0.0
  9
$ANGDIR
 70
     0
  9
$PDMODE
 70
     1
  9
$PDSIZE
 40
0.0
  9
$PLINEWID
 40
0.0
  9
$COORDS
 70
     1
  9
$SPLFRAME
 70
     0
  9
$SPLINETYPE
 70
     6
  9
$SPLINESEGS
 70
     8
  9
$ATTDIA
 70
     0
  9
$ATTREQ
 70
     1
  9
$HANDLING
 70
     1
  9
$HANDSEED
  5
636
  9
$SURFTAB1
 70
     6
  9
$SURFTAB2
 70
     6
  9
$SURFTYPE
 70
     6
  9
$SURFU
 70
     6
  9
$SURFV
 70
     6
  9
$UCSNAME
  2

  9
$UCSORG
 10
0.0
 20
0.0
 30
0.0
  9
$UCSXDIR
 10
1.0
 20
0.0
 30
0.0
  9
$UCSYDIR
 10
0.0
 20
1.0
 30
0.0
  9
$PUCSNAME
  2

  9
$PUCSORG
 10
0.0
 20
0.0
 30
0.0
  9
$PUCSXDIR
 10
1.0
 20
0.0
 30
0.0
  9
$PUCSYDIR
 10
0.0
 20
1.0
 30
0.0
  9
$USERI1
 70
     3
  9
$USERI2
 70
     1
  9
$USERI3
 70
     0
  9
$USERI4
 70
     0
  9
$USERI5
 70
     0
  9
$USERR1
 40
1.0
  9
$USERR2
 40
3.0
  9
$USERR3
 40
3.0
  9
$USERR4
 40
3.0
  9
$USERR5
 40
10.0
  9
$WORLDVIEW
 70
     1
  9
$SHADEDGE
 70
     3
  9
$SHADEDIF
 70
    70
  9
$TILEMODE
 70
     1
  9
$MAXACTVP
 70
    16
  9
$PLIMCHECK
 70
     0
  9
$PEXTMIN
 10
1.0000000000000000E+020
 20
1.0000000000000000E+020
 30
1.0000000000000000E+020
  9
$PEXTMAX
 10
-1.0000000000000000E+020
 20
-1.0000000000000000E+020
 30
-1.0000000000000000E+020
  9
$PLIMMIN
 10
0.0
 20
0.0
  9
$PLIMMAX
 10
12.0
 20
9.0
  9
$UNITMODE
 70
     0
  9
$VISRETAIN
 70
     0
  9
$PLINEGEN
 70
     0
  9
$PSLTSCALE
 70
     0
  0
ENDSEC
  0
SECTION
  2
TABLES
  0
TABLE
  2
VPORT
 70
     1
  0
VPORT
  2
*ACTIVE
 70
     0
 10
0.0
 20
0.0
 11
1.0
 21
1.0
 12
195.0581083320873
 22
133.5127261426681
 13
0.0
 23
0.0
 14
5.0
 24
5.0
 15
10.0
 25
10.0
 16
0.0
 26
0.0
 36
1.0
 17
0.0
 27
0.0
 37
0.0
 40
275.42274993631997
 41
1.831871345029239
 42
50.0
 43
0.0
 44
0.0
 50
0.0
 51
0.0
 71
     0
 72
   100
 73
     1
 74
     0
 75
     0
 76
     0
 77
     0
 78
     1
  0
ENDTAB
  0
TABLE
  2
LTYPE
 70
     4
  0
LTYPE
  2
CONTINUOUS
 70
     0
  3
Solid Line
 72
    65
 73
     0
 40
0.0
  0
LTYPE
  2
CENTER
 70
     0
  3
____ _ ____ _ ____ _ ____ _ ____ _ ____ _ ____
 72
    65
 73
     4
 40
2.0
 49
1.25
 49
-0.25
 49
0.25
 49
-0.25
  0
LTYPE
  2
HIDDEN
 70
     0
  3
__ __ __ __ __ __ __ __ __ __ __ __ __ __ __ __
 72
    65
 73
     2
 40
0.375
 49
0.25
 49
-0.125
  0
LTYPE
  2
PHANTOM2
 70
     0
  3
___ _ _ ___ _ _ ___ _ _ ___ _ _
 72
    65
 73
     6
 40
1.25
 49
0.625
 49
-0.125
 49
0.125
 49
-0.125
 49
0.125
 49
-0.125
  0
ENDTAB
  0
TABLE
  2
LAYER
 70
     4
  0
LAYER
  2
0
 70
     0
 62
     7
  6
CONTINUOUS
  0
LAYER
  2
1
 70
     0
 62
     1
  6
CENTER
  0
LAYER
  2
2
 70
     0
 62
     2
  6
HIDDEN
  0
LAYER
  2
3
 70
     0
 62
     3
  6
CONTINUOUS
  0
ENDTAB
  0
TABLE
  2
STYLE
 70
     2
  0
STYLE
  2
STANDARD
 70
     0
 40
0.0
 41
1.0
 50
0.0
 71
     0
 42
0.06
  3
TXT
  4
BIGFONT
  0
STYLE
  2
STANDARD1
 70
     0
 40
0.0
 41
1.0
 50
0.0
 71
     0
 42
3.0
  3
txt
  4

  0
ENDTAB
  0
TABLE
  2
VIEW
 70
     0
  0
ENDTAB
  0
TABLE
  2
UCS
 70
     0
  0
ENDTAB
  0
TABLE
  2
APPID
 70
     4
  0
APPID
  2
ACAD
 70
     0
  0
APPID
  2
ACAD_EXEMPT_FROM_CAD_STANDARDS
 70
     0
  0
APPID
  2
ACAD_MLEADERVER
 70
     0
  0
APPID
  2
ACAD_NAV_VCDISPLAY
 70
     0
  0
ENDTAB
  0
TABLE
  2
DIMSTYLE
 70
     1
  0
DIMSTYLE
  2
STANDARD
 70
     0
  3

  4

  5

  6

  7

 40
1.0
 41
0.18
 42
0.0625
 43
0.38
 44
0.18
 45
0.0
 46
0.0
 47
0.0
 48
0.0
140
0.18
141
0.09
142
0.0
143
25.399999999999999
144
1.0
145
0.0
146
1.0
147
0.09
 71
     0
 72
     0
 73
     1
 74
     1
 75
     0
 76
     0
 77
     0
 78
     0
170
     0
171
     2
172
     0
173
     0
174
     0
175
     0
176
     0
177
     0
178
     0
  0
ENDTAB
  0
ENDSEC
  0
SECTION
  2
BLOCKS
  0
BLOCK
  8
0
  2
$MODEL_SPACE
 70
     0
 10
0.0
 20
0.0
 30
0.0
  3
$MODEL_SPACE
  1

  0
ENDBLK
  5
211
  8
0
  0
BLOCK
 67
     1
  8
0
  2
$PAPER_SPACE
 70
     0
 10
0.0
 20
0.0
 30
0.0
  3
$PAPER_SPACE
  1

  0
ENDBLK
  5
20F
 67
     1
  8
0
  0
ENDSEC
  0
SECTION
  2
ENTITIES
  0
LINE
  5
27F
  8
0
 10
143.554137
 20
141.0
 30
0.0
 11
143.554137
 21
125.00060000000001
 31
0.0
  0
LINE
  5
280
  8
2
 10
245.0
 20
130.0
 30
0.0
 11
245.0
 21
141.0
 31
0.0
  0
LINE
  5
281
  8
2
 10
245.81200000000001
 20
130.0
 30
0.0
 11
245.81200000000001
 21
141.0
 31
0.0
  0
LINE
  5
282
  8
2
 10
254.18799999999999
 20
130.0
 30
0.0
 11
254.18799999999999
 21
141.0
 31
0.0
  0
LINE
  5
283
  8
2
 10
255.0
 20
130.0
 30
0.0
 11
255.0
 21
141.0
 31
0.0
  0
LINE
  5
284
  8
2
 10
259.0
 20
130.0
 30
0.0
 11
200.0
 21
130.0
 31
0.0
  0
LINE
  5
285
  8
0
 10
136.0
 20
125.0
 30
0.0
 11
135.0
 21
126.0
 31
0.0
  0
LINE
  5
286
  8
0
 10
260.0
 20
126.0
 30
0.0
 11
259.0
 21
125.0
 31
0.0
  0
LINE
  5
287
  8
0
 10
259.0
 20
141.0
 30
0.0
 11
260.0
 21
140.0
 31
0.0
  0
LINE
  5
288
  8
0
 10
135.0
 20
138.0
 30
0.0
 11
140.19615200000001
 21
141.0
 31
0.0
  0
LINE
  5
289
  8
2
 10
144.5
 20
125.0
 30
0.0
 11
144.5
 21
141.0
 31
0.0
  0
LINE
  5
28A
  8
2
 10
205.5
 20
130.0
 30
0.0
 11
205.5
 21
141.0
 31
0.0
  0
LINE
  5
28B
  8
1
 10
150.0
 20
120.0
 30
0.0
 11
150.0
 21
146.0
 31
0.0
  0
LINE
  5
28E
  8
0
 10
260.0
 20
140.0
 30
0.0
 11
260.0
 21
126.0
 31
0.0
  0
LINE
  5
28F
  8
0
 10
140.19615200000001
 20
141.0
 30
0.0
 11
259.0
 21
141.0
 31
0.0
  0
LINE
  5
290
  8
0
 10
135.0
 20
126.0
 30
0.0
 11
135.0
 21
138.0
 31
0.0
  0
LINE
  5
291
  8
0
 10
259.0
 20
125.0
 30
0.0
 11
136.0
 21
125.0
 31
0.0
  0
LINE
  5
294
  8
1
 10
95.0
 20
187.5
 30
0.0
 11
95.0
 21
47.5
 31
0.0
  0
LINE
  5
296
  8
0
 10
90.0
 20
178.5
 30
0.0
 11
100.0
 21
178.5
 31
0.0
  0
LINE
  5
297
  8
3
 10
90.0
 20
122.5
 30
0.0
 11
90.0
 21
121.200962
 31
0.0
  0
LINE
  5
298
  8
3
 10
90.750000000000014
 20
158.028246
 30
0.0
 11
90.750000000000014
 21
179.25
 31
0.0
  0
LINE
  5
299
  8
3
 10
99.250000000000014
 20
158.028246
 30
0.0
 11
99.25
 21
179.25
 31
0.0
  0
LINE
  5
29A
  8
3
 10
99.25
 20
95.0
 30
0.0
 11
100.0
 21
96.29903800000001
 31
0.0
  0
LINE
  5
29B
  8
3
 10
99.25
 20
95.0
 30
0.0
 11
99.25
 21
81.0
 31
0.0
  0
LINE
  5
29C
  8
3
 10
90.750000000000014
 20
95.0
 30
0.0
 11
90.0
 21
96.29903800000001
 31
0.0
  0
LINE
  5
29D
  8
0
 10
90.0
 20
56.5
 30
0.0
 11
100.0
 21
56.5
 31
0.0
  0
LINE
  5
29E
  8
3
 10
90.750000000000014
 20
95.0
 30
0.0
 11
90.750000000000014
 21
81.0
 31
0.0
  0
LINE
  5
29F
  8
0
 10
100.0
 20
95.0
 30
0.0
 11
90.0
 21
95.0
 31
0.0
  0
LINE
  5
2A0
  8
0
 10
98.500000000000014
 20
180.0
 30
0.0
 11
100.0
 21
178.5
 31
0.0
  0
LINE
  5
2A1
  8
0
 10
90.0
 20
178.5
 30
0.0
 11
91.5
 21
180.0
 31
0.0
  0
LINE
  5
2A2
  8
0
 10
91.5
 20
55.0
 30
0.0
 11
90.0
 21
56.5
 31
0.0
  0
LINE
  5
2A3
  8
0
 10
98.500000000000014
 20
55.0
 30
0.0
 11
100.0
 21
56.5
 31
0.0
  0
LINE
  5
2A4
  8
0
 10
100.0
 20
178.5
 30
0.0
 11
100.0
 21
158.028246
 31
0.0
  0
LINE
  5
2A5
  8
0
 10
91.5
 20
180.0
 30
0.0
 11
98.500000000000014
 21
180.0
 31
0.0
  0
LINE
  5
2A6
  8
0
 10
90.0
 20
56.5
 30
0.0
 11
90.0
 21
75.0
 31
0.0
  0
LINE
  5
2A7
  8
0
 10
98.500000000000014
 20
55.0
 30
0.0
 11
91.5
 21
55.0
 31
0.0
  0
LINE
  5
2A8
  8
0
 10
295.5
 20
80.0
 30
0.0
 11
314.5
 21
80.0
 31
0.0
  0
LINE
  5
2A9
  8
0
 10
295.5
 20
75.0
 30
0.0
 11
314.5
 21
75.0
 31
0.0
  0
LINE
  5
2AA
  8
0
 10
312.0
 20
86.0
 30
0.0
 11
298.0
 21
86.0
 31
0.0
  0
LINE
  5
2AB
  8
0
 10
297.5
 20
85.5
 30
0.0
 11
297.5
 21
82.0
 31
0.0
  0
LINE
  5
2AC
  8
0
 10
295.5
 20
80.0
 30
0.0
 11
295.5
 21
80.0
 31
0.0
  0
LINE
  5
2AD
  8
0
 10
295.0
 20
79.5
 30
0.0
 11
295.0
 21
75.5
 31
0.0
  0
LINE
  5
2AE
  8
0
 10
295.5
 20
75.0
 30
0.0
 11
295.0
 21
75.5
 31
0.0
  0
LINE
  5
2AF
  8
0
 10
295.0
 20
79.5
 30
0.0
 11
295.5
 21
80.0
 31
0.0
  0
LINE
  5
2B0
  8
0
 10
297.5
 20
85.5
 30
0.0
 11
298.0
 21
86.0
 31
0.0
  0
ARC
  5
2B1
  8
0
 10
295.5
 20
82.0
 30
0.0
 40
2.0
 50
270.0
 51
0.0
  0
ARC
  5
2B2
  8
0
 10
314.5
 20
82.0
 30
0.0
 40
2.0
 50
180.0
 51
270.0
  0
LINE
  5
2B3
  8
0
 10
314.5
 20
80.0
 30
0.0
 11
314.5
 21
80.0
 31
0.0
  0
LINE
  5
2B4
  8
0
 10
312.5
 20
85.5
 30
0.0
 11
312.5
 21
82.0
 31
0.0
  0
LINE
  5
2B5
  8
0
 10
312.5
 20
85.5
 30
0.0
 11
312.0
 21
86.0
 31
0.0
  0
LINE
  5
2B6
  8
0
 10
315.0
 20
79.5
 30
0.0
 11
314.5
 21
80.0
 31
0.0
  0
LINE
  5
2B7
  8
0
 10
315.0
 20
79.5
 30
0.0
 11
315.0
 21
75.5
 31
0.0
  0
LINE
  5
2B8
  8
0
 10
314.5
 20
75.0
 30
0.0
 11
315.0
 21
75.5
 31
0.0
  0
LINE
  5
2B9
  8
3
 10
300.81200000000001
 20
177.87833599999999
 30
0.0
 11
300.81200000000001
 21
141.0
 31
0.0
  0
LINE
  5
2BD
  8
0
 10
300.0
 20
177.06633600000001
 30
0.0
 11
300.0
 21
140.99999999999989
 31
0.0
  0
LINE
  5
2BE
  8
3
 10
309.18799999999999
 20
177.87833599999999
 30
0.0
 11
309.18799999999999
 21
141.0
 31
0.0
  0
ARC
  5
2BF
  8
0
 10
301.0
 20
86.527105000000006
 30
0.0
 40
0.4
 50
0.0
 51
59.999999999999858
  0
ARC
  5
2C0
  8
0
 10
309.0
 20
86.527105000000006
 30
0.0
 40
0.4
 50
120.0000000000001
 51
180.0
  0
LINE
  5
2C1
  8
0
 10
308.55000000000001
 20
86.758046000000007
 30
0.0
 11
301.44999999999999
 21
86.758046000000007
 31
0.0
  0
LINE
  5
2C2
  8
0
 10
301.39999999999998
 20
86.527105000000006
 30
0.0
 11
301.39999999999998
 21
86.0
 31
0.0
  0
LINE
  5
2C3
  8
0
 10
308.60000000000002
 20
86.527105000000006
 30
0.0
 11
308.60000000000002
 21
86.0
 31
0.0
  0
LINE
  5
2C4
  8
0
 10
310.0
 20
87.566336000000007
 30
0.0
 11
308.80000000000001
 21
86.873515999999995
 31
0.0
  0
LINE
  5
2C5
  8
0
 10
300.0
 20
87.566336000000007
 30
0.0
 11
301.19999999999999
 21
86.873515999999995
 31
0.0
  0
LINE
  5
2C6
  8
0
 10
310.0
 20
177.06633600000001
 30
0.0
 11
300.0
 21
177.06633600000001
 31
0.0
  0
LINE
  5
2C7
  8
0
 10
308.5
 20
178.56633600000001
 30
0.0
 11
310.0
 21
177.06633600000001
 31
0.0
  0
LINE
  5
2C8
  8
0
 10
301.5
 20
178.56633600000001
 30
0.0
 11
300.0
 21
177.06633600000001
 31
0.0
  0
LINE
  5
2CA
  8
0
 10
300.0
 20
87.566336000000007
 30
0.0
 11
310.0
 21
87.566336000000007
 31
0.0
  0
LINE
  5
2CB
  8
0
 10
308.5
 20
178.56633600000001
 30
0.0
 11
301.5
 21
178.56633600000001
 31
0.0
  0
LINE
  5
2CE
  8
1
 10
305.0
 20
187.5
 30
0.0
 11
305.0
 21
47.5
 31
0.0
  0
LINE
  5
2D0
  8
0
 10
300.0
 20
178.5
 30
0.0
 11
301.43366400000002
 21
178.5
 31
0.0
  0
LINE
  5
2D1
  8
3
 10
300.0
 20
122.5
 30
0.0
 11
300.0
 21
121.200962
 31
0.0
  0
LINE
  5
2D2
  8
3
 10
300.75
 20
177.81633599999989
 30
0.0
 11
300.75
 21
179.25
 31
0.0
  0
LINE
  5
2D3
  8
3
 10
309.25
 20
177.81633600000001
 30
0.0
 11
309.25
 21
179.25
 31
0.0
  0
LINE
  5
2D5
  8
3
 10
309.25
 20
87.133323499999989
 30
0.0
 11
309.25
 21
86.0
 31
0.0
  0
LINE
  5
2D7
  8
0
 10
300.0
 20
56.5
 30
0.0
 11
310.0
 21
56.5
 31
0.0
  0
LINE
  5
2D8
  8
3
 10
300.75
 20
87.133323500000003
 30
0.0
 11
300.75
 21
86.0
 31
0.0
  0
LINE
  5
2DA
  8
0
 10
308.5
 20
180.0
 30
0.0
 11
310.0
 21
178.5
 31
0.0
  0
LINE
  5
2DB
  8
0
 10
300.0
 20
178.5
 30
0.0
 11
301.5
 21
180.0
 31
0.0
  0
LINE
  5
2DC
  8
0
 10
301.5
 20
55.0
 30
0.0
 11
300.0
 21
56.5
 31
0.0
  0
LINE
  5
2DD
  8
0
 10
308.5
 20
55.0
 30
0.0
 11
310.0
 21
56.5
 31
0.0
  0
LINE
  5
2DE
  8
0
 10
310.0
 20
178.5
 30
0.0
 11
310.0
 21
141.0
 31
0.0
  0
LINE
  5
2DF
  8
0
 10
301.5
 20
180.0
 30
0.0
 11
308.5
 21
180.0
 31
0.0
  0
LINE
  5
2E0
  8
0
 10
300.0
 20
56.5
 30
0.0
 11
300.0
 21
75.0
 31
0.0
  0
LINE
  5
2E1
  8
0
 10
308.5
 20
55.0
 30
0.0
 11
301.5
 21
55.0
 31
0.0
  0
LINE
  5
2E2
  8
0
 10
240.5
 20
80.0
 30
0.0
 11
259.5
 21
80.0
 31
0.0
  0
LINE
  5
2E3
  8
0
 10
240.5
 20
75.0
 30
0.0
 11
259.5
 21
75.0
 31
0.0
  0
LINE
  5
2E4
  8
0
 10
257.0
 20
86.0
 30
0.0
 11
243.0
 21
86.0
 31
0.0
  0
LINE
  5
2E5
  8
0
 10
242.5
 20
85.5
 30
0.0
 11
242.5
 21
82.0
 31
0.0
  0
LINE
  5
2E6
  8
0
 10
240.5
 20
80.0
 30
0.0
 11
240.5
 21
80.0
 31
0.0
  0
LINE
  5
2E7
  8
0
 10
240.0
 20
79.5
 30
0.0
 11
240.0
 21
75.5
 31
0.0
  0
LINE
  5
2E8
  8
0
 10
240.5
 20
75.0
 30
0.0
 11
240.0
 21
75.5
 31
0.0
  0
LINE
  5
2E9
  8
0
 10
240.0
 20
79.5
 30
0.0
 11
240.5
 21
80.0
 31
0.0
  0
LINE
  5
2EA
  8
0
 10
242.5
 20
85.5
 30
0.0
 11
243.0
 21
86.0
 31
0.0
  0
ARC
  5
2EB
  8
0
 10
240.5
 20
82.0
 30
0.0
 40
2.0
 50
270.0
 51
0.0
  0
ARC
  5
2EC
  8
0
 10
259.5
 20
82.0
 30
0.0
 40
2.0
 50
180.0
 51
270.0
  0
LINE
  5
2ED
  8
0
 10
259.5
 20
80.0
 30
0.0
 11
259.5
 21
80.0
 31
0.0
  0
LINE
  5
2EE
  8
0
 10
257.5
 20
85.5
 30
0.0
 11
257.5
 21
82.0
 31
0.0
  0
LINE
  5
2EF
  8
0
 10
257.5
 20
85.5
 30
0.0
 11
257.0
 21
86.0
 31
0.0
  0
LINE
  5
2F0
  8
0
 10
260.0
 20
79.5
 30
0.0
 11
259.5
 21
80.0
 31
0.0
  0
LINE
  5
2F1
  8
0
 10
260.0
 20
79.5
 30
0.0
 11
260.0
 21
75.5
 31
0.0
  0
LINE
  5
2F2
  8
0
 10
259.5
 20
75.0
 30
0.0
 11
260.0
 21
75.5
 31
0.0
  0
LINE
  5
2F3
  8
3
 10
245.81200000000001
 20
177.87833599999999
 30
0.0
 11
245.81200000000001
 21
141.0
 31
0.0
  0
LINE
  5
2F6
  8
1
 10
250.0
 20
182.56633600000001
 30
0.0
 11
250.0
 21
70.566336000000007
 31
0.0
  0
LINE
  5
2F7
  8
0
 10
245.0
 20
177.06633600000001
 30
0.0
 11
245.0
 21
141.0
 31
0.0
  0
LINE
  5
2F8
  8
3
 10
254.18799999999999
 20
177.87833599999999
 30
0.0
 11
254.18799999999999
 21
141.0
 31
0.0
  0
ARC
  5
2F9
  8
0
 10
246.0
 20
86.527105000000006
 30
0.0
 40
0.4
 50
0.0
 51
59.999999999999858
  0
ARC
  5
2FA
  8
0
 10
254.0
 20
86.527105000000006
 30
0.0
 40
0.4
 50
120.0000000000001
 51
180.0
  0
LINE
  5
2FB
  8
0
 10
253.55000000000001
 20
86.758046000000007
 30
0.0
 11
246.44999999999999
 21
86.758046000000007
 31
0.0
  0
LINE
  5
2FC
  8
0
 10
246.40000000000001
 20
86.527105000000006
 30
0.0
 11
246.40000000000001
 21
86.0
 31
0.0
  0
LINE
  5
2FD
  8
0
 10
253.59999999999999
 20
86.527105000000006
 30
0.0
 11
253.59999999999999
 21
86.0
 31
0.0
  0
LINE
  5
2FE
  8
0
 10
255.0
 20
87.566336000000007
 30
0.0
 11
253.80000000000001
 21
86.873515999999995
 31
0.0
  0
LINE
  5
2FF
  8
0
 10
245.0
 20
87.566336000000007
 30
0.0
 11
246.19999999999999
 21
86.873515999999995
 31
0.0
  0
LINE
  5
300
  8
0
 10
255.0
 20
177.06633600000001
 30
0.0
 11
245.0
 21
177.06633600000001
 31
0.0
  0
LINE
  5
301
  8
0
 10
253.5
 20
178.56633600000001
 30
0.0
 11
255.0
 21
177.06633600000001
 31
0.0
  0
LINE
  5
302
  8
0
 10
246.5
 20
178.56633600000001
 30
0.0
 11
245.0
 21
177.06633600000001
 31
0.0
  0
LINE
  5
303
  8
0
 10
255.0
 20
87.566336000000007
 30
0.0
 11
255.0
 21
125.0
 31
0.0
  0
LINE
  5
304
  8
0
 10
245.0
 20
87.566336000000007
 30
0.0
 11
255.0
 21
87.566336000000007
 31
0.0
  0
LINE
  5
305
  8
0
 10
253.5
 20
178.56633600000001
 30
0.0
 11
246.5
 21
178.56633600000001
 31
0.0
  0
LINE
  5
308
  8
1
 10
200.0
 20
187.5
 30
0.0
 11
200.0
 21
47.5
 31
0.0
  0
LINE
  5
30A
  8
0
 10
195.0
 20
178.5
 30
0.0
 11
205.0
 21
178.5
 31
0.0
  0
LINE
  5
30B
  8
3
 10
195.0
 20
122.5
 30
0.0
 11
195.0
 21
121.200962
 31
0.0
  0
LINE
  5
30C
  8
3
 10
195.75
 20
158.028246
 30
0.0
 11
195.75
 21
179.25
 31
0.0
  0
LINE
  5
30D
  8
3
 10
204.25
 20
158.028246
 30
0.0
 11
204.25
 21
179.25
 31
0.0
  0
LINE
  5
30E
  8
3
 10
204.25
 20
95.0
 30
0.0
 11
205.0
 21
96.29903800000001
 31
0.0
  0
LINE
  5
30F
  8
3
 10
204.25
 20
95.0
 30
0.0
 11
204.25
 21
81.0
 31
0.0
  0
LINE
  5
310
  8
3
 10
195.75
 20
95.0
 30
0.0
 11
195.0
 21
96.29903800000001
 31
0.0
  0
LINE
  5
311
  8
0
 10
195.0
 20
56.5
 30
0.0
 11
205.0
 21
56.5
 31
0.0
  0
LINE
  5
312
  8
3
 10
195.75
 20
95.0
 30
0.0
 11
195.75
 21
81.0
 31
0.0
  0
LINE
  5
313
  8
0
 10
205.0
 20
95.0
 30
0.0
 11
195.0
 21
95.0
 31
0.0
  0
LINE
  5
314
  8
0
 10
203.5
 20
180.0
 30
0.0
 11
205.0
 21
178.5
 31
0.0
  0
LINE
  5
315
  8
0
 10
195.0
 20
178.5
 30
0.0
 11
196.5
 21
180.0
 31
0.0
  0
LINE
  5
316
  8
0
 10
196.5
 20
55.0
 30
0.0
 11
195.0
 21
56.5
 31
0.0
  0
LINE
  5
317
  8
0
 10
203.5
 20
55.0
 30
0.0
 11
205.0
 21
56.5
 31
0.0
  0
LINE
  5
318
  8
0
 10
205.0
 20
178.5
 30
0.0
 11
205.0
 21
158.028246
 31
0.0
  0
LINE
  5
319
  8
0
 10
196.5
 20
180.0
 30
0.0
 11
203.5
 21
180.0
 31
0.0
  0
LINE
  5
31A
  8
0
 10
195.0
 20
56.5
 30
0.0
 11
195.0
 21
75.0
 31
0.0
  0
LINE
  5
31B
  8
0
 10
203.5
 20
55.0
 30
0.0
 11
196.5
 21
55.0
 31
0.0
  0
ARC
  5
31C
  8
0
 10
99.25
 20
68.580156000000002
 30
0.0
 40
12.275506999999999
 50
69.743841999999916
 51
110.2561580000001
  0
LINE
  5
31D
  8
0
 10
103.5
 20
80.855661999999995
 30
0.0
 11
103.25
 21
81.0
 31
0.0
  0
LINE
  5
31E
  8
0
 10
103.5
 20
75.144338000000005
 30
0.0
 11
103.25
 21
75.0
 31
0.0
  0
ARC
  5
31F
  8
0
 10
99.25
 20
87.419843999999983
 30
0.0
 40
12.275506999999999
 50
249.74384199999989
 51
290.25615800000008
  0
LINE
  5
320
  8
0
 10
103.5
 20
80.855661999999995
 30
0.0
 11
103.5
 21
75.144338000000005
 31
0.0
  0
LINE
  5
321
  8
0
 10
95.0
 20
80.096473000000003
 30
0.0
 11
95.0
 21
75.903526999999997
 31
0.0
  0
LINE
  5
322
  8
0
 10
86.5
 20
80.855661999999995
 30
0.0
 11
86.5
 21
75.144338000000005
 31
0.0
  0
LINE
  5
323
  8
0
 10
86.5
 20
75.144338000000005
 30
0.0
 11
86.75
 21
75.0
 31
0.0
  0
ARC
  5
324
  8
0
 10
90.750000000000014
 20
87.419843999999983
 30
0.0
 40
12.275506999999999
 50
249.74384199999989
 51
290.25615800000008
  0
LINE
  5
325
  8
0
 10
86.5
 20
80.855661999999995
 30
0.0
 11
86.75
 21
81.0
 31
0.0
  0
ARC
  5
326
  8
0
 10
90.750000000000014
 20
68.580156000000002
 30
0.0
 40
12.275506999999999
 50
69.743841999999916
 51
110.2561580000001
  0
LINE
  5
327
  8
0
 10
103.25
 20
81.0
 30
0.0
 11
86.75
 21
81.0
 31
0.0
  0
LINE
  5
328
  8
0
 10
86.75
 20
75.0
 30
0.0
 11
103.25
 21
75.0
 31
0.0
  0
LINE
  5
329
  8
0
 10
208.25
 20
75.0
 30
0.0
 11
191.75
 21
75.0
 31
0.0
  0
LINE
  5
32A
  8
0
 10
191.75
 20
81.0
 30
0.0
 11
208.25
 21
81.0
 31
0.0
  0
ARC
  5
32B
  8
0
 10
207.36121600000001
 20
76.510763999999995
 30
0.0
 40
4.344898999999999
 50
64.384247000000116
 51
124.3842470000001
  0
LINE
  5
32C
  8
0
 10
209.814955
 20
80.096473000000003
 30
0.0
 11
208.25
 21
81.0
 31
0.0
  0
LINE
  5
32D
  8
0
 10
209.814955
 20
75.903526999999997
 30
0.0
 11
208.25
 21
75.0
 31
0.0
  0
ARC
  5
32E
  8
0
 10
207.36121600000001
 20
79.489236000000005
 30
0.0
 40
4.344898999999999
 50
235.6157529999999
 51
295.61575299999993
  0
LINE
  5
32F
  8
0
 10
209.814955
 20
80.096473000000003
 30
0.0
 11
209.814955
 21
75.903526999999997
 31
0.0
  0
LINE
  5
330
  8
0
 10
204.907477
 20
80.096473000000003
 30
0.0
 11
204.907477
 21
75.903526999999997
 31
0.0
  0
LINE
  5
331
  8
0
 10
195.092523
 20
80.096473000000003
 30
0.0
 11
195.092523
 21
75.903526999999997
 31
0.0
  0
LINE
  5
332
  8
0
 10
190.185045
 20
80.096473000000003
 30
0.0
 11
190.185045
 21
75.903526999999997
 31
0.0
  0
ARC
  5
333
  8
0
 10
200.0
 20
91.385148000000015
 30
0.0
 40
16.24081099999999
 50
252.41204599999941
 51
287.58795400000059
  0
ARC
  5
334
  8
0
 10
192.63878399999999
 20
79.489236000000005
 30
0.0
 40
4.344898999999999
 50
244.3842470000001
 51
304.38424700000007
  0
LINE
  5
335
  8
0
 10
190.185045
 20
75.903526999999997
 30
0.0
 11
191.75
 21
75.0
 31
0.0
  0
LINE
  5
336
  8
0
 10
190.185045
 20
80.096473000000003
 30
0.0
 11
191.75
 21
81.0
 31
0.0
  0
ARC
  5
337
  8
0
 10
200.0
 20
64.614851999999999
 30
0.0
 40
16.24081099999999
 50
72.412045999999393
 51
107.58795400000059
  0
ARC
  5
338
  8
0
 10
192.63878399999999
 20
76.510763999999995
 30
0.0
 40
4.344898999999999
 50
55.61575299999987
 51
115.6157529999999
  0
CIRCLE
  5
339
  8
3
 10
200.0
 20
228.94941631236779
 30
0.0
 40
4.25
  0
CIRCLE
  5
33A
  8
0
 10
200.0
 20
228.94941631236779
 30
0.0
 40
5.0
  0
LINE
  5
33B
  8
0
 10
209.53793899999999
 20
228.46961231236779
 30
0.0
 11
205.18449200000001
 21
220.92922031236779
 31
0.0
  0
ARC
  5
33C
  8
0
 10
200.0
 20
228.94941631236779
 30
0.0
 40
9.5500000000000007
 50
357.1201729999998
 51
2.8798270000002062
  0
ARC
  5
33D
  8
0
 10
200.0
 20
228.94941631236779
 30
0.0
 40
9.5500000000000007
 50
57.120173000000619
 51
62.879826999999807
  0
LINE
  5
33E
  8
0
 10
205.18449200000001
 20
236.96961231236779
 30
0.0
 11
209.53793899999999
 21
229.42922031236779
 31
0.0
  0
ARC
  5
33F
  8
0
 10
200.0
 20
228.94941631236779
 30
0.0
 40
9.5500000000000007
 50
117.12017300000019
 51
122.8798269999993
  0
LINE
  5
340
  8
0
 10
195.64655300000001
 20
237.44941631236779
 30
0.0
 11
204.35344699999999
 21
237.44941631236779
 31
0.0
  0
ARC
  5
341
  8
0
 10
200.0
 20
228.94941631236779
 30
0.0
 40
9.5500000000000007
 50
177.1201729999998
 51
182.8798270000002
  0
LINE
  5
342
  8
0
 10
190.46206100000001
 20
229.42922031236779
 30
0.0
 11
194.81550799999999
 21
236.96961231236779
 31
0.0
  0
ARC
  5
343
  8
0
 10
200.0
 20
228.94941631236779
 30
0.0
 40
9.5500000000000007
 50
237.12017300000059
 51
242.87982699999981
  0
LINE
  5
344
  8
0
 10
194.81550799999999
 20
220.92922031236779
 30
0.0
 11
190.46206100000001
 21
228.46961231236779
 31
0.0
  0
ARC
  5
345
  8
0
 10
200.0
 20
228.94941631236779
 30
0.0
 40
9.5500000000000007
 50
297.12017300000019
 51
302.87982699999941
  0
LINE
  5
346
  8
0
 10
204.35344699999999
 20
220.44941631236779
 30
0.0
 11
195.64655300000001
 21
220.44941631236779
 31
0.0
  0
CIRCLE
  5
347
  8
0
 10
200.0
 20
228.94941631236779
 30
0.0
 40
8.0
  0
CIRCLE
  5
348
  8
0
 10
200.0
 20
228.94941631236779
 30
0.0
 40
11.0
  0
LINE
  5
349
  8
1
 10
200.0
 20
244.94941631236779
 30
0.0
 11
200.0
 21
212.94941631236779
 31
0.0
  0
LINE
  5
34F
  8
0
 10
316.5
 20
125.0
 30
0.0
 11
317.5
 21
126.0
 31
0.0
  0
LINE
  5
350
  8
0
 10
292.5
 20
126.0
 30
0.0
 11
293.5
 21
125.0
 31
0.0
  0
LINE
  5
351
  8
0
 10
293.5
 20
141.0
 30
0.0
 11
292.5
 21
140.0
 31
0.0
  0
LINE
  5
352
  8
0
 10
316.5
 20
141.0
 30
0.0
 11
317.5
 21
140.0
 31
0.0
  0
LINE
  5
354
  8
0
 10
310.5
 20
130.0
 30
0.0
 11
310.5
 21
125.0
 31
0.0
  0
LINE
  5
355
  8
0
 10
299.5
 20
130.0
 30
0.0
 11
299.5
 21
125.0
 31
0.0
  0
LINE
  5
356
  8
0
 10
310.5
 20
130.0
 30
0.0
 11
299.5
 21
130.0
 31
0.0
  0
LINE
  5
358
  8
0
 10
316.5
 20
125.0
 30
0.0
 11
293.5
 21
125.0
 31
0.0
  0
LINE
  5
359
  8
0
 10
317.5
 20
140.0
 30
0.0
 11
317.5
 21
126.0
 31
0.0
  0
LINE
  5
35A
  8
0
 10
293.5
 20
141.0
 30
0.0
 11
316.5
 21
141.0
 31
0.0
  0
LINE
  5
35B
  8
0
 10
292.5
 20
126.0
 30
0.0
 11
292.5
 21
140.0
 31
0.0
  0
LINE
  5
35F
  8
0
 10
87.5
 20
138.0
 30
0.0
 11
84.500000000000014
 21
141.0
 31
0.0
  0
LINE
  5
360
  8
0
 10
102.5
 20
138.0
 30
0.0
 11
105.5
 21
141.0
 31
0.0
  0
LINE
  5
361
  8
0
 10
83.499999999999986
 20
141.0
 30
0.0
 11
82.5
 21
140.0
 31
0.0
  0
LINE
  5
362
  8
0
 10
107.5
 20
140.0
 30
0.0
 11
106.5
 21
141.0
 31
0.0
  0
LINE
  5
363
  8
0
 10
106.5
 20
125.0
 30
0.0
 11
107.5
 21
126.0
 31
0.0
  0
LINE
  5
364
  8
0
 10
83.499999999999986
 20
125.0
 30
0.0
 11
82.5
 21
126.0
 31
0.0
  0
LINE
  5
365
  8
0
 10
102.5
 20
138.0
 30
0.0
 11
87.5
 21
138.0
 31
0.0
  0
LINE
  5
366
  8
0
 10
83.499999999999986
 20
141.0
 30
0.0
 11
106.5
 21
141.0
 31
0.0
  0
LINE
  5
367
  8
0
 10
82.5
 20
126.0
 30
0.0
 11
82.5
 21
140.0
 31
0.0
  0
LINE
  5
368
  8
0
 10
106.5
 20
125.0
 30
0.0
 11
83.499999999999986
 21
125.0
 31
0.0
  0
LINE
  5
369
  8
0
 10
107.5
 20
140.0
 30
0.0
 11
107.5
 21
126.0
 31
0.0
  0
LINE
  5
36A
  8
0
 10
102.5
 20
138.0
 30
0.0
 11
102.5
 21
125.0
 31
0.0
  0
LINE
  5
36B
  8
0
 10
87.5
 20
138.0
 30
0.0
 11
87.5
 21
125.0
 31
0.0
  0
LINE
  5
36C
  8
0
 10
248.556624
 20
226.44941631236779
 30
0.0
 11
251.443376
 21
226.44941631236779
 31
0.0
  0
LINE
  5
36D
  8
0
 10
251.443376
 20
226.44941631236779
 30
0.0
 11
252.886751
 21
228.94941631236779
 31
0.0
  0
LINE
  5
36E
  8
0
 10
252.886751
 20
228.94941631236779
 30
0.0
 11
251.443376
 21
231.44941631236779
 31
0.0
  0
LINE
  5
36F
  8
0
 10
251.443376
 20
231.44941631236779
 30
0.0
 11
248.556624
 21
231.44941631236779
 31
0.0
  0
LINE
  5
370
  8
0
 10
248.556624
 20
231.44941631236779
 30
0.0
 11
247.113249
 21
228.94941631236779
 31
0.0
  0
LINE
  5
371
  8
0
 10
247.113249
 20
228.94941631236779
 30
0.0
 11
248.556624
 21
226.44941631236779
 31
0.0
  0
LINE
  5
372
  8
1
 10
250.0
 20
241.44941631236779
 30
0.0
 11
250.0
 21
216.44941631236779
 31
0.0
  0
CIRCLE
  5
374
  8
0
 10
250.0
 20
228.94941631236779
 30
0.0
 40
5.0
  0
CIRCLE
  5
375
  8
3
 10
250.0
 20
228.94941631236779
 30
0.0
 40
4.1879999999999882
  0
CIRCLE
  5
376
  8
2
 10
250.0
 20
228.94941631236779
 30
0.0
 40
7.5
  0
CIRCLE
  5
377
  8
2
 10
250.0
 20
228.94941631236779
 30
0.0
 40
10.0
  0
LINE
  5
379
  8
0
 10
258.0
 20
216.44941631236779
 30
0.0
 11
143.66025400000001
 21
216.44941631236779
 31
0.0
  0
LINE
  5
37A
  8
0
 10
135.0
 20
221.44941631236779
 30
0.0
 11
135.0
 21
236.44941631236779
 31
0.0
  0
LINE
  5
37B
  8
0
 10
143.66025400000001
 20
241.44941631236779
 30
0.0
 11
258.0
 21
241.44941631236779
 31
0.0
  0
LINE
  5
37C
  8
0
 10
260.0
 20
239.44941631236779
 30
0.0
 11
260.0
 21
218.44941631236779
 31
0.0
  0
LINE
  5
37F
  8
1
 10
150.0
 20
219.9702493123678
 30
0.0
 11
150.0
 21
237.90565131236781
 31
0.0
  0
LINE
  5
380
  8
0
 10
190.47372055837121
 20
223.44941631236779
 30
0.0
 11
150.0
 21
223.44941631236779
 31
0.0
  0
LINE
  5
381
  8
0
 10
190.47372055837121
 20
234.44941631236779
 30
0.0
 11
150.0
 21
234.44941631236779
 31
0.0
  0
ARC
  5
383
  8
2
 10
200.0
 20
228.94941631236779
 30
0.0
 40
5.5
 50
270.0
 51
90.0
  0
ARC
  5
384
  8
0
 10
150.0
 20
228.94941631236779
 30
0.0
 40
5.5
 50
90.0
 51
270.0
  0
LINE
  5
385
  8
0
 10
135.0
 20
221.44941631236779
 30
0.0
 11
143.66025400000001
 21
216.44941631236779
 31
0.0
  0
LINE
  5
386
  8
0
 10
135.0
 20
236.44941631236779
 30
0.0
 11
143.66025400000001
 21
241.44941631236779
 31
0.0
  0
LINE
  5
387
  8
0
 10
258.0
 20
241.44941631236779
 30
0.0
 11
260.0
 21
239.44941631236779
 31
0.0
  0
LINE
  5
388
  8
0
 10
260.0
 20
218.44941631236779
 30
0.0
 11
258.0
 21
216.44941631236779
 31
0.0
  0
LINE
  5
389
  8
2
 10
190.47372055837121
 20
223.44941631236779
 30
0.0
 11
260.0
 21
223.44941631236779
 31
0.0
  0
LINE
  5
38A
  8
2
 10
190.47372055837121
 20
234.44941631236779
 30
0.0
 11
260.0
 21
234.44941631236779
 31
0.0
  0
LINE
  5
38B
  8
0
 10
139.92969299999999
 20
239.44941631236779
 30
0.0
 11
139.92969299999999
 21
218.44941631236779
 31
0.0
  0
LINE
  5
38C
  8
1
 10
270.0
 20
228.94941631236779
 30
0.0
 11
125.0
 21
228.94941631236779
 31
0.0
  0
LINE
  5
38D
  8
0
 10
211.0
 20
146.528246
 30
0.0
 11
211.0
 21
144.928246
 31
0.0
  0
LINE
  5
38E
  8
0
 10
204.77500000000001
 20
157.133353
 30
0.0
 11
204.77500000000001
 21
147.028246
 31
0.0
  0
ARC
  5
38F
  8
0
 10
200.0
 20
144.84149600000001
 30
0.0
 40
13.18675
 50
68.770416999999682
 51
90.0
  0
ARC
  5
390
  8
0
 10
207.16249999999999
 20
154.403246
 30
0.0
 40
3.6267949999999991
 50
71.169949999999758
 51
131.1699500000002
  0
ARC
  5
391
  8
0
 10
200.0
 20
167.37818999999999
 30
0.0
 40
25.0
 50
243.89611899999929
 51
246.22385444034629
  0
ARC
  5
392
  8
0
 10
200.0
 20
167.37818999999999
 30
0.0
 40
25.0
 50
293.77614555965363
 51
296.10388100000068
  0
LINE
  5
393
  8
0
 10
211.0
 20
144.928246
 30
0.0
 11
189.0
 21
144.928246
 31
0.0
  0
LINE
  5
394
  8
0
 10
209.55000000000001
 20
157.133353
 30
0.0
 11
209.55000000000001
 21
147.428246
 31
0.0
  0
LINE
  5
396
  8
0
 10
209.55000000000001
 20
157.133353
 30
0.0
 11
208.0
 21
158.028246
 31
0.0
  0
LINE
  5
397
  8
0
 10
190.44999999999999
 20
157.133353
 30
0.0
 11
192.0
 21
158.028246
 31
0.0
  0
ARC
  5
398
  8
0
 10
192.83750000000001
 20
154.403246
 30
0.0
 40
3.6267949999999991
 50
48.83004999999978
 51
108.8300500000002
  0
ARC
  5
399
  8
0
 10
192.83750000000001
 20
154.403246
 30
0.0
 40
3.6267949999999991
 50
131.1699500000002
 51
131.1699500000002
  0
ARC
  5
39A
  8
0
 10
200.0
 20
144.84149600000001
 30
0.0
 40
13.18675
 50
90.0
 51
111.2295830000003
  0
LINE
  5
39B
  8
0
 10
208.0
 20
158.028246
 30
0.0
 11
192.0
 21
158.028246
 31
0.0
  0
LINE
  5
39C
  8
0
 10
195.22499999999999
 20
157.133353
 30
0.0
 11
195.22499999999999
 21
147.028246
 31
0.0
  0
LINE
  5
39D
  8
0
 10
190.44999999999999
 20
157.133353
 30
0.0
 11
190.44999999999999
 21
147.466465
 31
0.0
  0
ARC
  5
39E
  8
0
 10
209.94999999999999
 20
147.428246
 30
0.0
 40
0.4
 50
180.0
 51
270.0
  0
LINE
  5
39F
  8
0
 10
210.5
 20
147.028246
 30
0.0
 11
211.0
 21
146.528246
 31
0.0
  0
ARC
  5
3A0
  8
0
 10
190.05000000000001
 20
147.428246
 30
0.0
 40
0.4
 50
270.0
 51
0.0
  0
LINE
  5
3A1
  8
0
 10
189.0
 20
146.528246
 30
0.0
 11
189.0
 21
144.928246
 31
0.0
  0
LINE
  5
3A2
  8
0
 10
189.5
 20
147.028246
 30
0.0
 11
189.0
 21
146.528246
 31
0.0
  0
LINE
  5
3A3
  8
0
 10
189.5
 20
147.028246
 30
0.0
 11
210.5
 21
147.028246
 31
0.0
  0
LINE
  5
3A6
  8
2
 10
194.0
 20
142.95312699999999
 30
0.0
 11
206.0
 21
142.95312699999999
 31
0.0
  0
LINE
  5
3A7
  8
2
 10
194.0
 20
141.5
 30
0.0
 11
206.0
 21
141.5
 31
0.0
  0
LINE
  5
3A8
  8
2
 10
194.0
 20
141.5
 30
0.0
 11
193.5
 21
141.0
 31
0.0
  0
LINE
  5
3A9
  8
2
 10
194.0
 20
141.5
 30
0.0
 11
194.0
 21
142.95312699999999
 31
0.0
  0
LINE
  5
3AA
  8
2
 10
189.75
 20
144.5
 30
0.0
 11
194.0
 21
142.95312699999999
 31
0.0
  0
LINE
  5
3AB
  8
2
 10
206.0
 20
141.5
 30
0.0
 11
206.5
 21
141.0
 31
0.0
  0
LINE
  5
3AC
  8
2
 10
210.25
 20
144.5
 30
0.0
 11
206.0
 21
142.95312699999999
 31
0.0
  0
LINE
  5
3AD
  8
2
 10
206.0
 20
141.5
 30
0.0
 11
206.0
 21
142.95312699999999
 31
0.0
  0
LINE
  5
3AE
  8
0
 10
189.0
 20
144.0
 30
0.0
 11
189.5
 21
144.5
 31
0.0
  0
LINE
  5
3AF
  8
0
 10
189.5
 20
141.0
 30
0.0
 11
189.0
 21
141.5
 31
0.0
  0
LINE
  5
3B0
  8
0
 10
211.0
 20
144.0
 30
0.0
 11
210.5
 21
144.5
 31
0.0
  0
LINE
  5
3B1
  8
0
 10
210.5
 20
141.0
 30
0.0
 11
211.0
 21
141.5
 31
0.0
  0
LINE
  5
3B2
  8
0
 10
189.0
 20
141.5
 30
0.0
 11
189.0
 21
144.0
 31
0.0
  0
LINE
  5
3B4
  8
0
 10
211.0
 20
144.0
 30
0.0
 11
211.0
 21
141.5
 31
0.0
  0
LINE
  5
3B5
  8
0
 10
189.5
 20
144.5
 30
0.0
 11
210.5
 21
144.5
 31
0.0
  0
LINE
  5
3B7
  8
0
 10
313.5
 20
157.57824600000001
 30
0.0
 11
313.5
 21
147.428246
 31
0.0
  0
ARC
  5
3B8
  8
0
 10
313.89999999999998
 20
147.428246
 30
0.0
 40
0.4
 50
180.0
 51
270.0
  0
LINE
  5
3BA
  8
0
 10
296.5
 20
157.57824600000001
 30
0.0
 11
296.5
 21
147.428246
 31
0.0
  0
LINE
  5
3BB
  8
0
 10
313.05000000000001
 20
158.028246
 30
0.0
 11
310.0
 21
158.028246
 31
0.0
  0
LINE
  5
3BC
  8
0
 10
296.94999999999999
 20
158.028246
 30
0.0
 11
296.5
 21
157.57824600000001
 31
0.0
  0
LINE
  5
3BD
  8
0
 10
313.5
 20
157.57824600000001
 30
0.0
 11
313.05000000000001
 21
158.028246
 31
0.0
  0
ARC
  5
3BE
  8
0
 10
300.75
 20
147.58093099999999
 30
0.0
 40
10.447315
 50
94.116735318734015
 51
114.0041679999992
  0
ARC
  5
3BF
  8
0
 10
309.25
 20
147.58093099999999
 30
0.0
 40
10.447315
 50
65.995832000000817
 51
90.0
  0
ARC
  5
3C1
  8
0
 10
296.10000000000002
 20
147.428246
 30
0.0
 40
0.4
 50
270.0
 51
0.0
  0
LINE
  5
3C2
  8
0
 10
294.5
 20
147.028246
 30
0.0
 11
300.0
 21
147.028246
 31
0.0
  0
LINE
  5
3C3
  8
0
 10
294.5
 20
147.028246
 30
0.0
 11
294.0
 21
146.528246
 31
0.0
  0
LINE
  5
3C4
  8
0
 10
294.0
 20
146.528246
 30
0.0
 11
294.0
 21
144.928246
 31
0.0
  0
LINE
  5
3C5
  8
0
 10
315.5
 20
147.028246
 30
0.0
 11
316.0
 21
146.528246
 31
0.0
  0
LINE
  5
3C7
  8
0
 10
316.0
 20
144.928246
 30
0.0
 11
310.0
 21
144.928246
 31
0.0
  0
ARC
  5
3C8
  8
0
 10
305.0
 20
167.37818999999999
 30
0.0
 40
25.0
 50
293.77614555965363
 51
296.10388099999932
  0
ARC
  5
3C9
  8
0
 10
305.0
 20
167.37818999999999
 30
0.0
 40
25.0
 50
243.89611900000079
 51
246.22385444034629
  0
LINE
  5
3CA
  8
0
 10
316.0
 20
146.528246
 30
0.0
 11
316.0
 21
144.928246
 31
0.0
  0
LINE
  5
3D4
  8
0
 10
294.0
 20
144.0
 30
0.0
 11
294.5
 21
144.5
 31
0.0
  0
LINE
  5
3D5
  8
0
 10
294.5
 20
141.0
 30
0.0
 11
294.0
 21
141.5
 31
0.0
  0
LINE
  5
3D6
  8
0
 10
316.0
 20
144.0
 30
0.0
 11
315.5
 21
144.5
 31
0.0
  0
LINE
  5
3D7
  8
0
 10
315.5
 20
141.0
 30
0.0
 11
316.0
 21
141.5
 31
0.0
  0
LINE
  5
3D8
  8
0
 10
294.0
 20
141.5
 30
0.0
 11
294.0
 21
144.0
 31
0.0
  0
LINE
  5
3DA
  8
0
 10
316.0
 20
144.0
 30
0.0
 11
316.0
 21
141.5
 31
0.0
  0
LINE
  5
3DB
  8
0
 10
294.5
 20
144.5
 30
0.0
 11
300.0
 21
144.5
 31
0.0
  0
LINE
  5
3DD
  8
0
 10
103.5
 20
157.57824600000001
 30
0.0
 11
103.5
 21
147.428246
 31
0.0
  0
ARC
  5
3DE
  8
0
 10
103.90000000000001
 20
147.428246
 30
0.0
 40
0.4
 50
180.0
 51
270.0
  0
LINE
  5
3DF
  8
0
 10
95.0
 20
157.124719
 30
0.0
 11
95.0
 21
147.028246
 31
0.0
  0
LINE
  5
3E0
  8
0
 10
86.5
 20
157.57824600000001
 30
0.0
 11
86.5
 21
147.428246
 31
0.0
  0
LINE
  5
3E1
  8
0
 10
103.05
 20
158.028246
 30
0.0
 11
86.950000000000003
 21
158.028246
 31
0.0
  0
LINE
  5
3E2
  8
0
 10
86.950000000000003
 20
158.028246
 30
0.0
 11
86.5
 21
157.57824600000001
 31
0.0
  0
LINE
  5
3E3
  8
0
 10
103.5
 20
157.57824600000001
 30
0.0
 11
103.05
 21
158.028246
 31
0.0
  0
ARC
  5
3E4
  8
0
 10
90.750000000000014
 20
147.58093099999999
 30
0.0
 40
10.447315
 50
65.995832000000064
 51
114.00416799999989
  0
ARC
  5
3E5
  8
0
 10
99.25
 20
147.58093099999999
 30
0.0
 40
10.447315
 50
65.995832000000064
 51
114.00416799999989
  0
LINE
  5
3E6
  8
0
 10
95.0
 20
157.124719
 30
0.0
 11
95.0
 21
152.93177299999999
 31
0.0
  0
ARC
  5
3E7
  8
0
 10
86.099999999999994
 20
147.428246
 30
0.0
 40
0.4
 50
270.0
 51
0.0
  0
LINE
  5
3E8
  8
0
 10
84.500000000000014
 20
147.028246
 30
0.0
 11
105.5
 21
147.028246
 31
0.0
  0
LINE
  5
3E9
  8
0
 10
84.500000000000014
 20
147.028246
 30
0.0
 11
84.0
 21
146.528246
 31
0.0
  0
LINE
  5
3EA
  8
0
 10
84.0
 20
146.528246
 30
0.0
 11
84.0
 21
144.928246
 31
0.0
  0
LINE
  5
3EB
  8
0
 10
105.5
 20
147.028246
 30
0.0
 11
106.0
 21
146.528246
 31
0.0
  0
LINE
  5
3ED
  8
0
 10
106.0
 20
144.928246
 30
0.0
 11
84.0
 21
144.928246
 31
0.0
  0
ARC
  5
3EE
  8
0
 10
95.0
 20
167.37818999999999
 30
0.0
 40
25.0
 50
293.77614555965363
 51
296.10388099999989
  0
ARC
  5
3EF
  8
0
 10
95.0
 20
167.37818999999999
 30
0.0
 40
25.0
 50
243.89611900000011
 51
246.22385444034629
  0
LINE
  5
3F0
  8
0
 10
106.0
 20
146.528246
 30
0.0
 11
106.0
 21
144.928246
 31
0.0
  0
LINE
  5
3F2
  8
2
 10
89.0
 20
142.95312699999999
 30
0.0
 11
101.0
 21
142.95312699999999
 31
0.0
  0
LINE
  5
3F3
  8
2
 10
89.0
 20
141.5
 30
0.0
 11
101.0
 21
141.5
 31
0.0
  0
LINE
  5
3F4
  8
2
 10
89.0
 20
141.5
 30
0.0
 11
88.499999999999986
 21
141.0
 31
0.0
  0
LINE
  5
3F5
  8
2
 10
89.0
 20
141.5
 30
0.0
 11
89.0
 21
142.95312699999999
 31
0.0
  0
LINE
  5
3F6
  8
2
 10
84.749999999999986
 20
144.5
 30
0.0
 11
89.0
 21
142.95312699999999
 31
0.0
  0
LINE
  5
3F7
  8
2
 10
101.0
 20
141.5
 30
0.0
 11
101.5
 21
141.0
 31
0.0
  0
LINE
  5
3F8
  8
2
 10
105.25
 20
144.5
 30
0.0
 11
101.0
 21
142.95312699999999
 31
0.0
  0
LINE
  5
3F9
  8
2
 10
101.0
 20
141.5
 30
0.0
 11
101.0
 21
142.95312699999999
 31
0.0
  0
LINE
  5
3FA
  8
0
 10
84.0
 20
144.0
 30
0.0
 11
84.500000000000014
 21
144.5
 31
0.0
  0
LINE
  5
3FB
  8
0
 10
84.500000000000014
 20
141.0
 30
0.0
 11
84.0
 21
141.5
 31
0.0
  0
LINE
  5
3FC
  8
0
 10
106.0
 20
144.0
 30
0.0
 11
105.5
 21
144.5
 31
0.0
  0
LINE
  5
3FD
  8
0
 10
105.5
 20
141.0
 30
0.0
 11
106.0
 21
141.5
 31
0.0
  0
LINE
  5
3FE
  8
0
 10
84.0
 20
141.5
 30
0.0
 11
84.0
 21
144.0
 31
0.0
  0
LINE
  5
3FF
  8
0
 10
105.5
 20
141.0
 30
0.0
 11
84.500000000000014
 21
141.0
 31
0.0
  0
LINE
  5
400
  8
0
 10
106.0
 20
144.0
 30
0.0
 11
106.0
 21
141.5
 31
0.0
  0
LINE
  5
401
  8
0
 10
84.500000000000014
 20
144.5
 30
0.0
 11
105.5
 21
144.5
 31
0.0
  0
LINE
  5
402
  8
0
 10
100.0
 20
75.0
 30
0.0
 11
100.0
 21
56.5
 31
0.0
  0
LINE
  5
403
  8
3
 10
99.25
 20
75.0
 30
0.0
 11
99.25
 21
55.75
 31
0.0
  0
LINE
  5
404
  8
3
 10
90.750000000000014
 20
75.0
 30
0.0
 11
90.750000000000014
 21
55.75
 31
0.0
  0
LINE
  5
405
  8
0
 10
90.0
 20
81.0
 30
0.0
 11
90.0
 21
125.0
 31
0.0
  0
LINE
  5
406
  8
0
 10
100.0
 20
125.0
 30
0.0
 11
100.0
 21
81.0
 31
0.0
  0
LINE
  5
407
  8
0
 10
89.999999999999986
 20
158.028246
 30
0.0
 11
90.0
 21
178.5
 31
0.0
  0
LINE
  5
457
  8
0
 10
195.0
 20
158.028246
 30
0.0
 11
195.0
 21
178.5
 31
0.0
  0
LINE
  5
458
  8
0
 10
205.0
 20
125.0
 30
0.0
 11
205.0
 21
81.0
 31
0.0
  0
LINE
  5
460
  8
3
 10
195.75
 20
75.0
 30
0.0
 11
195.75
 21
55.75
 31
0.0
  0
LINE
  5
461
  8
0
 10
195.0
 20
81.0
 30
0.0
 11
195.0
 21
125.0
 31
0.0
  0
LINE
  5
462
  8
0
 10
205.0
 20
75.0
 30
0.0
 11
205.0
 21
56.5
 31
0.0
  0
LINE
  5
463
  8
3
 10
204.25
 20
75.0
 30
0.0
 11
204.25
 21
55.75
 31
0.0
  0
LINE
  5
464
  8
0
 10
255.0
 20
141.0
 30
0.0
 11
255.0
 21
177.06633600000001
 31
0.0
  0
LINE
  5
465
  8
3
 10
254.18799999999999
 20
125.0
 30
0.0
 11
254.18799999999999
 21
87.097527999999997
 31
0.0
  0
LINE
  5
466
  8
3
 10
245.81200000000001
 20
125.0
 30
0.0
 11
245.81200000000001
 21
87.097527999999997
 31
0.0
  0
LINE
  5
467
  8
0
 10
245.0
 20
125.0
 30
0.0
 11
245.0
 21
87.566336000000007
 31
0.0
  0
LINE
  5
468
  8
0
 10
85.5
 20
80.0
 30
0.0
 11
86.5
 21
80.0
 31
0.0
  0
LINE
  5
469
  8
0
 10
85.5
 20
75.0
 30
0.0
 11
104.5
 21
75.0
 31
0.0
  0
LINE
  5
46A
  8
0
 10
102.0
 20
86.0
 30
0.0
 11
100.0
 21
86.0
 31
0.0
  0
LINE
  5
46B
  8
0
 10
87.5
 20
85.5
 30
0.0
 11
87.5
 21
82.0
 31
0.0
  0
LINE
  5
46C
  8
0
 10
85.5
 20
80.0
 30
0.0
 11
85.5
 21
80.0
 31
0.0
  0
LINE
  5
46D
  8
0
 10
85.0
 20
79.5
 30
0.0
 11
85.0
 21
75.5
 31
0.0
  0
LINE
  5
46E
  8
0
 10
85.5
 20
75.0
 30
0.0
 11
85.0
 21
75.5
 31
0.0
  0
LINE
  5
46F
  8
0
 10
85.0
 20
79.5
 30
0.0
 11
85.5
 21
80.0
 31
0.0
  0
LINE
  5
470
  8
0
 10
87.5
 20
85.5
 30
0.0
 11
88.0
 21
86.0
 31
0.0
  0
ARC
  5
471
  8
0
 10
85.5
 20
82.0
 30
0.0
 40
2.0
 50
270.0
 51
299.99999999999989
  0
ARC
  5
472
  8
0
 10
104.5
 20
82.0
 30
0.0
 40
2.0
 50
180.0
 51
210.0
  0
LINE
  5
473
  8
0
 10
104.5
 20
80.0
 30
0.0
 11
104.5
 21
80.0
 31
0.0
  0
LINE
  5
474
  8
0
 10
102.5
 20
85.5
 30
0.0
 11
102.5
 21
82.0
 31
0.0
  0
LINE
  5
475
  8
0
 10
102.5
 20
85.5
 30
0.0
 11
102.0
 21
86.0
 31
0.0
  0
LINE
  5
476
  8
0
 10
105.0
 20
79.5
 30
0.0
 11
104.5
 21
80.0
 31
0.0
  0
LINE
  5
477
  8
0
 10
105.0
 20
79.5
 30
0.0
 11
105.0
 21
75.5
 31
0.0
  0
LINE
  5
478
  8
0
 10
104.5
 20
75.0
 30
0.0
 11
105.0
 21
75.5
 31
0.0
  0
LINE
  5
479
  8
0
 10
90.0
 20
86.0
 30
0.0
 11
88.0
 21
86.0
 31
0.0
  0
ARC
  5
47A
  8
0
 10
85.5
 20
82.0
 30
0.0
 40
2.0
 50
330.00000000000011
 51
0.0
  0
LINE
  5
47D
  8
0
 10
104.5
 20
80.0
 30
0.0
 11
103.5
 21
80.0
 31
0.0
  0
ARC
  5
47E
  8
0
 10
104.5
 20
82.0
 30
0.0
 40
2.0
 50
240.0
 51
270.0
  0
LINE
  5
4C4
  8
0
 10
310.0
 20
140.99999999999989
 30
0.0
 11
310.0
 21
177.06633600000001
 31
0.0
  0
LINE
  5
4C5
  8
0
 10
310.0
 20
125.0
 30
0.0
 11
310.0
 21
86.0
 31
0.0
  0
LINE
  5
4C6
  8
3
 10
309.18799999999999
 20
125.0
 30
0.0
 11
309.18799999999999
 21
87.097527999999997
 31
0.0
  0
LINE
  5
4C7
  8
3
 10
300.81200000000001
 20
125.0
 30
0.0
 11
300.81200000000001
 21
87.097527999999997
 31
0.0
  0
LINE
  5
4C9
  8
0
 10
300.0
 20
141.0
 30
0.0
 11
300.0
 21
178.5
 31
0.0
  0
LINE
  5
4CA
  8
0
 10
308.56633599999998
 20
178.5
 30
0.0
 11
310.0
 21
178.5
 31
0.0
  0
LINE
  5
4CB
  8
0
 10
300.0
 20
158.028246
 30
0.0
 11
296.94999999999999
 21
158.028246
 31
0.0
  0
LINE
  5
4CF
  8
0
 10
310.0
 20
144.5
 30
0.0
 11
315.5
 21
144.5
 31
0.0
  0
LINE
  5
4D0
  8
0
 10
300.0
 20
144.928246
 30
0.0
 11
294.0
 21
144.928246
 31
0.0
  0
LINE
  5
4D1
  8
0
 10
310.0
 20
147.028246
 30
0.0
 11
315.5
 21
147.028246
 31
0.0
  0
LINE
  5
4D9
  8
0
 10
310.0
 20
75.0
 30
0.0
 11
310.0
 21
56.5
 31
0.0
  0
LINE
  5
4DA
  8
3
 10
309.25
 20
75.0
 30
0.0
 11
309.25
 21
55.75
 31
0.0
  0
LINE
  5
4DB
  8
0
 10
300.0
 20
86.0
 30
0.0
 11
300.0
 21
125.0
 31
0.0
  0
LINE
  5
4DC
  8
3
 10
300.75
 20
75.0
 30
0.0
 11
300.75
 21
55.75
 31
0.0
  0
LINE
  5
4DD
  8
0
 10
296.75
 20
81.0
 30
0.0
 11
297.2320508075689
 21
81.0
 31
0.0
  0
LINE
  5
4DE
  8
0
 10
295.185045
 20
80.096473000000003
 30
0.0
 11
295.185045
 21
79.685045000000045
 31
0.0
  0
LINE
  5
4DF
  8
0
 10
295.185045
 20
80.096473000000003
 30
0.0
 11
296.75
 21
81.0
 31
0.0
  0
ARC
  5
4E0
  8
0
 10
297.63878399999999
 20
76.510763999999995
 30
0.0
 40
4.344898999999999
 50
96.884541325763806
 51
115.6157529999999
  0
LINE
  5
4E1
  8
0
 10
313.25
 20
81.0
 30
0.0
 11
312.7679491924311
 21
81.0
 31
0.0
  0
LINE
  5
4E2
  8
0
 10
314.814955
 20
80.096473000000003
 30
0.0
 11
314.814955
 21
79.685045000000045
 31
0.0
  0
LINE
  5
4E3
  8
0
 10
314.814955
 20
80.096473000000003
 30
0.0
 11
313.25
 21
81.0
 31
0.0
  0
ARC
  5
4E4
  8
0
 10
312.36121600000001
 20
76.510763999999995
 30
0.0
 40
4.344898999999999
 50
64.384247000000045
 51
83.115458674239278
  0
TEXT
  5
5D1
  8
0
 62
     3
 10
0.0
 20
0.0
 30
0.0
 40
10.0
  1
BJ153-10125B2
  7
STANDARD1
  0
ENDSEC
  0
EOF
