  0
SECTION
  2
HEADER
  9
$ACADVER
  1
AC1009
  9
$INSBASE
 10
82.638099999999994
 20
103.82319099999999
 30
0.0
  9
$EXTMIN
 10
0.0
 20
-2.960436562073669
 30
0.0
  9
$EXTMAX
 10
301.0
 20
237.0
 30
0.0
  9
$LIMMIN
 10
0.0
 20
0.0
  9
$LIMMAX
 10
375.0
 20
270.0
  9
$ORTHOMODE
 70
     1
  9
$REGENMODE
 70
     1
  9
$FILLMODE
 70
     1
  9
$QTEXTMODE
 70
     0
  9
$MIRRTEXT
 70
     0
  9
$DRAGMODE
 70
     2
  9
$LTSCALE
 40
10.0
  9
$OSMODE
 70
  3071
  9
$ATTMODE
 70
     1
  9
$TEXTSIZE
 40
0.06
  9
$TRACEWID
 40
0.05
  9
$TEXTSTYLE
  7
STANDARD
  9
$CLAYER
  8
0
  9
$CELTYPE
  6
BYLAYER
  9
$CECOLOR
 62
   256
  9
$DIMSCALE
 40
1.0
  9
$DIMASZ
 40
3.0
  9
$DIMEXO
 40
2.0
  9
$DIMDLI
 40
10.0
  9
$DIMRND
 40
0.0
  9
$DIMDLE
 40
0.0
  9
$DIMEXE
 40
2.0
  9
$DIMTP
 40
0.0
  9
$DIMTM
 40
0.0
  9
$DIMTXT
 40
3.0
  9
$DIMCEN
 40
0.0
  9
$DIMTSZ
 40
0.0
  9
$DIMTOL
 70
     0
  9
$DIMLIM
 70
     0
  9
$DIMTIH
 70
     0
  9
$DIMTOH
 70
     0
  9
$DIMSE1
 70
     0
  9
$DIMSE2
 70
     0
  9
$DIMTAD
 70
     1
  9
$DIMZIN
 70
     8
  9
$DIMBLK
  1

  9
$DIMASO
 70
     0
  9
$DIMSHO
 70
     0
  9
$DIMPOST
  1

  9
$DIMAPOST
  1

  9
$DIMALT
 70
     0
  9
$DIMALTD
 70
     2
  9
$DIMALTF
 40
25.399999999999999
  9
$DIMLFAC
 40
1.0
  9
$DIMTOFL
 70
     1
  9
$DIMTVP
 40
1.6000000000000001
  9
$DIMTIX
 70
     1
  9
$DIMSOXD
 70
     0
  9
$DIMSAH
 70
     0
  9
$DIMBLK1
  1

  9
$DIMBLK2
  1

  9
$DIMSTYLE
  2
STANDARD
  9
$DIMCLRD
 70
     0
  9
$DIMCLRE
 70
     0
  9
$DIMCLRT
 70
     0
  9
$DIMTFAC
 40
1.0
  9
$DIMGAP
 40
0.09
  9
$LUNITS
 70
     2
  9
$LUPREC
 70
     4
  9
$SKETCHINC
 40
0.1
  9
$FILLETRAD
 40
0.0
  9
$AUNITS
 70
     0
  9
$AUPREC
 70
     4
  9
$MENU
  1
E:\r13\win\SUPPORT\ACAD
  9
$ELEVATION
 40
0.0
  9
$PELEVATION
 40
0.0
  9
$THICKNESS
 40
0.0
  9
$LIMCHECK
 70
     0
  9
$BLIPMODE
 70
     0
  9
$CHAMFERA
 40
0.0
  9
$CHAMFERB
 40
0.0
  9
$SKPOLY
 70
     0
  9
$TDCREATE
 40
2449840.3460648148
  9
$TDUPDATE
 40
2456597.6362568061
  9
$TDINDWG
 40
0.0081450116
  9
$TDUSRTIMER
 40
0.0081450116
  9
$USRTIMER
 70
     1
  9
$ANGBASE
 50
0.0
  9
$ANGDIR
 70
     0
  9
$PDMODE
 70
     1
  9
$PDSIZE
 40
0.0
  9
$PLINEWID
 40
0.0
  9
$COORDS
 70
     1
  9
$SPLFRAME
 70
     0
  9
$SPLINETYPE
 70
     6
  9
$SPLINESEGS
 70
     8
  9
$ATTDIA
 70
     0
  9
$ATTREQ
 70
     1
  9
$HANDLING
 70
     1
  9
$HANDSEED
  5
684
  9
$SURFTAB1
 70
     6
  9
$SURFTAB2
 70
     6
  9
$SURFTYPE
 70
     6
  9
$SURFU
 70
     6
  9
$SURFV
 70
     6
  9
$UCSNAME
  2

  9
$UCSORG
 10
0.0
 20
0.0
 30
0.0
  9
$UCSXDIR
 10
1.0
 20
0.0
 30
0.0
  9
$UCSYDIR
 10
0.0
 20
1.0
 30
0.0
  9
$PUCSNAME
  2

  9
$PUCSORG
 10
0.0
 20
0.0
 30
0.0
  9
$PUCSXDIR
 10
1.0
 20
0.0
 30
0.0
  9
$PUCSYDIR
 10
0.0
 20
1.0
 30
0.0
  9
$USERI1
 70
     3
  9
$USERI2
 70
     1
  9
$USERI3
 70
     0
  9
$USERI4
 70
     0
  9
$USERI5
 70
     0
  9
$USERR1
 40
1.0
  9
$USERR2
 40
3.0
  9
$USERR3
 40
3.0
  9
$USERR4
 40
3.0
  9
$USERR5
 40
10.0
  9
$WORLDVIEW
 70
     1
  9
$SHADEDGE
 70
     3
  9
$SHADEDIF
 70
    70
  9
$TILEMODE
 70
     1
  9
$MAXACTVP
 70
    16
  9
$PLIMCHECK
 70
     0
  9
$PEXTMIN
 10
1.0000000000000000E+020
 20
1.0000000000000000E+020
 30
1.0000000000000000E+020
  9
$PEXTMAX
 10
-1.0000000000000000E+020
 20
-1.0000000000000000E+020
 30
-1.0000000000000000E+020
  9
$PLIMMIN
 10
0.0
 20
0.0
  9
$PLIMMAX
 10
12.0
 20
9.0
  9
$UNITMODE
 70
     0
  9
$VISRETAIN
 70
     0
  9
$PLINEGEN
 70
     0
  9
$PSLTSCALE
 70
     0
  0
ENDSEC
  0
SECTION
  2
TABLES
  0
TABLE
  2
VPORT
 70
     1
  0
VPORT
  2
*ACTIVE
 70
     0
 10
0.0
 20
0.0
 11
1.0
 21
1.0
 12
195.0581083320873
 22
133.5127261426681
 13
0.0
 23
0.0
 14
5.0
 24
5.0
 15
10.0
 25
10.0
 16
0.0
 26
0.0
 36
1.0
 17
0.0
 27
0.0
 37
0.0
 40
275.42274993631997
 41
1.831871345029239
 42
50.0
 43
0.0
 44
0.0
 50
0.0
 51
0.0
 71
     0
 72
   100
 73
     1
 74
     0
 75
     0
 76
     0
 77
     0
 78
     0
  0
ENDTAB
  0
TABLE
  2
LTYPE
 70
     4
  0
LTYPE
  2
CONTINUOUS
 70
     0
  3
Solid Line
 72
    65
 73
     0
 40
0.0
  0
LTYPE
  2
CENTER
 70
     0
  3
____ _ ____ _ ____ _ ____ _ ____ _ ____ _ ____
 72
    65
 73
     4
 40
2.0
 49
1.25
 49
-0.25
 49
0.25
 49
-0.25
  0
LTYPE
  2
HIDDEN
 70
     0
  3
__ __ __ __ __ __ __ __ __ __ __ __ __ __ __ __
 72
    65
 73
     2
 40
0.375
 49
0.25
 49
-0.125
  0
LTYPE
  2
PHANTOM2
 70
     0
  3
___ _ _ ___ _ _ ___ _ _ ___ _ _
 72
    65
 73
     6
 40
1.25
 49
0.625
 49
-0.125
 49
0.125
 49
-0.125
 49
0.125
 49
-0.125
  0
ENDTAB
  0
TABLE
  2
LAYER
 70
     4
  0
LAYER
  2
0
 70
     0
 62
     7
  6
CONTINUOUS
  0
LAYER
  2
1
 70
     0
 62
     1
  6
CENTER
  0
LAYER
  2
2
 70
     0
 62
     2
  6
HIDDEN
  0
LAYER
  2
3
 70
     0
 62
     3
  6
CONTINUOUS
  0
ENDTAB
  0
TABLE
  2
STYLE
 70
     2
  0
STYLE
  2
STANDARD
 70
     0
 40
0.0
 41
1.0
 50
0.0
 71
     0
 42
0.06
  3
TXT
  4
BIGFONT
  0
STYLE
  2
STANDARD1
 70
     0
 40
0.0
 41
1.0
 50
0.0
 71
     0
 42
3.0
  3
txt
  4

  0
ENDTAB
  0
TABLE
  2
VIEW
 70
     0
  0
ENDTAB
  0
TABLE
  2
UCS
 70
     0
  0
ENDTAB
  0
TABLE
  2
APPID
 70
     6
  0
APPID
  2
ACAD
 70
     0
  0
APPID
  2
ACAD_DSTYLE_DIMJAG
 70
     0
  0
APPID
  2
ACAD_DSTYLE_DIMTALN
 70
     0
  0
APPID
  2
ACAD_EXEMPT_FROM_CAD_STANDARDS
 70
     0
  0
APPID
  2
ACAD_MLEADERVER
 70
     0
  0
APPID
  2
ACAD_NAV_VCDISPLAY
 70
     0
  0
ENDTAB
  0
TABLE
  2
DIMSTYLE
 70
     1
  0
DIMSTYLE
  2
STANDARD
 70
     0
  3

  4

  5

  6

  7

 40
1.0
 41
0.18
 42
0.0625
 43
0.38
 44
0.18
 45
0.0
 46
0.0
 47
0.0
 48
0.0
140
0.18
141
0.09
142
0.0
143
25.399999999999999
144
1.0
145
0.0
146
1.0
147
0.09
 71
     0
 72
     0
 73
     1
 74
     1
 75
     0
 76
     0
 77
     0
 78
     0
170
     0
171
     2
172
     0
173
     0
174
     0
175
     0
176
     0
177
     0
178
     0
  0
ENDTAB
  0
ENDSEC
  0
SECTION
  2
BLOCKS
  0
BLOCK
  8
0
  2
$MODEL_SPACE
 70
     0
 10
0.0
 20
0.0
 30
0.0
  3
$MODEL_SPACE
  1

  0
ENDBLK
  5
222
  8
0
  0
BLOCK
 67
     1
  8
0
  2
$PAPER_SPACE
 70
     0
 10
0.0
 20
0.0
 30
0.0
  3
$PAPER_SPACE
  1

  0
ENDBLK
  5
220
 67
     1
  8
0
  0
ENDSEC
  0
SECTION
  2
ENTITIES
  0
LINE
  5
2DC
  8
1
 10
220.0
 20
193.0
 30
0.0
 11
220.0
 21
237.0
 31
0.0
  0
ARC
  5
2DE
  8
0
 10
220.0
 20
215.0
 30
0.0
 40
12.5
 50
331.26020500000061
 51
343.73979499999979
  0
ARC
  5
2DF
  8
0
 10
220.0
 20
215.0
 30
0.0
 40
12.5
 50
293.57817847820189
 51
298.73979499999928
  0
ARC
  5
2E3
  8
0
 10
220.0
 20
215.0
 30
0.0
 40
12.5
 50
16.260205000000209
 51
28.739794999999368
  0
LINE
  5
2E4
  8
0
 10
226.01040800000001
 20
204.03984500000001
 30
0.0
 11
230.96015499999999
 21
208.98959199999999
 31
0.0
  0
LINE
  5
2E9
  8
0
 10
226.01040800000001
 20
225.96015499999999
 30
0.0
 11
230.96015499999999
 21
221.01040800000001
 31
0.0
  0
LINE
  5
2EB
  8
0
 10
232.0
 20
218.5
 30
0.0
 11
232.0
 21
211.5
 31
0.0
  0
ARC
  5
2EC
  8
0
 10
220.0
 20
215.0
 30
0.0
 40
12.5
 50
61.260205000000632
 51
66.421821521798151
  0
ARC
  5
2ED
  8
0
 10
220.0
 20
215.0
 30
0.0
 40
11.0
 50
174.85029166785341
 51
185.14970833214659
  0
ARC
  5
2EE
  8
0
 10
220.0
 20
215.0
 30
0.0
 40
6.0
 50
130.19399648407219
 51
229.80600351592781
  0
LINE
  5
2EF
  8
1
 10
198.0
 20
215.0
 30
0.0
 11
242.0
 21
215.0
 31
0.0
  0
CIRCLE
  5
2F0
  8
0
 10
190.0
 20
215.0
 30
0.0
 40
5.0999999999999988
  0
CIRCLE
  5
2F1
  8
3
 10
190.0
 20
215.0
 30
0.0
 40
6.0
  0
LINE
  5
2F2
  8
0
 10
195.71166500000001
 20
205.89289400000001
 30
0.0
 11
200.742818
 21
214.60710599999999
 31
0.0
  0
ARC
  5
2F3
  8
0
 10
190.0
 20
215.0
 30
0.0
 40
10.75
 50
357.90547299999992
 51
2.0945270000001548
  0
LINE
  5
2F4
  8
0
 10
200.742818
 20
215.39289400000001
 30
0.0
 11
195.71166500000001
 21
224.10710599999999
 31
0.0
  0
ARC
  5
2F5
  8
0
 10
190.0
 20
215.0
 30
0.0
 40
10.75
 50
57.905473000000491
 51
62.094527000000568
  0
LINE
  5
2F6
  8
0
 10
195.03115299999999
 20
224.5
 30
0.0
 11
184.96884700000001
 21
224.5
 31
0.0
  0
ARC
  5
2F7
  8
0
 10
190.0
 20
215.0
 30
0.0
 40
10.75
 50
117.9054729999994
 51
122.0945269999995
  0
LINE
  5
2F8
  8
0
 10
184.28833499999999
 20
224.10710599999999
 30
0.0
 11
179.257182
 21
215.39289400000001
 31
0.0
  0
ARC
  5
2F9
  8
0
 10
190.0
 20
215.0
 30
0.0
 40
10.75
 50
177.9054729999998
 51
182.09452700000011
  0
LINE
  5
2FA
  8
0
 10
179.257182
 20
214.60710599999999
 30
0.0
 11
184.28833499999999
 21
205.89289400000001
 31
0.0
  0
ARC
  5
2FB
  8
0
 10
190.0
 20
215.0
 30
0.0
 40
10.75
 50
237.90547300000051
 51
242.0945270000006
  0
LINE
  5
2FC
  8
0
 10
184.96884700000001
 20
205.5
 30
0.0
 11
195.03115299999999
 21
205.5
 31
0.0
  0
ARC
  5
2FD
  8
0
 10
190.0
 20
215.0
 30
0.0
 40
10.75
 50
297.9054729999994
 51
302.09452699999952
  0
CIRCLE
  5
2FE
  8
0
 10
190.0
 20
215.0
 30
0.0
 40
13.0
  0
CIRCLE
  5
2FF
  8
0
 10
190.0
 20
215.0
 30
0.0
 40
9.0
  0
LINE
  5
300
  8
1
 10
190.0
 20
233.0
 30
0.0
 11
190.0
 21
197.0
 31
0.0
  0
LINE
  5
301
  8
1
 10
208.0
 20
215.0
 30
0.0
 11
172.0
 21
215.0
 31
0.0
  0
LINE
  5
302
  8
0
 10
223.0
 20
199.0
 30
0.0
 11
174.12435600000001
 21
199.0
 31
0.0
  0
LINE
  5
303
  8
0
 10
174.12435600000001
 20
231.0
 30
0.0
 11
223.0
 21
231.0
 31
0.0
  0
LINE
  5
304
  8
0
 10
225.0
 20
229.0
 30
0.0
 11
225.0
 21
201.0
 31
0.0
  0
LINE
  5
305
  8
1
 10
235.0
 20
215.0
 30
0.0
 11
152.0
 21
215.0
 31
0.0
  0
LINE
  5
306
  8
1
 10
214.0
 20
202.52083300000001
 30
0.0
 11
214.0
 21
227.45623499999999
 31
0.0
  0
LINE
  5
307
  8
1
 10
190.0
 20
202.52083300000001
 30
0.0
 11
190.0
 21
227.45623499999999
 31
0.0
  0
LINE
  5
308
  8
1
 10
176.0
 20
202.52083300000001
 30
0.0
 11
176.0
 21
227.45623499999999
 31
0.0
  0
CIRCLE
  5
309
  8
3
 10
214.0
 20
215.0
 30
0.0
 40
6.0
  0
LINE
  5
30A
  8
0
 10
223.0
 20
231.0
 30
0.0
 11
225.0
 21
229.0
 31
0.0
  0
LINE
  5
30B
  8
0
 10
225.0
 20
201.0
 30
0.0
 11
223.0
 21
199.0
 31
0.0
  0
LINE
  5
30C
  8
0
 10
162.0
 20
206.0
 30
0.0
 11
162.0
 21
224.0
 31
0.0
  0
LINE
  5
30D
  8
0
 10
162.0
 20
206.0
 30
0.0
 11
174.12435600000001
 21
199.0
 31
0.0
  0
LINE
  5
30E
  8
0
 10
162.0
 20
224.0
 30
0.0
 11
174.12435600000001
 21
231.0
 31
0.0
  0
LINE
  5
30F
  8
0
 10
167.02514300000001
 20
226.90126799999999
 30
0.0
 11
167.02514300000001
 21
203.09873200000001
 31
0.0
  0
LINE
  5
310
  8
0
 10
178.74166975080229
 20
208.5
 30
0.0
 11
176.0
 21
208.5
 31
0.0
  0
LINE
  5
311
  8
0
 10
178.74166975080229
 20
221.5
 30
0.0
 11
176.0
 21
221.5
 31
0.0
  0
ARC
  5
312
  8
2
 10
190.0
 20
215.0
 30
0.0
 40
6.5
 50
270.0
 51
90.0
  0
ARC
  5
313
  8
0
 10
176.0
 20
215.0
 30
0.0
 40
6.5
 50
90.0
 51
270.0
  0
LINE
  5
314
  8
2
 10
178.74166975080229
 20
208.5
 30
0.0
 11
225.0
 21
208.5
 31
0.0
  0
LINE
  5
315
  8
2
 10
178.74166975080229
 20
221.5
 30
0.0
 11
225.0
 21
221.5
 31
0.0
  0
CIRCLE
  5
316
  8
0
 10
214.0
 20
215.0
 30
0.0
 40
5.052999999999999
  0
ARC
  5
317
  8
0
 10
220.0
 20
215.0
 30
0.0
 40
6.0
 50
326.44269023807931
 51
33.557309761920763
  0
ARC
  5
318
  8
0
 10
220.0
 20
215.0
 30
0.0
 40
11.0
 50
297.03569178941228
 51
62.964308210587717
  0
LINE
  5
319
  8
1
 10
190.0
 20
172.5
 30
0.0
 11
190.0
 21
57.5
 31
0.0
  0
LINE
  5
31A
  8
0
 10
194.0
 20
65.0
 30
0.0
 11
186.0
 21
65.0
 31
0.0
  0
LINE
  5
31B
  8
0
 10
184.0
 20
67.0
 30
0.0
 11
184.0
 21
85.0
 31
0.0
  0
LINE
  5
31C
  8
0
 10
186.0
 20
165.0
 30
0.0
 11
194.0
 21
165.0
 31
0.0
  0
LINE
  5
31D
  8
0
 10
196.0
 20
163.0
 30
0.0
 11
196.0
 21
141.5222509999999
 31
0.0
  0
LINE
  5
31E
  8
0
 10
184.0
 20
163.0
 30
0.0
 11
186.0
 21
165.0
 31
0.0
  0
LINE
  5
31F
  8
0
 10
196.0
 20
163.0
 30
0.0
 11
194.0
 21
165.0
 31
0.0
  0
LINE
  5
320
  8
0
 10
194.0
 20
65.0
 30
0.0
 11
196.0
 21
67.0
 31
0.0
  0
LINE
  5
321
  8
0
 10
186.0
 20
65.0
 30
0.0
 11
184.0
 21
67.0
 31
0.0
  0
LINE
  5
322
  8
0
 10
184.0
 20
67.0
 30
0.0
 11
196.0
 21
67.0
 31
0.0
  0
LINE
  5
324
  8
3
 10
184.90000000000001
 20
105.0
 30
0.0
 11
184.90000000000001
 21
92.0
 31
0.0
  0
LINE
  5
327
  8
3
 10
195.09999999999999
 20
105.0
 30
0.0
 11
195.09999999999999
 21
92.0
 31
0.0
  0
LINE
  5
328
  8
3
 10
195.09999999999999
 20
141.5222509999999
 30
0.0
 11
195.09999999999999
 21
163.90000000000001
 31
0.0
  0
LINE
  5
32C
  8
3
 10
184.90000000000001
 20
141.5222509999999
 30
0.0
 11
184.90000000000001
 21
163.90000000000001
 31
0.0
  0
LINE
  5
32D
  8
0
 10
184.0
 20
163.0
 30
0.0
 11
196.0
 21
163.0
 31
0.0
  0
LINE
  5
330
  8
0
 10
195.48482799999999
 20
90.862819000000016
 30
0.0
 11
195.48482799999999
 21
86.137180999999984
 31
0.0
  0
LINE
  5
331
  8
0
 10
200.96965499999999
 20
90.862819000000016
 30
0.0
 11
200.96965499999999
 21
86.137180999999984
 31
0.0
  0
LINE
  5
332
  8
0
 10
184.51517200000001
 20
90.862819000000016
 30
0.0
 11
184.51517200000001
 21
86.137180999999984
 31
0.0
  0
LINE
  5
333
  8
0
 10
179.03034500000001
 20
90.862819000000016
 30
0.0
 11
179.03034500000001
 21
86.137180999999984
 31
0.0
  0
LINE
  5
334
  8
0
 10
179.03034500000001
 20
86.137180999999984
 30
0.0
 11
181.0
 21
85.0
 31
0.0
  0
ARC
  5
335
  8
0
 10
181.77275900000001
 20
90.144738000000004
 30
0.0
 40
4.8560629999999989
 50
244.3842470000001
 51
304.38424700000007
  0
ARC
  5
336
  8
0
 10
190.0
 20
103.440169
 30
0.0
 40
18.151494
 50
252.41204599999941
 51
287.58795400000059
  0
ARC
  5
337
  8
0
 10
198.22724099999999
 20
90.144738000000004
 30
0.0
 40
4.8560629999999989
 50
235.6157529999999
 51
295.61575299999993
  0
LINE
  5
338
  8
0
 10
200.96965499999999
 20
86.137180999999984
 30
0.0
 11
199.0
 21
85.0
 31
0.0
  0
LINE
  5
339
  8
0
 10
181.0
 20
85.0
 30
0.0
 11
199.0
 21
85.0
 31
0.0
  0
LINE
  5
33A
  8
0
 10
181.0
 20
92.0
 30
0.0
 11
199.0
 21
92.0
 31
0.0
  0
LINE
  5
33B
  8
0
 10
200.96965499999999
 20
90.862819000000016
 30
0.0
 11
199.0
 21
92.0
 31
0.0
  0
ARC
  5
33C
  8
0
 10
198.22724099999999
 20
86.855261999999996
 30
0.0
 40
4.8560629999999989
 50
64.384247000000116
 51
124.3842470000001
  0
ARC
  5
33D
  8
0
 10
190.0
 20
73.559831000000003
 30
0.0
 40
18.151494
 50
72.412045999999393
 51
107.58795400000059
  0
ARC
  5
33E
  8
0
 10
181.77275900000001
 20
86.855261999999996
 30
0.0
 40
4.8560629999999989
 50
55.61575299999987
 51
115.6157529999999
  0
LINE
  5
33F
  8
0
 10
179.03034500000001
 20
90.862819000000016
 30
0.0
 11
181.0
 21
92.0
 31
0.0
  0
LINE
  5
340
  8
0
 10
225.48482799999999
 20
90.862819000000016
 30
0.0
 11
225.48482799999999
 21
86.137180999999984
 31
0.0
  0
LINE
  5
341
  8
0
 10
230.96965499999999
 20
90.862819000000016
 30
0.0
 11
230.96965499999999
 21
86.137180999999984
 31
0.0
  0
LINE
  5
342
  8
0
 10
214.51517200000001
 20
90.862819000000016
 30
0.0
 11
214.51517200000001
 21
86.137180999999984
 31
0.0
  0
LINE
  5
343
  8
0
 10
209.03034500000001
 20
90.862819000000016
 30
0.0
 11
209.03034500000001
 21
86.137180999999984
 31
0.0
  0
LINE
  5
344
  8
0
 10
209.03034500000001
 20
86.137180999999984
 30
0.0
 11
211.0
 21
85.0
 31
0.0
  0
ARC
  5
345
  8
0
 10
211.77275900000001
 20
90.144738000000004
 30
0.0
 40
4.8560629999999989
 50
244.3842470000001
 51
304.38424700000007
  0
ARC
  5
346
  8
0
 10
220.0
 20
103.440169
 30
0.0
 40
18.151494
 50
252.41204599999941
 51
287.58795400000059
  0
ARC
  5
347
  8
0
 10
228.22724099999999
 20
90.144738000000004
 30
0.0
 40
4.8560629999999989
 50
235.6157529999999
 51
295.61575299999993
  0
LINE
  5
348
  8
0
 10
230.96965499999999
 20
86.137180999999984
 30
0.0
 11
229.0
 21
85.0
 31
0.0
  0
LINE
  5
349
  8
0
 10
211.0
 20
85.0
 30
0.0
 11
229.0
 21
85.0
 31
0.0
  0
LINE
  5
34A
  8
0
 10
211.0
 20
92.0
 30
0.0
 11
229.0
 21
92.0
 31
0.0
  0
LINE
  5
34B
  8
0
 10
230.96965499999999
 20
90.862819000000016
 30
0.0
 11
229.0
 21
92.0
 31
0.0
  0
ARC
  5
34C
  8
0
 10
228.22724099999999
 20
86.855261999999996
 30
0.0
 40
4.8560629999999989
 50
64.384247000000116
 51
124.3842470000001
  0
ARC
  5
34D
  8
0
 10
220.0
 20
73.559831000000003
 30
0.0
 40
18.151494
 50
72.412045999999393
 51
107.58795400000059
  0
ARC
  5
34E
  8
0
 10
211.77275900000001
 20
86.855261999999996
 30
0.0
 40
4.8560629999999989
 50
55.61575299999987
 51
115.6157529999999
  0
LINE
  5
34F
  8
0
 10
209.03034500000001
 20
90.862819000000016
 30
0.0
 11
211.0
 21
92.0
 31
0.0
  0
LINE
  5
350
  8
1
 10
220.0
 20
111.5
 30
0.0
 11
220.0
 21
44.499999999999993
 31
0.0
  0
LINE
  5
352
  8
0
 10
224.0
 20
52.0
 30
0.0
 11
216.0
 21
52.0
 31
0.0
  0
LINE
  5
353
  8
0
 10
214.0
 20
54.0
 30
0.0
 11
226.0
 21
54.0
 31
0.0
  0
LINE
  5
354
  8
0
 10
214.0
 20
92.725054999999983
 30
0.0
 11
226.0
 21
92.725054999999983
 31
0.0
  0
LINE
  5
355
  8
0
 10
226.00000199999999
 20
105.0
 30
0.0
 11
226.00000199999999
 21
108.5
 31
0.0
  0
LINE
  5
356
  8
0
 10
225.50000199999999
 20
109.0
 30
0.0
 11
225.0
 21
109.0
 31
0.0
  0
LINE
  5
358
  8
0
 10
225.50000199999999
 20
109.0
 30
0.0
 11
226.00000199999999
 21
108.5
 31
0.0
  0
LINE
  5
359
  8
0
 10
226.0
 20
54.0
 30
0.0
 11
226.0
 21
85.0
 31
0.0
  0
LINE
  5
35A
  8
3
 10
225.053
 20
53.05299999999999
 30
0.0
 11
225.053
 21
85.0
 31
0.0
  0
LINE
  5
35B
  8
0
 10
226.0
 20
54.0
 30
0.0
 11
224.0
 21
52.0
 31
0.0
  0
LINE
  5
35C
  8
3
 10
225.053
 20
92.725054999999983
 30
0.0
 11
226.0
 21
94.365307000000001
 31
0.0
  0
ARC
  5
35D
  8
0
 10
226.40000000000001
 20
94.599999999999994
 30
0.0
 40
0.4
 50
90.0
 51
180.0
  0
ARC
  5
35E
  8
0
 10
213.59999999999999
 20
94.599999999999994
 30
0.0
 40
0.4
 50
0.0
 51
90.0
  0
LINE
  5
35F
  8
3
 10
214.947
 20
92.725054999999983
 30
0.0
 11
214.0
 21
94.365307000000001
 31
0.0
  0
LINE
  5
360
  8
0
 10
214.0
 20
54.0
 30
0.0
 11
216.0
 21
52.0
 31
0.0
  0
LINE
  5
361
  8
3
 10
214.947
 20
53.05299999999999
 30
0.0
 11
214.947
 21
85.0
 31
0.0
  0
LINE
  5
362
  8
0
 10
214.0
 20
54.0
 30
0.0
 11
214.0
 21
85.0
 31
0.0
  0
LINE
  5
363
  8
0
 10
209.00000700000001
 20
105.0
 30
0.0
 11
231.00000700000001
 21
105.0
 31
0.0
  0
LINE
  5
364
  8
0
 10
231.00000700000001
 20
105.0
 30
0.0
 11
232.00000700000001
 21
104.42265
 31
0.0
  0
LINE
  5
365
  8
0
 10
232.00000700000001
 20
104.13397500000001
 30
0.0
 11
230.960162
 21
104.13397500000001
 31
0.0
  0
ARC
  5
366
  8
0
 10
228.485288
 20
93.669500999999997
 30
0.0
 40
10.753149000000001
 50
76.693896999999993
 51
103.30610299999999
  0
ARC
  5
367
  8
0
 10
220.00000700000001
 20
83.060689999999994
 30
0.0
 40
21.36196
 50
80.569992000000212
 51
99.430007999999773
  0
LINE
  5
368
  8
0
 10
226.01041499999999
 20
104.13397500000001
 30
0.0
 11
223.50000700000001
 21
104.13397500000001
 31
0.0
  0
LINE
  5
369
  8
0
 10
216.50000700000001
 20
104.13397500000001
 30
0.0
 11
213.989599
 21
104.13397500000001
 31
0.0
  0
LINE
  5
36A
  8
0
 10
213.989599
 20
104.13397500000001
 30
0.0
 11
216.50000700000001
 21
104.13397500000001
 31
0.0
  0
ARC
  5
36B
  8
0
 10
211.514726
 20
93.669500999999997
 30
0.0
 40
10.753149000000001
 50
76.693896999999993
 51
103.30610299999999
  0
LINE
  5
36C
  8
0
 10
208.00000700000001
 20
104.13397500000001
 30
0.0
 11
209.039852
 21
104.13397500000001
 31
0.0
  0
LINE
  5
36D
  8
0
 10
209.00000700000001
 20
105.0
 30
0.0
 11
208.00000700000001
 21
104.42265
 31
0.0
  0
LINE
  5
36E
  8
0
 10
209.039852
 20
104.13397500000001
 30
0.0
 11
208.00000700000001
 21
104.13397500000001
 31
0.0
  0
LINE
  5
36F
  8
0
 10
209.039852
 20
95.866025000000008
 30
0.0
 11
208.00000700000001
 21
95.866025000000008
 31
0.0
  0
LINE
  5
370
  8
0
 10
213.989599
 20
95.866025000000008
 30
0.0
 11
213.989599
 21
104.13397500000001
 31
0.0
  0
LINE
  5
371
  8
0
 10
208.00000700000001
 20
95.577349999999996
 30
0.0
 11
208.00000700000001
 21
104.42265
 31
0.0
  0
LINE
  5
372
  8
0
 10
209.039852
 20
95.866025000000008
 30
0.0
 11
209.039852
 21
104.13397500000001
 31
0.0
  0
LINE
  5
373
  8
0
 10
209.00000700000001
 20
95.0
 30
0.0
 11
208.00000700000001
 21
95.577349999999996
 31
0.0
  0
LINE
  5
374
  8
0
 10
208.00000700000001
 20
95.866025000000008
 30
0.0
 11
209.039852
 21
95.866025000000008
 31
0.0
  0
ARC
  5
375
  8
0
 10
211.514726
 20
106.330499
 30
0.0
 40
10.753149000000001
 50
256.69389699999999
 51
283.30610300000001
  0
LINE
  5
376
  8
0
 10
213.989599
 20
95.866025000000008
 30
0.0
 11
216.50000700000001
 21
95.866025000000008
 31
0.0
  0
LINE
  5
377
  8
0
 10
216.50000700000001
 20
95.866025000000008
 30
0.0
 11
213.989599
 21
95.866025000000008
 31
0.0
  0
LINE
  5
378
  8
0
 10
226.01041499999999
 20
95.866025000000008
 30
0.0
 11
223.50000700000001
 21
95.866025000000008
 31
0.0
  0
ARC
  5
379
  8
0
 10
220.00000700000001
 20
116.93931000000001
 30
0.0
 40
21.36196
 50
260.56999200000018
 51
279.43000799999982
  0
LINE
  5
37A
  8
0
 10
216.50000700000001
 20
95.866025000000008
 30
0.0
 11
216.50000700000001
 21
104.13397500000001
 31
0.0
  0
ARC
  5
37B
  8
0
 10
228.485288
 20
106.330499
 30
0.0
 40
10.753149000000001
 50
256.69389699999999
 51
283.30610300000001
  0
LINE
  5
37C
  8
0
 10
232.00000700000001
 20
95.866025000000008
 30
0.0
 11
230.960162
 21
95.866025000000008
 31
0.0
  0
LINE
  5
37D
  8
0
 10
230.960162
 20
95.866025000000008
 30
0.0
 11
230.960162
 21
104.13397500000001
 31
0.0
  0
LINE
  5
37E
  8
0
 10
231.00000700000001
 20
95.0
 30
0.0
 11
232.00000700000001
 21
95.577349999999996
 31
0.0
  0
LINE
  5
37F
  8
0
 10
226.01041499999999
 20
95.866025000000008
 30
0.0
 11
226.01041499999999
 21
104.13397500000001
 31
0.0
  0
LINE
  5
380
  8
0
 10
223.50000700000001
 20
95.866025000000008
 30
0.0
 11
223.50000700000001
 21
104.13397500000001
 31
0.0
  0
LINE
  5
381
  8
0
 10
232.00000700000001
 20
95.577349999999996
 30
0.0
 11
232.00000700000001
 21
104.42265
 31
0.0
  0
LINE
  5
382
  8
0
 10
209.00000700000001
 20
95.0
 30
0.0
 11
230.960162
 21
95.0
 31
0.0
  0
LINE
  5
383
  8
0
 10
173.91985
 20
121.0
 30
0.0
 11
173.91985
 21
105.0
 31
0.0
  0
LINE
  5
384
  8
2
 10
208.0
 20
110.0
 30
0.0
 11
208.0
 21
121.0
 31
0.0
  0
LINE
  5
385
  8
2
 10
208.947
 20
110.0
 30
0.0
 11
208.947
 21
121.0
 31
0.0
  0
LINE
  5
386
  8
2
 10
219.053
 20
110.0
 30
0.0
 11
219.053
 21
121.0
 31
0.0
  0
LINE
  5
387
  8
2
 10
220.0
 20
110.0
 30
0.0
 11
220.0
 21
121.0
 31
0.0
  0
LINE
  5
388
  8
2
 10
225.0
 20
110.0
 30
0.0
 11
190.0
 21
110.0
 31
0.0
  0
LINE
  5
389
  8
0
 10
163.0
 20
105.0
 30
0.0
 11
162.0
 21
106.0
 31
0.0
  0
LINE
  5
38A
  8
0
 10
225.0
 20
106.0
 30
0.0
 11
224.0
 21
105.0
 31
0.0
  0
LINE
  5
38B
  8
0
 10
224.0
 20
121.0
 30
0.0
 11
225.0
 21
120.0
 31
0.0
  0
LINE
  5
38C
  8
0
 10
162.0
 20
118.0
 30
0.0
 11
167.19615200000001
 21
121.0
 31
0.0
  0
LINE
  5
38D
  8
2
 10
169.35000500000001
 20
105.00060000000001
 30
0.0
 11
169.35000500000001
 21
121.0
 31
0.0
  0
LINE
  5
38E
  8
2
 10
196.5
 20
110.0
 30
0.0
 11
196.5
 21
121.0
 31
0.0
  0
LINE
  5
38F
  8
1
 10
176.00000499999999
 20
100.0
 30
0.0
 11
176.00000499999999
 21
126.0
 31
0.0
  0
LINE
  5
391
  8
1
 10
214.0
 20
100.0
 30
0.0
 11
214.0
 21
126.0
 31
0.0
  0
LINE
  5
392
  8
0
 10
225.0
 20
120.0
 30
0.0
 11
225.0
 21
106.0
 31
0.0
  0
LINE
  5
393
  8
0
 10
167.19615200000001
 20
121.0
 30
0.0
 11
224.0
 21
121.0
 31
0.0
  0
LINE
  5
394
  8
0
 10
162.0
 20
106.0
 30
0.0
 11
162.0
 21
118.0
 31
0.0
  0
LINE
  5
395
  8
0
 10
224.0
 20
105.0
 30
0.0
 11
163.0
 21
105.0
 31
0.0
  0
LINE
  5
39B
  8
0
 10
114.5
 20
91.711325000000002
 30
0.0
 11
114.0
 21
92.0
 31
0.0
  0
ARC
  5
39C
  8
0
 10
109.75
 20
77.991641000000001
 30
0.0
 40
13.719684000000001
 50
69.743841999999916
 51
110.2561580000001
  0
LINE
  5
39D
  8
0
 10
114.0
 20
85.0
 30
0.0
 11
114.5
 21
85.360472000000001
 31
0.0
  0
LINE
  5
39E
  8
0
 10
114.5
 20
85.360472000000001
 30
0.0
 11
114.5
 21
91.711325000000002
 31
0.0
  0
ARC
  5
39F
  8
0
 10
109.75
 20
99.008358999999999
 30
0.0
 40
13.719684000000001
 50
249.74384199999989
 51
290.25615800000008
  0
ARC
  5
3A0
  8
0
 10
100.25
 20
99.008358999999999
 30
0.0
 40
13.719684000000001
 50
249.74384199999989
 51
290.25615800000008
  0
LINE
  5
3A1
  8
0
 10
95.5
 20
85.360472000000001
 30
0.0
 11
95.5
 21
91.711325000000002
 31
0.0
  0
LINE
  5
3A2
  8
0
 10
96.0
 20
85.0
 30
0.0
 11
95.5
 21
85.360472000000001
 31
0.0
  0
ARC
  5
3A3
  8
0
 10
100.25
 20
77.991641000000001
 30
0.0
 40
13.719684000000001
 50
69.743841999999916
 51
110.2561580000001
  0
LINE
  5
3A4
  8
0
 10
95.5
 20
91.711325000000002
 30
0.0
 11
96.0
 21
92.0
 31
0.0
  0
LINE
  5
3A5
  8
0
 10
96.0
 20
92.0
 30
0.0
 11
114.0
 21
92.0
 31
0.0
  0
LINE
  5
3A6
  8
0
 10
114.0
 20
85.0
 30
0.0
 11
96.0
 21
85.0
 31
0.0
  0
LINE
  5
3A7
  8
0
 10
105.0
 20
90.862819000000016
 30
0.0
 11
105.0
 21
86.137180999999984
 31
0.0
  0
LINE
  5
3A8
  8
1
 10
105.0
 20
172.5
 30
0.0
 11
105.0
 21
44.499999999999993
 31
0.0
  0
LINE
  5
3A9
  8
0
 10
109.0
 20
65.0
 30
0.0
 11
101.0
 21
65.0
 31
0.0
  0
LINE
  5
3AA
  8
0
 10
99.0
 20
67.0
 30
0.0
 11
99.0
 21
85.0
 31
0.0
  0
LINE
  5
3AB
  8
0
 10
101.0
 20
165.0
 30
0.0
 11
109.0
 21
165.0
 31
0.0
  0
LINE
  5
3AC
  8
0
 10
111.0
 20
163.0
 30
0.0
 11
111.0
 21
141.5222509999999
 31
0.0
  0
LINE
  5
3AD
  8
0
 10
99.0
 20
163.0
 30
0.0
 11
101.0
 21
165.0
 31
0.0
  0
LINE
  5
3AE
  8
0
 10
111.0
 20
163.0
 30
0.0
 11
109.0
 21
165.0
 31
0.0
  0
LINE
  5
3AF
  8
0
 10
109.0
 20
65.0
 30
0.0
 11
111.0
 21
67.0
 31
0.0
  0
LINE
  5
3B0
  8
0
 10
101.0
 20
65.0
 30
0.0
 11
99.0
 21
67.0
 31
0.0
  0
LINE
  5
3B1
  8
0
 10
99.0
 20
67.0
 30
0.0
 11
111.0
 21
67.0
 31
0.0
  0
LINE
  5
3B3
  8
3
 10
99.900000000000006
 20
105.0
 30
0.0
 11
99.900000000000006
 21
92.0
 31
0.0
  0
LINE
  5
3B6
  8
3
 10
110.09999999999999
 20
105.0
 30
0.0
 11
110.09999999999999
 21
92.0
 31
0.0
  0
LINE
  5
3B7
  8
3
 10
110.09999999999999
 20
141.5222509999999
 30
0.0
 11
110.09999999999999
 21
163.90000000000001
 31
0.0
  0
LINE
  5
3BB
  8
3
 10
99.900000000000006
 20
141.5222509999999
 30
0.0
 11
99.900000000000006
 21
163.90000000000001
 31
0.0
  0
LINE
  5
3BC
  8
0
 10
99.0
 20
163.0
 30
0.0
 11
111.0
 21
163.0
 31
0.0
  0
LINE
  5
3BD
  8
0
 10
294.5
 20
91.711325000000002
 30
0.0
 11
294.0
 21
92.0
 31
0.0
  0
ARC
  5
3BE
  8
0
 10
289.75
 20
77.991641000000001
 30
0.0
 40
13.719684000000001
 50
69.743841999999916
 51
110.2561580000001
  0
LINE
  5
3BF
  8
0
 10
294.0
 20
85.0
 30
0.0
 11
294.5
 21
85.360472000000001
 31
0.0
  0
LINE
  5
3C0
  8
0
 10
294.5
 20
85.360472000000001
 30
0.0
 11
294.5
 21
91.711325000000002
 31
0.0
  0
ARC
  5
3C1
  8
0
 10
289.75
 20
99.008358999999999
 30
0.0
 40
13.719684000000001
 50
249.74384199999989
 51
290.25615800000008
  0
ARC
  5
3C2
  8
0
 10
280.25
 20
99.008358999999999
 30
0.0
 40
13.719684000000001
 50
249.74384199999989
 51
290.25615800000008
  0
LINE
  5
3C3
  8
0
 10
275.5
 20
85.360472000000001
 30
0.0
 11
275.5
 21
91.711325000000002
 31
0.0
  0
LINE
  5
3C4
  8
0
 10
276.0
 20
85.0
 30
0.0
 11
275.5
 21
85.360472000000001
 31
0.0
  0
ARC
  5
3C5
  8
0
 10
280.25
 20
77.991641000000001
 30
0.0
 40
13.719684000000001
 50
69.743841999999916
 51
110.2561580000001
  0
LINE
  5
3C6
  8
0
 10
275.5
 20
91.711325000000002
 30
0.0
 11
276.0
 21
92.0
 31
0.0
  0
LINE
  5
3C7
  8
0
 10
276.0
 20
92.0
 30
0.0
 11
294.0
 21
92.0
 31
0.0
  0
LINE
  5
3C8
  8
0
 10
294.0
 20
85.0
 30
0.0
 11
276.0
 21
85.0
 31
0.0
  0
LINE
  5
3C9
  8
0
 10
285.0
 20
90.862819000000016
 30
0.0
 11
285.0
 21
86.137180999999984
 31
0.0
  0
LINE
  5
3CD
  8
0
 10
281.0
 20
165.0
 30
0.0
 11
289.0
 21
165.0
 31
0.0
  0
LINE
  5
3CE
  8
0
 10
291.0
 20
163.0
 30
0.0
 11
291.0
 21
141.5222509999999
 31
0.0
  0
LINE
  5
3CF
  8
0
 10
279.0
 20
163.0
 30
0.0
 11
281.0
 21
165.0
 31
0.0
  0
LINE
  5
3D0
  8
0
 10
291.0
 20
163.0
 30
0.0
 11
289.0
 21
165.0
 31
0.0
  0
LINE
  5
3D4
  8
3
 10
279.0
 20
106.558846
 30
0.0
 11
279.89999999999998
 21
105.0
 31
0.0
  0
LINE
  5
3D6
  8
0
 10
279.0
 20
105.0
 30
0.0
 11
291.0
 21
105.0
 31
0.0
  0
LINE
  5
3D7
  8
3
 10
291.0
 20
106.558846
 30
0.0
 11
290.10000000000002
 21
105.0
 31
0.0
  0
LINE
  5
3D9
  8
3
 10
290.10000000000002
 20
141.5222509999999
 30
0.0
 11
290.10000000000002
 21
163.90000000000001
 31
0.0
  0
LINE
  5
3DD
  8
3
 10
279.89999999999998
 20
141.5222509999999
 30
0.0
 11
279.89999999999998
 21
163.90000000000001
 31
0.0
  0
LINE
  5
3DE
  8
0
 10
279.0
 20
163.0
 30
0.0
 11
291.0
 21
163.0
 31
0.0
  0
LINE
  5
3E1
  8
0
 10
96.0
 20
118.0
 30
0.0
 11
93.098731999999998
 21
121.0
 31
0.0
  0
LINE
  5
3E2
  8
0
 10
114.0
 20
118.0
 30
0.0
 11
116.901268
 21
121.0
 31
0.0
  0
LINE
  5
3E3
  8
0
 10
114.0
 20
118.0
 30
0.0
 11
114.0
 21
105.0
 31
0.0
  0
LINE
  5
3E4
  8
0
 10
96.0
 20
118.0
 30
0.0
 11
96.0
 21
105.0
 31
0.0
  0
LINE
  5
3E5
  8
0
 10
121.0
 20
120.0
 30
0.0
 11
121.0
 21
106.0
 31
0.0
  0
LINE
  5
3E6
  8
0
 10
120.0
 20
105.0
 30
0.0
 11
90.0
 21
105.0
 31
0.0
  0
LINE
  5
3E7
  8
0
 10
89.0
 20
106.0
 30
0.0
 11
89.0
 21
120.0
 31
0.0
  0
LINE
  5
3E8
  8
0
 10
90.0
 20
121.0
 30
0.0
 11
120.0
 21
121.0
 31
0.0
  0
LINE
  5
3EA
  8
0
 10
114.0
 20
118.0
 30
0.0
 11
96.0
 21
118.0
 31
0.0
  0
LINE
  5
3EB
  8
0
 10
90.0
 20
105.0
 30
0.0
 11
89.0
 21
106.0
 31
0.0
  0
LINE
  5
3EC
  8
0
 10
120.0
 20
105.0
 30
0.0
 11
121.0
 21
106.0
 31
0.0
  0
LINE
  5
3ED
  8
0
 10
121.0
 20
120.0
 30
0.0
 11
120.0
 21
121.0
 31
0.0
  0
LINE
  5
3EE
  8
0
 10
90.0
 20
121.0
 30
0.0
 11
89.0
 21
120.0
 31
0.0
  0
LINE
  5
3F1
  8
0
 10
269.0
 20
106.0
 30
0.0
 11
269.0
 21
120.0
 31
0.0
  0
LINE
  5
3F2
  8
0
 10
270.0
 20
121.0
 30
0.0
 11
300.0
 21
121.0
 31
0.0
  0
LINE
  5
3F3
  8
0
 10
301.0
 20
120.0
 30
0.0
 11
301.0
 21
106.0
 31
0.0
  0
LINE
  5
3F4
  8
0
 10
300.0
 20
105.0
 30
0.0
 11
270.0
 21
105.0
 31
0.0
  0
LINE
  5
3F6
  8
0
 10
285.0
 20
110.0
 30
0.0
 11
278.5
 21
110.0
 31
0.0
  0
LINE
  5
3F7
  8
0
 10
278.5
 20
110.0
 30
0.0
 11
278.5
 21
105.0
 31
0.0
  0
LINE
  5
3F8
  8
0
 10
291.5
 20
110.0
 30
0.0
 11
291.5
 21
105.0
 31
0.0
  0
LINE
  5
3F9
  8
0
 10
282.0
 20
110.0
 30
0.0
 11
291.60476599999998
 21
110.0
 31
0.0
  0
LINE
  5
3FA
  8
0
 10
300.0
 20
121.0
 30
0.0
 11
301.0
 21
120.0
 31
0.0
  0
LINE
  5
3FB
  8
0
 10
270.0
 20
121.0
 30
0.0
 11
269.0
 21
120.0
 31
0.0
  0
LINE
  5
3FC
  8
0
 10
269.0
 20
106.0
 30
0.0
 11
270.0
 21
105.0
 31
0.0
  0
LINE
  5
3FD
  8
0
 10
300.0
 20
105.0
 30
0.0
 11
301.0
 21
106.0
 31
0.0
  0
LINE
  5
3FE
  8
1
 10
285.0
 20
172.5
 30
0.0
 11
285.0
 21
44.499999999999993
 31
0.0
  0
LINE
  5
3FF
  8
0
 10
279.00000199999999
 20
105.0
 30
0.0
 11
279.00000199999999
 21
108.5
 31
0.0
  0
LINE
  5
400
  8
0
 10
289.0
 20
52.0
 30
0.0
 11
281.0
 21
52.0
 31
0.0
  0
LINE
  5
401
  8
0
 10
279.0
 20
54.0
 30
0.0
 11
291.0
 21
54.0
 31
0.0
  0
LINE
  5
402
  8
0
 10
279.0
 20
92.725054999999983
 30
0.0
 11
291.0
 21
92.725054999999983
 31
0.0
  0
LINE
  5
403
  8
0
 10
291.00000199999999
 20
105.0
 30
0.0
 11
291.00000199999999
 21
108.5
 31
0.0
  0
LINE
  5
404
  8
0
 10
290.50000199999999
 20
109.0
 30
0.0
 11
279.50000199999999
 21
109.0
 31
0.0
  0
LINE
  5
405
  8
0
 10
279.50000199999999
 20
109.0
 30
0.0
 11
279.00000199999999
 21
108.5
 31
0.0
  0
LINE
  5
406
  8
0
 10
290.50000199999999
 20
109.0
 30
0.0
 11
291.00000199999999
 21
108.5
 31
0.0
  0
LINE
  5
407
  8
0
 10
291.0
 20
54.0
 30
0.0
 11
291.0
 21
85.0
 31
0.0
  0
LINE
  5
408
  8
3
 10
290.053
 20
53.05299999999999
 30
0.0
 11
290.053
 21
85.0
 31
0.0
  0
LINE
  5
409
  8
0
 10
291.0
 20
54.0
 30
0.0
 11
289.0
 21
52.0
 31
0.0
  0
LINE
  5
40A
  8
3
 10
290.053
 20
92.725054999999983
 30
0.0
 11
291.0
 21
94.365307000000001
 31
0.0
  0
ARC
  5
40B
  8
0
 10
291.39999999999998
 20
94.599999999999994
 30
0.0
 40
0.4
 50
90.0
 51
180.0
  0
ARC
  5
40C
  8
0
 10
278.60000000000002
 20
94.599999999999994
 30
0.0
 40
0.4
 50
0.0
 51
90.0
  0
LINE
  5
40D
  8
3
 10
279.947
 20
92.725054999999983
 30
0.0
 11
279.0
 21
94.365307000000001
 31
0.0
  0
LINE
  5
40E
  8
0
 10
279.0
 20
54.0
 30
0.0
 11
281.0
 21
52.0
 31
0.0
  0
LINE
  5
40F
  8
3
 10
279.947
 20
53.05299999999999
 30
0.0
 11
279.947
 21
85.0
 31
0.0
  0
LINE
  5
410
  8
0
 10
279.0
 20
54.0
 30
0.0
 11
279.0
 21
85.0
 31
0.0
  0
LINE
  5
411
  8
0
 10
274.00000699999998
 20
105.0
 30
0.0
 11
296.00000699999998
 21
105.0
 31
0.0
  0
LINE
  5
412
  8
0
 10
296.00000699999998
 20
105.0
 30
0.0
 11
297.00000699999998
 21
104.42265
 31
0.0
  0
LINE
  5
413
  8
0
 10
297.00000699999998
 20
104.13397500000001
 30
0.0
 11
295.96016200000003
 21
104.13397500000001
 31
0.0
  0
ARC
  5
414
  8
0
 10
293.48528800000003
 20
93.669500999999997
 30
0.0
 40
10.753149000000001
 50
76.693896999999197
 51
103.3061030000008
  0
ARC
  5
415
  8
0
 10
285.00000699999998
 20
83.060689999999994
 30
0.0
 40
21.36196
 50
80.569992000000212
 51
99.430007999999773
  0
LINE
  5
416
  8
0
 10
291.01041500000002
 20
104.13397500000001
 30
0.0
 11
288.50000699999998
 21
104.13397500000001
 31
0.0
  0
LINE
  5
417
  8
0
 10
281.50000699999998
 20
104.13397500000001
 30
0.0
 11
278.989599
 21
104.13397500000001
 31
0.0
  0
LINE
  5
418
  8
0
 10
278.989599
 20
104.13397500000001
 30
0.0
 11
281.50000699999998
 21
104.13397500000001
 31
0.0
  0
ARC
  5
419
  8
0
 10
276.514726
 20
93.669500999999997
 30
0.0
 40
10.753149000000001
 50
76.693896999999197
 51
103.3061030000008
  0
LINE
  5
41A
  8
0
 10
273.00000699999998
 20
104.13397500000001
 30
0.0
 11
274.039852
 21
104.13397500000001
 31
0.0
  0
LINE
  5
41B
  8
0
 10
274.00000699999998
 20
105.0
 30
0.0
 11
273.00000699999998
 21
104.42265
 31
0.0
  0
LINE
  5
41C
  8
0
 10
274.039852
 20
104.13397500000001
 30
0.0
 11
273.00000699999998
 21
104.13397500000001
 31
0.0
  0
LINE
  5
41D
  8
0
 10
274.039852
 20
95.866025000000008
 30
0.0
 11
273.00000699999998
 21
95.866025000000008
 31
0.0
  0
LINE
  5
41E
  8
0
 10
278.989599
 20
95.866025000000008
 30
0.0
 11
278.989599
 21
104.13397500000001
 31
0.0
  0
LINE
  5
41F
  8
0
 10
273.00000699999998
 20
95.577349999999996
 30
0.0
 11
273.00000699999998
 21
104.42265
 31
0.0
  0
LINE
  5
420
  8
0
 10
274.039852
 20
95.866025000000008
 30
0.0
 11
274.039852
 21
104.13397500000001
 31
0.0
  0
LINE
  5
421
  8
0
 10
274.00000699999998
 20
95.0
 30
0.0
 11
273.00000699999998
 21
95.577349999999996
 31
0.0
  0
LINE
  5
422
  8
0
 10
273.00000699999998
 20
95.866025000000008
 30
0.0
 11
274.039852
 21
95.866025000000008
 31
0.0
  0
ARC
  5
423
  8
0
 10
276.514726
 20
106.330499
 30
0.0
 40
10.753149000000001
 50
256.6938969999992
 51
283.3061030000008
  0
LINE
  5
424
  8
0
 10
278.989599
 20
95.866025000000008
 30
0.0
 11
281.50000699999998
 21
95.866025000000008
 31
0.0
  0
LINE
  5
425
  8
0
 10
281.50000699999998
 20
95.866025000000008
 30
0.0
 11
278.989599
 21
95.866025000000008
 31
0.0
  0
LINE
  5
426
  8
0
 10
291.01041500000002
 20
95.866025000000008
 30
0.0
 11
288.50000699999998
 21
95.866025000000008
 31
0.0
  0
ARC
  5
427
  8
0
 10
285.00000699999998
 20
116.93931000000001
 30
0.0
 40
21.36196
 50
260.56999200000018
 51
279.43000799999982
  0
LINE
  5
428
  8
0
 10
281.50000699999998
 20
95.866025000000008
 30
0.0
 11
281.50000699999998
 21
104.13397500000001
 31
0.0
  0
ARC
  5
429
  8
0
 10
293.48528800000003
 20
106.330499
 30
0.0
 40
10.753149000000001
 50
256.6938969999992
 51
283.3061030000008
  0
LINE
  5
42A
  8
0
 10
297.00000699999998
 20
95.866025000000008
 30
0.0
 11
295.96016200000003
 21
95.866025000000008
 31
0.0
  0
LINE
  5
42B
  8
0
 10
295.96016200000003
 20
95.866025000000008
 30
0.0
 11
295.96016200000003
 21
104.13397500000001
 31
0.0
  0
LINE
  5
42C
  8
0
 10
296.00000699999998
 20
95.0
 30
0.0
 11
297.00000699999998
 21
95.577349999999996
 31
0.0
  0
LINE
  5
42D
  8
0
 10
291.01041500000002
 20
95.866025000000008
 30
0.0
 11
291.01041500000002
 21
104.13397500000001
 31
0.0
  0
LINE
  5
42E
  8
0
 10
288.50000699999998
 20
95.866025000000008
 30
0.0
 11
288.50000699999998
 21
104.13397500000001
 31
0.0
  0
LINE
  5
42F
  8
0
 10
297.00000699999998
 20
95.577349999999996
 30
0.0
 11
297.00000699999998
 21
104.42265
 31
0.0
  0
LINE
  5
430
  8
0
 10
274.00000699999998
 20
95.0
 30
0.0
 11
295.96016200000003
 21
95.0
 31
0.0
  0
ARC
  5
431
  8
0
 10
198.0625
 20
137.44278199999999
 30
0.0
 40
4.0794689999999996
 50
71.207401999999249
 51
131.20740200000009
  0
ARC
  5
432
  8
0
 10
190.0
 20
126.522251
 30
0.0
 40
14.98668
 50
68.982577000000546
 51
90.0
  0
LINE
  5
433
  8
0
 10
195.375
 20
140.511888
 30
0.0
 11
195.375
 21
128.52225100000001
 31
0.0
  0
LINE
  5
435
  8
0
 10
184.625
 20
140.511888
 30
0.0
 11
184.625
 21
128.52225100000001
 31
0.0
  0
LINE
  5
436
  8
0
 10
177.5
 20
128.52225100000001
 30
0.0
 11
202.5
 21
128.52225100000001
 31
0.0
  0
LINE
  5
438
  8
0
 10
177.5
 20
128.52225100000001
 30
0.0
 11
177.0
 21
128.0222509999999
 31
0.0
  0
LINE
  5
439
  8
0
 10
177.0
 20
128.0222509999999
 30
0.0
 11
177.0
 21
125.522251
 31
0.0
  0
ARC
  5
43A
  8
0
 10
178.84999999999999
 20
128.92225099999999
 30
0.0
 40
0.4
 50
270.0
 51
0.0
  0
LINE
  5
43B
  8
0
 10
179.25
 20
140.511888
 30
0.0
 11
179.25
 21
128.92225099999999
 31
0.0
  0
ARC
  5
43C
  8
0
 10
201.15000000000001
 20
128.92225099999999
 30
0.0
 40
0.4
 50
180.0
 51
270.0
  0
LINE
  5
43D
  8
0
 10
202.5
 20
128.52225100000001
 30
0.0
 11
203.0
 21
128.0222509999999
 31
0.0
  0
LINE
  5
43E
  8
0
 10
200.75
 20
140.511888
 30
0.0
 11
200.75
 21
128.92225099999999
 31
0.0
  0
LINE
  5
43F
  8
0
 10
199.0
 20
141.5222509999999
 30
0.0
 11
181.0
 21
141.5222509999999
 31
0.0
  0
ARC
  5
440
  8
0
 10
190.0
 20
126.522251
 30
0.0
 40
14.98668
 50
90.0
 51
111.0174229999994
  0
ARC
  5
441
  8
0
 10
181.9375
 20
137.44278199999999
 30
0.0
 40
4.0794689999999996
 50
48.79259799999992
 51
108.79259800000069
  0
LINE
  5
442
  8
0
 10
179.25
 20
140.511888
 30
0.0
 11
181.0
 21
141.5222509999999
 31
0.0
  0
LINE
  5
443
  8
0
 10
200.75
 20
140.511888
 30
0.0
 11
199.0
 21
141.5222509999999
 31
0.0
  0
LINE
  5
444
  8
0
 10
203.0
 20
125.522251
 30
0.0
 11
177.0
 21
125.522251
 31
0.0
  0
LINE
  5
445
  8
0
 10
203.0
 20
128.0222509999999
 30
0.0
 11
203.0
 21
125.522251
 31
0.0
  0
ARC
  5
446
  8
0
 10
190.0
 20
152.55926299999999
 30
0.0
 40
30.0
 50
244.32071099999979
 51
246.7283666550895
  0
ARC
  5
447
  8
0
 10
190.0
 20
152.55926299999999
 30
0.0
 40
30.0
 50
293.27163334491053
 51
295.67928900000032
  0
LINE
  5
450
  8
0
 10
203.0
 20
124.5
 30
0.0
 11
202.5
 21
125.0
 31
0.0
  0
LINE
  5
451
  8
0
 10
202.5
 20
121.0
 30
0.0
 11
203.0
 21
121.5
 31
0.0
  0
LINE
  5
452
  8
0
 10
177.0
 20
124.5
 30
0.0
 11
177.5
 21
125.0
 31
0.0
  0
LINE
  5
453
  8
0
 10
177.5
 20
121.0
 30
0.0
 11
177.0
 21
121.5
 31
0.0
  0
LINE
  5
454
  8
0
 10
177.0
 20
121.5
 30
0.0
 11
177.0
 21
124.5
 31
0.0
  0
LINE
  5
455
  8
0
 10
202.5
 20
121.0
 30
0.0
 11
177.5
 21
121.0
 31
0.0
  0
LINE
  5
456
  8
0
 10
203.0
 20
124.5
 30
0.0
 11
203.0
 21
121.5
 31
0.0
  0
LINE
  5
457
  8
0
 10
177.5
 20
125.0
 30
0.0
 11
202.5
 21
125.0
 31
0.0
  0
ARC
  5
45B
  8
0
 10
114.90000000000001
 20
128.92225099999999
 30
0.0
 40
0.4
 50
180.0
 51
270.0
  0
ARC
  5
45C
  8
0
 10
100.25
 20
131.03329500000001
 30
0.0
 40
10.488956
 50
63.072847000000237
 51
116.92715299999971
  0
ARC
  5
45D
  8
0
 10
109.75
 20
131.03329500000001
 30
0.0
 40
10.488956
 50
63.072847000000237
 51
116.92715299999971
  0
LINE
  5
45E
  8
0
 10
96.0
 20
141.5222509999999
 30
0.0
 11
95.5
 21
141.233576
 31
0.0
  0
LINE
  5
45F
  8
0
 10
114.0
 20
141.5222509999999
 30
0.0
 11
114.5
 21
141.233576
 31
0.0
  0
LINE
  5
460
  8
0
 10
114.5
 20
141.233576
 30
0.0
 11
114.5
 21
128.92225099999999
 31
0.0
  0
LINE
  5
461
  8
0
 10
96.0
 20
141.5222509999999
 30
0.0
 11
114.0
 21
141.5222509999999
 31
0.0
  0
LINE
  5
462
  8
0
 10
105.0
 20
140.38507000000001
 30
0.0
 11
105.0
 21
128.52225100000001
 31
0.0
  0
LINE
  5
463
  8
0
 10
95.5
 20
141.233576
 30
0.0
 11
95.5
 21
128.92225099999999
 31
0.0
  0
ARC
  5
464
  8
0
 10
105.0
 20
152.55926299999999
 30
0.0
 40
30.0
 50
293.27163334491053
 51
295.67928900000032
  0
LINE
  5
465
  8
0
 10
118.0
 20
128.0222509999999
 30
0.0
 11
118.0
 21
125.522251
 31
0.0
  0
LINE
  5
466
  8
0
 10
117.5
 20
128.52225100000001
 30
0.0
 11
118.0
 21
128.0222509999999
 31
0.0
  0
ARC
  5
467
  8
0
 10
95.099999999999994
 20
128.92225099999999
 30
0.0
 40
0.4
 50
270.0
 51
0.0
  0
ARC
  5
468
  8
0
 10
105.0
 20
152.55926299999999
 30
0.0
 40
30.0
 50
244.32071099999979
 51
246.7283666550895
  0
LINE
  5
469
  8
0
 10
118.0
 20
125.522251
 30
0.0
 11
92.0
 21
125.522251
 31
0.0
  0
LINE
  5
46A
  8
0
 10
92.0
 20
128.0222509999999
 30
0.0
 11
92.0
 21
125.522251
 31
0.0
  0
LINE
  5
46B
  8
0
 10
92.5
 20
128.52225100000001
 30
0.0
 11
92.0
 21
128.0222509999999
 31
0.0
  0
LINE
  5
46C
  8
0
 10
92.5
 20
128.52225100000001
 30
0.0
 11
117.5
 21
128.52225100000001
 31
0.0
  0
LINE
  5
475
  8
0
 10
118.0
 20
124.5
 30
0.0
 11
117.5
 21
125.0
 31
0.0
  0
LINE
  5
476
  8
0
 10
117.5
 20
121.0
 30
0.0
 11
118.0
 21
121.5
 31
0.0
  0
LINE
  5
477
  8
0
 10
92.0
 20
124.5
 30
0.0
 11
92.5
 21
125.0
 31
0.0
  0
LINE
  5
478
  8
0
 10
92.5
 20
121.0
 30
0.0
 11
92.0
 21
121.5
 31
0.0
  0
LINE
  5
479
  8
0
 10
92.0
 20
121.5
 30
0.0
 11
92.0
 21
124.5
 31
0.0
  0
LINE
  5
47A
  8
0
 10
117.5
 20
121.0
 30
0.0
 11
92.5
 21
121.0
 31
0.0
  0
LINE
  5
47B
  8
0
 10
118.0
 20
124.5
 30
0.0
 11
118.0
 21
121.5
 31
0.0
  0
LINE
  5
47C
  8
0
 10
92.5
 20
125.0
 30
0.0
 11
117.5
 21
125.0
 31
0.0
  0
ARC
  5
480
  8
0
 10
294.89999999999998
 20
128.92225099999999
 30
0.0
 40
0.4
 50
180.0
 51
270.0
  0
ARC
  5
481
  8
0
 10
280.25
 20
131.03329500000001
 30
0.0
 40
10.488956
 50
63.072847000000237
 51
116.92715299999971
  0
ARC
  5
482
  8
0
 10
289.75
 20
131.03329500000001
 30
0.0
 40
10.488956
 50
63.072847000000237
 51
116.92715299999971
  0
LINE
  5
483
  8
0
 10
276.0
 20
141.5222509999999
 30
0.0
 11
275.5
 21
141.233576
 31
0.0
  0
LINE
  5
484
  8
0
 10
294.0
 20
141.5222509999999
 30
0.0
 11
294.5
 21
141.233576
 31
0.0
  0
LINE
  5
485
  8
0
 10
294.5
 20
141.233576
 30
0.0
 11
294.5
 21
128.92225099999999
 31
0.0
  0
LINE
  5
486
  8
0
 10
276.0
 20
141.5222509999999
 30
0.0
 11
294.0
 21
141.5222509999999
 31
0.0
  0
LINE
  5
487
  8
0
 10
285.0
 20
140.38507000000001
 30
0.0
 11
285.0
 21
128.52225100000001
 31
0.0
  0
LINE
  5
488
  8
0
 10
275.5
 20
141.233576
 30
0.0
 11
275.5
 21
128.92225099999999
 31
0.0
  0
ARC
  5
489
  8
0
 10
285.0
 20
152.55926299999999
 30
0.0
 40
30.0
 50
293.27163334491041
 51
295.67928899999879
  0
LINE
  5
48A
  8
0
 10
298.0
 20
128.0222509999999
 30
0.0
 11
298.0
 21
125.522251
 31
0.0
  0
LINE
  5
48B
  8
0
 10
297.5
 20
128.52225100000001
 30
0.0
 11
298.0
 21
128.0222509999999
 31
0.0
  0
ARC
  5
48C
  8
0
 10
275.10000000000002
 20
128.92225099999999
 30
0.0
 40
0.4
 50
270.0
 51
0.0
  0
ARC
  5
48D
  8
0
 10
285.0
 20
152.55926299999999
 30
0.0
 40
30.0
 50
244.32071100000121
 51
246.7283666550895
  0
LINE
  5
48E
  8
0
 10
298.0
 20
125.522251
 30
0.0
 11
272.0
 21
125.522251
 31
0.0
  0
LINE
  5
48F
  8
0
 10
272.0
 20
128.0222509999999
 30
0.0
 11
272.0
 21
125.522251
 31
0.0
  0
LINE
  5
490
  8
0
 10
272.5
 20
128.52225100000001
 30
0.0
 11
272.0
 21
128.0222509999999
 31
0.0
  0
LINE
  5
491
  8
0
 10
272.5
 20
128.52225100000001
 30
0.0
 11
297.5
 21
128.52225100000001
 31
0.0
  0
LINE
  5
49A
  8
0
 10
298.0
 20
124.5
 30
0.0
 11
297.5
 21
125.0
 31
0.0
  0
LINE
  5
49B
  8
0
 10
297.5
 20
121.0
 30
0.0
 11
298.0
 21
121.5
 31
0.0
  0
LINE
  5
49C
  8
0
 10
272.0
 20
124.5
 30
0.0
 11
272.5
 21
125.0
 31
0.0
  0
LINE
  5
49D
  8
0
 10
272.5
 20
121.0
 30
0.0
 11
272.0
 21
121.5
 31
0.0
  0
LINE
  5
49E
  8
0
 10
272.0
 20
121.5
 30
0.0
 11
272.0
 21
124.5
 31
0.0
  0
LINE
  5
49F
  8
0
 10
297.5
 20
121.0
 30
0.0
 11
272.5
 21
121.0
 31
0.0
  0
LINE
  5
4A0
  8
0
 10
298.0
 20
124.5
 30
0.0
 11
298.0
 21
121.5
 31
0.0
  0
LINE
  5
4A1
  8
0
 10
272.5
 20
125.0
 30
0.0
 11
297.5
 21
125.0
 31
0.0
  0
LINE
  5
4A3
  8
0
 10
184.0
 20
141.5222509999999
 30
0.0
 11
184.0
 21
163.0
 31
0.0
  0
LINE
  5
4A4
  8
0
 10
196.0
 20
105.0
 30
0.0
 11
196.0
 21
92.0
 31
0.0
  0
LINE
  5
4A5
  8
3
 10
214.947
 20
92.000000000000014
 30
0.0
 11
214.947
 21
92.725054999999983
 31
0.0
  0
LINE
  5
4A6
  8
0
 10
214.0
 20
92.0
 30
0.0
 11
214.0
 21
94.599999999999994
 31
0.0
  0
LINE
  5
4A7
  8
0
 10
226.0
 20
92.0
 30
0.0
 11
226.0
 21
94.599999999999994
 31
0.0
  0
LINE
  5
4A8
  8
3
 10
225.053
 20
92.000000000000014
 30
0.0
 11
225.053
 21
92.725054999999983
 31
0.0
  0
LINE
  5
4AE
  8
0
 10
196.0
 20
85.0
 30
0.0
 11
196.0
 21
67.0
 31
0.0
  0
LINE
  5
4AF
  8
3
 10
195.09999999999999
 20
85.0
 30
0.0
 11
195.09999999999999
 21
66.099999999999994
 31
0.0
  0
LINE
  5
4B0
  8
3
 10
184.90000000000001
 20
85.0
 30
0.0
 11
184.90000000000001
 21
66.099999999999994
 31
0.0
  0
LINE
  5
4B1
  8
0
 10
184.0
 20
92.0
 30
0.0
 11
184.0
 21
105.0
 31
0.0
  0
LINE
  5
4BB
  8
0
 10
279.0
 20
141.5222509999999
 30
0.0
 11
279.0
 21
163.0
 31
0.0
  0
LINE
  5
4BD
  8
3
 10
279.947
 20
92.000000000000014
 30
0.0
 11
279.947
 21
92.725054999999983
 31
0.0
  0
LINE
  5
4BE
  8
0
 10
279.0
 20
92.0
 30
0.0
 11
279.0
 21
94.599999999999994
 31
0.0
  0
LINE
  5
4BF
  8
0
 10
291.0
 20
92.0
 30
0.0
 11
291.0
 21
94.599999999999994
 31
0.0
  0
LINE
  5
4C0
  8
3
 10
290.053
 20
92.000000000000014
 30
0.0
 11
290.053
 21
92.725054999999983
 31
0.0
  0
LINE
  5
506
  8
3
 10
99.900000000000006
 20
85.0
 30
0.0
 11
99.900000000000006
 21
66.099999999999994
 31
0.0
  0
LINE
  5
507
  8
0
 10
99.0
 20
92.0
 30
0.0
 11
99.0
 21
105.0
 31
0.0
  0
LINE
  5
508
  8
0
 10
111.0
 20
85.0
 30
0.0
 11
111.0
 21
67.0
 31
0.0
  0
LINE
  5
509
  8
3
 10
110.09999999999999
 20
85.0
 30
0.0
 11
110.09999999999999
 21
66.099999999999994
 31
0.0
  0
LINE
  5
50A
  8
0
 10
111.0
 20
105.0
 30
0.0
 11
111.0
 21
92.0
 31
0.0
  0
LINE
  5
50B
  8
0
 10
99.0
 20
141.5222509999999
 30
0.0
 11
99.0
 21
163.0
 31
0.0
  0
LINE
  5
50C
  8
0
 10
109.0
 20
52.0
 30
0.0
 11
101.0
 21
52.0
 31
0.0
  0
LINE
  5
50D
  8
0
 10
99.0
 20
54.0
 30
0.0
 11
111.0
 21
54.0
 31
0.0
  0
LINE
  5
50E
  8
0
 10
111.0
 20
54.0
 30
0.0
 11
111.0
 21
67.0
 31
0.0
  0
LINE
  5
50F
  8
3
 10
110.053
 20
53.05299999999999
 30
0.0
 11
110.053
 21
66.053000000000011
 31
0.0
  0
LINE
  5
510
  8
0
 10
111.0
 20
54.0
 30
0.0
 11
109.0
 21
52.0
 31
0.0
  0
LINE
  5
511
  8
0
 10
99.0
 20
54.0
 30
0.0
 11
101.0
 21
52.0
 31
0.0
  0
LINE
  5
512
  8
3
 10
99.947000000000017
 20
53.05299999999999
 30
0.0
 11
99.947000000000017
 21
66.052999999999983
 31
0.0
  0
LINE
  5
513
  8
0
 10
99.0
 20
54.0
 30
0.0
 11
99.0
 21
67.0
 31
0.0
  0
LINE
  5
516
  8
0
 10
94.000006999999968
 20
105.0
 30
0.0
 11
116.000007
 21
105.0
 31
0.0
  0
LINE
  5
517
  8
0
 10
116.000007
 20
105.0
 30
0.0
 11
117.000007
 21
104.42265
 31
0.0
  0
LINE
  5
518
  8
0
 10
117.000007
 20
104.13397500000001
 30
0.0
 11
115.960162
 21
104.13397500000001
 31
0.0
  0
ARC
  5
519
  8
0
 10
113.4852879999999
 20
93.669500999999997
 30
0.0
 40
10.753149000000001
 50
76.693897000000064
 51
103.30610299999989
  0
LINE
  5
51B
  8
0
 10
111.01041499999999
 20
104.13397500000001
 30
0.0
 11
111.0
 21
104.13397500000001
 31
0.0
  0
LINE
  5
51C
  8
0
 10
99.0
 20
104.13397500000001
 30
0.0
 11
98.989599000000013
 21
104.13397500000001
 31
0.0
  0
LINE
  5
51D
  8
0
 10
98.989599000000013
 20
104.13397500000001
 30
0.0
 11
99.0
 21
104.13397500000001
 31
0.0
  0
ARC
  5
51E
  8
0
 10
96.514725999999996
 20
93.669500999999997
 30
0.0
 40
10.753149000000001
 50
76.693897000000064
 51
103.30610299999989
  0
LINE
  5
51F
  8
0
 10
93.000006999999982
 20
104.13397500000001
 30
0.0
 11
94.039851999999996
 21
104.13397500000001
 31
0.0
  0
LINE
  5
520
  8
0
 10
94.000006999999968
 20
105.0
 30
0.0
 11
93.000006999999982
 21
104.42265
 31
0.0
  0
LINE
  5
521
  8
0
 10
94.039851999999996
 20
104.13397500000001
 30
0.0
 11
93.000006999999982
 21
104.13397500000001
 31
0.0
  0
LINE
  5
522
  8
0
 10
94.039851999999996
 20
95.866025000000008
 30
0.0
 11
93.000006999999982
 21
95.866025000000008
 31
0.0
  0
LINE
  5
523
  8
0
 10
98.989599000000013
 20
95.866025000000008
 30
0.0
 11
98.989599000000013
 21
104.13397500000001
 31
0.0
  0
LINE
  5
524
  8
0
 10
93.000006999999982
 20
95.577349999999996
 30
0.0
 11
93.000006999999982
 21
104.42265
 31
0.0
  0
LINE
  5
525
  8
0
 10
94.039851999999996
 20
95.866025000000008
 30
0.0
 11
94.039851999999996
 21
104.13397500000001
 31
0.0
  0
LINE
  5
526
  8
0
 10
94.000006999999968
 20
95.0
 30
0.0
 11
93.000006999999982
 21
95.577349999999996
 31
0.0
  0
LINE
  5
527
  8
0
 10
93.000006999999982
 20
95.866025000000008
 30
0.0
 11
94.039851999999996
 21
95.866025000000008
 31
0.0
  0
ARC
  5
528
  8
0
 10
96.514725999999996
 20
106.330499
 30
0.0
 40
10.753149000000001
 50
256.69389700000011
 51
283.30610299999989
  0
LINE
  5
529
  8
0
 10
98.989599000000013
 20
95.866025000000008
 30
0.0
 11
99.0
 21
95.866025000000008
 31
0.0
  0
LINE
  5
52A
  8
0
 10
99.0
 20
95.866025000000008
 30
0.0
 11
98.989599000000013
 21
95.866025000000008
 31
0.0
  0
LINE
  5
52B
  8
0
 10
111.01041499999999
 20
95.866025000000008
 30
0.0
 11
111.0
 21
95.866024999999993
 31
0.0
  0
ARC
  5
52E
  8
0
 10
113.4852879999999
 20
106.330499
 30
0.0
 40
10.753149000000001
 50
256.69389700000011
 51
283.30610299999989
  0
LINE
  5
52F
  8
0
 10
117.000007
 20
95.866025000000008
 30
0.0
 11
115.960162
 21
95.866025000000008
 31
0.0
  0
LINE
  5
530
  8
0
 10
115.960162
 20
95.866025000000008
 30
0.0
 11
115.960162
 21
104.13397500000001
 31
0.0
  0
LINE
  5
531
  8
0
 10
116.000007
 20
95.0
 30
0.0
 11
117.000007
 21
95.577349999999996
 31
0.0
  0
LINE
  5
532
  8
0
 10
111.01041499999999
 20
95.866025000000008
 30
0.0
 11
111.01041499999999
 21
104.13397500000001
 31
0.0
  0
LINE
  5
534
  8
0
 10
117.000007
 20
95.577349999999996
 30
0.0
 11
117.000007
 21
104.42265
 31
0.0
  0
LINE
  5
535
  8
0
 10
94.000006999999968
 20
95.0
 30
0.0
 11
99.0
 21
94.999999999999986
 31
0.0
  0
LINE
  5
536
  8
0
 10
111.0
 20
94.999999999999986
 30
0.0
 11
115.960162
 21
95.0
 31
0.0
  0
TEXT
  5
61F
  8
0
 62
     3
 10
0.0
 20
0.0
 30
0.0
 40
10.0
  1
BJ153-12063A1
  7
STANDARD1
  0
ENDSEC
  0
EOF
