  0
SECTION
  2
HEADER
  9
$ACADVER
  1
AC1009
  9
$INSBASE
 10
82.638099999999994
 20
103.82319099999999
 30
0.0
  9
$EXTMIN
 10
0.0
 20
-2.960436562073669
 30
0.0
  9
$EXTMAX
 10
291.0
 20
273.51353275934127
 30
0.0
  9
$LIMMIN
 10
0.0
 20
0.0
  9
$LIMMAX
 10
375.0
 20
270.0
  9
$ORTHOMODE
 70
     1
  9
$REGENMODE
 70
     1
  9
$FILLMODE
 70
     1
  9
$QTEXTMODE
 70
     0
  9
$MIRRTEXT
 70
     0
  9
$DRAGMODE
 70
     2
  9
$LTSCALE
 40
10.0
  9
$OSMODE
 70
  3071
  9
$ATTMODE
 70
     1
  9
$TEXTSIZE
 40
0.06
  9
$TRACEWID
 40
0.05
  9
$TEXTSTYLE
  7
STANDARD
  9
$CLAYER
  8
0
  9
$CELTYPE
  6
BYLAYER
  9
$CECOLOR
 62
   256
  9
$DIMSCALE
 40
1.0
  9
$DIMASZ
 40
3.0
  9
$DIMEXO
 40
2.0
  9
$DIMDLI
 40
10.0
  9
$DIMRND
 40
0.0
  9
$DIMDLE
 40
0.0
  9
$DIMEXE
 40
2.0
  9
$DIMTP
 40
0.0
  9
$DIMTM
 40
0.0
  9
$DIMTXT
 40
3.0
  9
$DIMCEN
 40
0.0
  9
$DIMTSZ
 40
0.0
  9
$DIMTOL
 70
     0
  9
$DIMLIM
 70
     0
  9
$DIMTIH
 70
     0
  9
$DIMTOH
 70
     0
  9
$DIMSE1
 70
     0
  9
$DIMSE2
 70
     0
  9
$DIMTAD
 70
     1
  9
$DIMZIN
 70
     0
  9
$DIMBLK
  1

  9
$DIMASO
 70
     0
  9
$DIMSHO
 70
     0
  9
$DIMPOST
  1

  9
$DIMAPOST
  1

  9
$DIMALT
 70
     0
  9
$DIMALTD
 70
     2
  9
$DIMALTF
 40
25.399999999999999
  9
$DIMLFAC
 40
1.0
  9
$DIMTOFL
 70
     1
  9
$DIMTVP
 40
1.6000000000000001
  9
$DIMTIX
 70
     1
  9
$DIMSOXD
 70
     0
  9
$DIMSAH
 70
     0
  9
$DIMBLK1
  1

  9
$DIMBLK2
  1

  9
$DIMSTYLE
  2
STANDARD
  9
$DIMCLRD
 70
     0
  9
$DIMCLRE
 70
     0
  9
$DIMCLRT
 70
     0
  9
$DIMTFAC
 40
1.0
  9
$DIMGAP
 40
0.09
  9
$LUNITS
 70
     2
  9
$LUPREC
 70
     4
  9
$SKETCHINC
 40
0.1
  9
$FILLETRAD
 40
0.0
  9
$AUNITS
 70
     0
  9
$AUPREC
 70
     4
  9
$MENU
  1
E:\r13\win\SUPPORT\ACAD
  9
$ELEVATION
 40
0.0
  9
$PELEVATION
 40
0.0
  9
$THICKNESS
 40
0.0
  9
$LIMCHECK
 70
     0
  9
$BLIPMODE
 70
     0
  9
$CHAMFERA
 40
0.0
  9
$CHAMFERB
 40
0.0
  9
$SKPOLY
 70
     0
  9
$TDCREATE
 40
2449840.3471412039
  9
$TDUPDATE
 40
2456597.6368537969
  9
$TDINDWG
 40
0.008150081
  9
$TDUSRTIMER
 40
0.008150081
  9
$USRTIMER
 70
     1
  9
$ANGBASE
 50
0.0
  9
$ANGDIR
 70
     0
  9
$PDMODE
 70
     1
  9
$PDSIZE
 40
0.0
  9
$PLINEWID
 40
0.0
  9
$COORDS
 70
     1
  9
$SPLFRAME
 70
     0
  9
$SPLINETYPE
 70
     6
  9
$SPLINESEGS
 70
     8
  9
$ATTDIA
 70
     0
  9
$ATTREQ
 70
     1
  9
$HANDLING
 70
     1
  9
$HANDSEED
  5
5D1
  9
$SURFTAB1
 70
     6
  9
$SURFTAB2
 70
     6
  9
$SURFTYPE
 70
     6
  9
$SURFU
 70
     6
  9
$SURFV
 70
     6
  9
$UCSNAME
  2

  9
$UCSORG
 10
0.0
 20
0.0
 30
0.0
  9
$UCSXDIR
 10
1.0
 20
0.0
 30
0.0
  9
$UCSYDIR
 10
0.0
 20
1.0
 30
0.0
  9
$PUCSNAME
  2

  9
$PUCSORG
 10
0.0
 20
0.0
 30
0.0
  9
$PUCSXDIR
 10
1.0
 20
0.0
 30
0.0
  9
$PUCSYDIR
 10
0.0
 20
1.0
 30
0.0
  9
$USERI1
 70
     3
  9
$USERI2
 70
     1
  9
$USERI3
 70
     0
  9
$USERI4
 70
     0
  9
$USERI5
 70
     0
  9
$USERR1
 40
1.0
  9
$USERR2
 40
3.0
  9
$USERR3
 40
3.0
  9
$USERR4
 40
3.0
  9
$USERR5
 40
10.0
  9
$WORLDVIEW
 70
     1
  9
$SHADEDGE
 70
     3
  9
$SHADEDIF
 70
    70
  9
$TILEMODE
 70
     1
  9
$MAXACTVP
 70
    16
  9
$PLIMCHECK
 70
     0
  9
$PEXTMIN
 10
1.0000000000000000E+020
 20
1.0000000000000000E+020
 30
1.0000000000000000E+020
  9
$PEXTMAX
 10
-1.0000000000000000E+020
 20
-1.0000000000000000E+020
 30
-1.0000000000000000E+020
  9
$PLIMMIN
 10
0.0
 20
0.0
  9
$PLIMMAX
 10
12.0
 20
9.0
  9
$UNITMODE
 70
     0
  9
$VISRETAIN
 70
     0
  9
$PLINEGEN
 70
     0
  9
$PSLTSCALE
 70
     0
  0
ENDSEC
  0
SECTION
  2
TABLES
  0
TABLE
  2
VPORT
 70
     1
  0
VPORT
  2
*ACTIVE
 70
     0
 10
0.0
 20
0.0
 11
1.0
 21
1.0
 12
195.1556119641769
 22
135.27517973251861
 13
0.0
 23
0.0
 14
5.0
 24
5.0
 15
10.0
 25
10.0
 16
0.0
 26
0.0
 36
1.0
 17
0.0
 27
0.0
 37
0.0
 40
278.97316271487409
 41
1.831871345029239
 42
50.0
 43
0.0
 44
0.0
 50
0.0
 51
0.0
 71
     0
 72
   100
 73
     1
 74
     0
 75
     0
 76
     0
 77
     0
 78
     0
  0
ENDTAB
  0
TABLE
  2
LTYPE
 70
     4
  0
LTYPE
  2
CONTINUOUS
 70
     0
  3
Solid Line
 72
    65
 73
     0
 40
0.0
  0
LTYPE
  2
CENTER
 70
     0
  3
____ _ ____ _ ____ _ ____ _ ____ _ ____ _ ____
 72
    65
 73
     4
 40
2.0
 49
1.25
 49
-0.25
 49
0.25
 49
-0.25
  0
LTYPE
  2
HIDDEN
 70
     0
  3
__ __ __ __ __ __ __ __ __ __ __ __ __ __ __ __
 72
    65
 73
     2
 40
0.375
 49
0.25
 49
-0.125
  0
LTYPE
  2
PHANTOM2
 70
     0
  3
___ _ _ ___ _ _ ___ _ _ ___ _ _
 72
    65
 73
     6
 40
1.25
 49
0.625
 49
-0.125
 49
0.125
 49
-0.125
 49
0.125
 49
-0.125
  0
ENDTAB
  0
TABLE
  2
LAYER
 70
     4
  0
LAYER
  2
0
 70
     0
 62
     7
  6
CONTINUOUS
  0
LAYER
  2
1
 70
     0
 62
     1
  6
CENTER
  0
LAYER
  2
2
 70
     0
 62
     2
  6
HIDDEN
  0
LAYER
  2
3
 70
     0
 62
     3
  6
CONTINUOUS
  0
ENDTAB
  0
TABLE
  2
STYLE
 70
     2
  0
STYLE
  2
STANDARD
 70
     0
 40
0.0
 41
1.0
 50
0.0
 71
     0
 42
0.06
  3
TXT
  4
BIGFONT
  0
STYLE
  2
STANDARD1
 70
     0
 40
0.0
 41
1.0
 50
0.0
 71
     0
 42
3.0
  3
txt
  4

  0
ENDTAB
  0
TABLE
  2
VIEW
 70
     0
  0
ENDTAB
  0
TABLE
  2
UCS
 70
     0
  0
ENDTAB
  0
TABLE
  2
APPID
 70
     4
  0
APPID
  2
ACAD
 70
     0
  0
APPID
  2
ACAD_EXEMPT_FROM_CAD_STANDARDS
 70
     0
  0
APPID
  2
ACAD_MLEADERVER
 70
     0
  0
APPID
  2
ACAD_NAV_VCDISPLAY
 70
     0
  0
ENDTAB
  0
TABLE
  2
DIMSTYLE
 70
     1
  0
DIMSTYLE
  2
STANDARD
 70
     0
  3

  4

  5

  6

  7

 40
1.0
 41
0.18
 42
0.0625
 43
0.38
 44
0.18
 45
0.0
 46
0.0
 47
0.0
 48
0.0
140
0.18
141
0.09
142
0.0
143
25.399999999999999
144
1.0
145
0.0
146
1.0
147
0.09
 71
     0
 72
     0
 73
     1
 74
     1
 75
     0
 76
     0
 77
     0
 78
     0
170
     0
171
     2
172
     0
173
     0
174
     0
175
     0
176
     0
177
     0
178
     0
  0
ENDTAB
  0
ENDSEC
  0
SECTION
  2
BLOCKS
  0
BLOCK
  8
0
  2
$MODEL_SPACE
 70
     0
 10
0.0
 20
0.0
 30
0.0
  3
$MODEL_SPACE
  1

  0
ENDBLK
  5
20A
  8
0
  0
BLOCK
 67
     1
  8
0
  2
$PAPER_SPACE
 70
     0
 10
0.0
 20
0.0
 30
0.0
  3
$PAPER_SPACE
  1

  0
ENDBLK
  5
208
 67
     1
  8
0
  0
ENDSEC
  0
SECTION
  2
ENTITIES
  0
LINE
  5
278
  8
0
 10
214.0
 20
145.0
 30
0.0
 11
136.0
 21
145.0
 31
0.0
  0
LINE
  5
279
  8
0
 10
135.0
 20
146.0
 30
0.0
 11
135.0
 21
158.0
 31
0.0
  0
LINE
  5
27A
  8
0
 10
140.19615200000001
 20
161.0
 30
0.0
 11
214.0
 21
161.0
 31
0.0
  0
LINE
  5
27B
  8
0
 10
215.0
 20
160.0
 30
0.0
 11
215.0
 21
146.0
 31
0.0
  0
LINE
  5
27E
  8
1
 10
155.0
 20
140.0
 30
0.0
 11
155.0
 21
166.0
 31
0.0
  0
LINE
  5
27F
  8
2
 10
186.5
 20
150.0
 30
0.0
 11
186.5
 21
161.0
 31
0.0
  0
LINE
  5
280
  8
2
 10
148.34999999999999
 20
145.00059999999999
 30
0.0
 11
148.34999999999999
 21
161.0
 31
0.0
  0
LINE
  5
281
  8
0
 10
135.0
 20
158.0
 30
0.0
 11
140.19615200000001
 21
161.0
 31
0.0
  0
LINE
  5
282
  8
0
 10
214.0
 20
161.0
 30
0.0
 11
215.0
 21
160.0
 31
0.0
  0
LINE
  5
283
  8
0
 10
215.0
 20
146.0
 30
0.0
 11
214.0
 21
145.0
 31
0.0
  0
LINE
  5
284
  8
0
 10
136.0
 20
145.0
 30
0.0
 11
135.0
 21
146.0
 31
0.0
  0
LINE
  5
285
  8
2
 10
215.0
 20
150.0
 30
0.0
 11
180.0
 21
150.0
 31
0.0
  0
LINE
  5
286
  8
2
 10
210.0
 20
150.0
 30
0.0
 11
210.0
 21
161.0
 31
0.0
  0
LINE
  5
287
  8
2
 10
209.053
 20
150.0
 30
0.0
 11
209.053
 21
161.0
 31
0.0
  0
LINE
  5
288
  8
2
 10
198.947
 20
150.0
 30
0.0
 11
198.947
 21
161.0
 31
0.0
  0
LINE
  5
289
  8
2
 10
198.0
 20
150.0
 30
0.0
 11
198.0
 21
161.0
 31
0.0
  0
LINE
  5
28A
  8
0
 10
146.91985
 20
161.0
 30
0.0
 11
146.91985
 21
145.00059999999999
 31
0.0
  0
LINE
  5
28B
  8
1
 10
95.0
 20
210.99422799999999
 30
0.0
 11
95.0
 21
31.000091000000001
 31
0.0
  0
LINE
  5
28C
  8
0
 10
99.0
 20
41.0
 30
0.0
 11
91.0
 21
41.0
 31
0.0
  0
LINE
  5
28D
  8
0
 10
89.0
 20
43.0
 30
0.0
 11
89.0
 21
65.0
 31
0.0
  0
LINE
  5
28E
  8
0
 10
91.0
 20
201.0
 30
0.0
 11
99.0
 21
201.0
 31
0.0
  0
LINE
  5
28F
  8
0
 10
101.0
 20
199.0
 30
0.0
 11
101.0
 21
181.52225100000001
 31
0.0
  0
LINE
  5
290
  8
0
 10
89.0
 20
199.0
 30
0.0
 11
91.0
 21
201.0
 31
0.0
  0
LINE
  5
291
  8
0
 10
101.0
 20
199.0
 30
0.0
 11
99.0
 21
201.0
 31
0.0
  0
LINE
  5
292
  8
0
 10
99.0
 20
41.0
 30
0.0
 11
101.0
 21
43.0
 31
0.0
  0
LINE
  5
293
  8
0
 10
91.0
 20
41.0
 30
0.0
 11
89.0
 21
43.0
 31
0.0
  0
LINE
  5
294
  8
0
 10
89.0
 20
43.0
 30
0.0
 11
101.0
 21
43.0
 31
0.0
  0
LINE
  5
295
  8
3
 10
89.0
 20
82.558845999999988
 30
0.0
 11
89.900000000000006
 21
81.0
 31
0.0
  0
LINE
  5
296
  8
3
 10
89.900000000000006
 20
81.0
 30
0.0
 11
89.900000000000006
 21
72.000000000000014
 31
0.0
  0
LINE
  5
297
  8
0
 10
89.0
 20
81.0
 30
0.0
 11
101.0
 21
81.0
 31
0.0
  0
LINE
  5
298
  8
3
 10
101.0
 20
82.558845999999988
 30
0.0
 11
100.09999999999999
 21
81.0
 31
0.0
  0
LINE
  5
299
  8
3
 10
100.09999999999999
 20
81.0
 30
0.0
 11
100.09999999999999
 21
72.000000000000014
 31
0.0
  0
LINE
  5
29A
  8
3
 10
100.09999999999999
 20
181.52225100000001
 30
0.0
 11
100.09999999999999
 21
199.90000000000001
 31
0.0
  0
LINE
  5
29E
  8
3
 10
89.900000000000006
 20
181.52225100000001
 30
0.0
 11
89.900000000000006
 21
199.90000000000001
 31
0.0
  0
LINE
  5
29F
  8
0
 10
89.0
 20
199.0
 30
0.0
 11
101.0
 21
199.0
 31
0.0
  0
LINE
  5
2A0
  8
0
 10
279.0
 20
194.56633600000001
 30
0.0
 11
271.0
 21
194.56633600000001
 31
0.0
  0
LINE
  5
2A2
  8
0
 10
269.0
 20
79.566335999999993
 30
0.0
 11
281.0
 21
79.566335999999993
 31
0.0
  0
LINE
  5
2A4
  8
0
 10
279.0
 20
194.56633600000001
 30
0.0
 11
281.0
 21
192.56633600000001
 31
0.0
  0
LINE
  5
2A5
  8
0
 10
271.0
 20
194.56633600000001
 30
0.0
 11
269.0
 21
192.56633600000001
 31
0.0
  0
LINE
  5
2A6
  8
0
 10
281.0
 20
192.56633600000001
 30
0.0
 11
269.0
 21
192.56633600000001
 31
0.0
  0
LINE
  5
2A7
  8
0
 10
269.0
 20
79.566335999999993
 30
0.0
 11
271.19999999999999
 21
78.296165000000002
 31
0.0
  0
LINE
  5
2A8
  8
0
 10
281.0
 20
79.566335999999993
 30
0.0
 11
278.80000000000001
 21
78.296165000000002
 31
0.0
  0
ARC
  5
2A9
  8
0
 10
271.0
 20
77.949754999999996
 30
0.0
 40
0.4
 50
7.2160990000001508
 51
59.999999999999858
  0
LINE
  5
2AA
  8
3
 10
269.947
 20
193.51333600000001
 30
0.0
 11
269.947
 21
161.0
 31
0.0
  0
LINE
  5
2AB
  8
3
 10
280.053
 20
193.51333600000001
 30
0.0
 11
280.053
 21
161.0
 31
0.0
  0
ARC
  5
2AD
  8
0
 10
279.0
 20
77.949754999999996
 30
0.0
 40
0.4
 50
120.0000000000001
 51
172.78390099999979
  0
LINE
  5
2AE
  8
0
 10
287.5
 20
66.0
 30
0.0
 11
286.5
 21
65.0
 31
0.0
  0
LINE
  5
2AF
  8
0
 10
286.5
 20
71.0
 30
0.0
 11
287.5
 21
70.0
 31
0.0
  0
LINE
  5
2B0
  8
0
 10
283.0
 20
78.0
 30
0.0
 11
284.0
 21
77.0
 31
0.0
  0
LINE
  5
2B1
  8
0
 10
266.0
 20
77.0
 30
0.0
 11
267.0
 21
78.0
 31
0.0
  0
LINE
  5
2B2
  8
0
 10
262.5
 20
70.0
 30
0.0
 11
263.5
 21
71.0
 31
0.0
  0
LINE
  5
2B3
  8
0
 10
263.5
 20
65.0
 30
0.0
 11
262.5
 21
66.0
 31
0.0
  0
ARC
  5
2B4
  8
0
 10
286.0
 20
73.0
 30
0.0
 40
2.0
 50
180.0
 51
270.0
  0
ARC
  5
2B5
  8
0
 10
264.0
 20
73.0
 30
0.0
 40
2.0
 50
270.0
 51
0.0
  0
LINE
  5
2B6
  8
0
 10
262.5
 20
70.0
 30
0.0
 11
262.5
 21
66.0
 31
0.0
  0
LINE
  5
2B7
  8
0
 10
264.0
 20
71.0
 30
0.0
 11
263.5
 21
71.0
 31
0.0
  0
LINE
  5
2B8
  8
0
 10
266.0
 20
77.0
 30
0.0
 11
266.0
 21
73.0
 31
0.0
  0
LINE
  5
2B9
  8
0
 10
283.0
 20
78.0
 30
0.0
 11
267.0
 21
78.0
 31
0.0
  0
LINE
  5
2BA
  8
0
 10
284.0
 20
73.0
 30
0.0
 11
284.0
 21
77.0
 31
0.0
  0
LINE
  5
2BB
  8
0
 10
286.5
 20
71.0
 30
0.0
 11
286.0
 21
71.0
 31
0.0
  0
LINE
  5
2BC
  8
0
 10
287.5
 20
66.0
 30
0.0
 11
287.5
 21
70.0
 31
0.0
  0
LINE
  5
2BD
  8
0
 10
263.5
 20
65.0
 30
0.0
 11
286.5
 21
65.0
 31
0.0
  0
LINE
  5
2BE
  8
0
 10
263.5
 20
71.0
 30
0.0
 11
286.5
 21
71.0
 31
0.0
  0
LINE
  5
2BF
  8
1
 10
275.0
 20
210.99422799999999
 30
0.0
 11
275.0
 21
31.000091000000001
 31
0.0
  0
LINE
  5
2C0
  8
0
 10
279.0
 20
41.0
 30
0.0
 11
271.0
 21
41.0
 31
0.0
  0
LINE
  5
2C1
  8
0
 10
269.0
 20
43.0
 30
0.0
 11
269.0
 21
65.0
 31
0.0
  0
LINE
  5
2C2
  8
0
 10
271.0
 20
201.0
 30
0.0
 11
279.0
 21
201.0
 31
0.0
  0
LINE
  5
2C3
  8
0
 10
281.0
 20
199.0
 30
0.0
 11
281.0
 21
161.0
 31
0.0
  0
LINE
  5
2C4
  8
0
 10
269.0
 20
199.0
 30
0.0
 11
271.0
 21
201.0
 31
0.0
  0
LINE
  5
2C5
  8
0
 10
281.0
 20
199.0
 30
0.0
 11
279.0
 21
201.0
 31
0.0
  0
LINE
  5
2C6
  8
0
 10
279.0
 20
41.0
 30
0.0
 11
281.0
 21
43.0
 31
0.0
  0
LINE
  5
2C7
  8
0
 10
271.0
 20
41.0
 30
0.0
 11
269.0
 21
43.0
 31
0.0
  0
LINE
  5
2C8
  8
0
 10
269.0
 20
43.0
 30
0.0
 11
281.0
 21
43.0
 31
0.0
  0
LINE
  5
2CA
  8
3
 10
269.89999999999998
 20
79.046720590909089
 30
0.0
 11
269.89999999999998
 21
78.0
 31
0.0
  0
LINE
  5
2CD
  8
3
 10
280.10000000000002
 20
79.046720590909104
 30
0.0
 11
280.10000000000002
 21
78.0
 31
0.0
  0
LINE
  5
2CE
  8
3
 10
280.10000000000002
 20
193.4663359999999
 30
0.0
 11
280.10000000000002
 21
199.90000000000001
 31
0.0
  0
LINE
  5
2D2
  8
3
 10
269.89999999999998
 20
193.46633600000001
 30
0.0
 11
269.89999999999998
 21
199.90000000000001
 31
0.0
  0
LINE
  5
2D3
  8
0
 10
269.0
 20
199.0
 30
0.0
 11
281.0
 21
199.0
 31
0.0
  0
LINE
  5
2D4
  8
1
 10
180.0
 20
210.99422799999999
 30
0.0
 11
180.0
 21
31.000091000000001
 31
0.0
  0
LINE
  5
2D5
  8
0
 10
184.0
 20
41.0
 30
0.0
 11
176.0
 21
41.0
 31
0.0
  0
LINE
  5
2D6
  8
0
 10
174.0
 20
43.0
 30
0.0
 11
174.0
 21
65.0
 31
0.0
  0
LINE
  5
2D7
  8
0
 10
176.0
 20
201.0
 30
0.0
 11
184.0
 21
201.0
 31
0.0
  0
LINE
  5
2D8
  8
0
 10
186.0
 20
199.0
 30
0.0
 11
186.0
 21
181.52225100000001
 31
0.0
  0
LINE
  5
2D9
  8
0
 10
174.0
 20
199.0
 30
0.0
 11
176.0
 21
201.0
 31
0.0
  0
LINE
  5
2DA
  8
0
 10
186.0
 20
199.0
 30
0.0
 11
184.0
 21
201.0
 31
0.0
  0
LINE
  5
2DB
  8
0
 10
184.0
 20
41.0
 30
0.0
 11
186.0
 21
43.0
 31
0.0
  0
LINE
  5
2DC
  8
0
 10
176.0
 20
41.0
 30
0.0
 11
174.0
 21
43.0
 31
0.0
  0
LINE
  5
2DD
  8
0
 10
174.0
 20
43.0
 30
0.0
 11
186.0
 21
43.0
 31
0.0
  0
LINE
  5
2DE
  8
3
 10
174.0
 20
82.558845999999988
 30
0.0
 11
174.90000000000001
 21
81.0
 31
0.0
  0
LINE
  5
2DF
  8
3
 10
174.90000000000001
 20
81.0
 30
0.0
 11
174.90000000000001
 21
72.000000000000014
 31
0.0
  0
LINE
  5
2E0
  8
0
 10
174.0
 20
81.0
 30
0.0
 11
186.0
 21
81.0
 31
0.0
  0
LINE
  5
2E1
  8
3
 10
186.0
 20
82.558845999999988
 30
0.0
 11
185.09999999999999
 21
81.0
 31
0.0
  0
LINE
  5
2E2
  8
3
 10
185.09999999999999
 20
81.0
 30
0.0
 11
185.09999999999999
 21
72.000000000000014
 31
0.0
  0
LINE
  5
2E3
  8
3
 10
185.09999999999999
 20
181.52225100000001
 30
0.0
 11
185.09999999999999
 21
199.90000000000001
 31
0.0
  0
LINE
  5
2E7
  8
3
 10
174.90000000000001
 20
181.52225100000001
 30
0.0
 11
174.90000000000001
 21
199.90000000000001
 31
0.0
  0
LINE
  5
2E8
  8
0
 10
174.0
 20
199.0
 30
0.0
 11
186.0
 21
199.0
 31
0.0
  0
LINE
  5
2E9
  8
0
 10
208.0
 20
194.56633600000001
 30
0.0
 11
200.0
 21
194.56633600000001
 31
0.0
  0
LINE
  5
2EA
  8
0
 10
198.0
 20
192.56633600000001
 30
0.0
 11
198.0
 21
161.0
 31
0.0
  0
LINE
  5
2EB
  8
0
 10
198.0
 20
79.566335999999993
 30
0.0
 11
210.0
 21
79.566335999999993
 31
0.0
  0
LINE
  5
2EC
  8
0
 10
210.0
 20
79.566335999999993
 30
0.0
 11
210.0
 21
145.0
 31
0.0
  0
LINE
  5
2ED
  8
0
 10
208.0
 20
194.56633600000001
 30
0.0
 11
210.0
 21
192.56633600000001
 31
0.0
  0
LINE
  5
2EE
  8
0
 10
200.0
 20
194.56633600000001
 30
0.0
 11
198.0
 21
192.56633600000001
 31
0.0
  0
LINE
  5
2EF
  8
0
 10
210.0
 20
192.56633600000001
 30
0.0
 11
198.0
 21
192.56633600000001
 31
0.0
  0
LINE
  5
2F0
  8
0
 10
198.0
 20
79.566335999999993
 30
0.0
 11
200.19999999999999
 21
78.296165000000002
 31
0.0
  0
LINE
  5
2F1
  8
0
 10
210.0
 20
79.566335999999993
 30
0.0
 11
207.80000000000001
 21
78.296165000000002
 31
0.0
  0
ARC
  5
2F2
  8
0
 10
200.0
 20
77.949754999999996
 30
0.0
 40
0.4
 50
7.216099000000356
 51
59.999999999999858
  0
LINE
  5
2F3
  8
3
 10
198.947
 20
193.51333600000001
 30
0.0
 11
198.947
 21
161.0
 31
0.0
  0
LINE
  5
2F4
  8
3
 10
209.053
 20
193.51333600000001
 30
0.0
 11
209.053
 21
161.0
 31
0.0
  0
LINE
  5
2F5
  8
1
 10
204.0
 20
199.56633600000001
 30
0.0
 11
204.0
 21
59.566335999999993
 31
0.0
  0
ARC
  5
2F6
  8
0
 10
208.0
 20
77.949754999999996
 30
0.0
 40
0.4
 50
120.0000000000001
 51
172.78390099999959
  0
LINE
  5
2F7
  8
0
 10
216.5
 20
66.0
 30
0.0
 11
215.5
 21
65.0
 31
0.0
  0
LINE
  5
2F8
  8
0
 10
215.5
 20
71.0
 30
0.0
 11
216.5
 21
70.0
 31
0.0
  0
LINE
  5
2F9
  8
0
 10
212.0
 20
78.0
 30
0.0
 11
213.0
 21
77.0
 31
0.0
  0
LINE
  5
2FA
  8
0
 10
195.0
 20
77.0
 30
0.0
 11
196.0
 21
78.0
 31
0.0
  0
LINE
  5
2FB
  8
0
 10
191.5
 20
70.0
 30
0.0
 11
192.5
 21
71.0
 31
0.0
  0
LINE
  5
2FC
  8
0
 10
192.5
 20
65.0
 30
0.0
 11
191.5
 21
66.0
 31
0.0
  0
ARC
  5
2FD
  8
0
 10
215.0
 20
73.0
 30
0.0
 40
2.0
 50
180.0
 51
270.0
  0
ARC
  5
2FE
  8
0
 10
193.0
 20
73.0
 30
0.0
 40
2.0
 50
270.0
 51
0.0
  0
LINE
  5
2FF
  8
0
 10
191.5
 20
70.0
 30
0.0
 11
191.5
 21
66.0
 31
0.0
  0
LINE
  5
300
  8
0
 10
193.0
 20
71.0
 30
0.0
 11
192.5
 21
71.0
 31
0.0
  0
LINE
  5
301
  8
0
 10
195.0
 20
77.0
 30
0.0
 11
195.0
 21
73.0
 31
0.0
  0
LINE
  5
302
  8
0
 10
212.0
 20
78.0
 30
0.0
 11
196.0
 21
78.0
 31
0.0
  0
LINE
  5
303
  8
0
 10
213.0
 20
73.0
 30
0.0
 11
213.0
 21
77.0
 31
0.0
  0
LINE
  5
304
  8
0
 10
215.5
 20
71.0
 30
0.0
 11
215.0
 21
71.0
 31
0.0
  0
LINE
  5
305
  8
0
 10
216.5
 20
66.0
 30
0.0
 11
216.5
 21
70.0
 31
0.0
  0
LINE
  5
306
  8
0
 10
192.5
 20
65.0
 30
0.0
 11
215.5
 21
65.0
 31
0.0
  0
LINE
  5
307
  8
0
 10
192.5
 20
71.0
 30
0.0
 11
215.5
 21
71.0
 31
0.0
  0
LINE
  5
308
  8
0
 10
104.5
 20
71.711325000000002
 30
0.0
 11
104.0
 21
72.0
 31
0.0
  0
ARC
  5
309
  8
0
 10
99.750000000000014
 20
57.991641000000001
 30
0.0
 40
13.719684000000001
 50
69.743841999999916
 51
110.2561580000001
  0
LINE
  5
30A
  8
0
 10
104.0
 20
65.0
 30
0.0
 11
104.5
 21
65.360472000000001
 31
0.0
  0
LINE
  5
30B
  8
0
 10
104.5
 20
65.360472000000001
 30
0.0
 11
104.5
 21
71.711325000000002
 31
0.0
  0
ARC
  5
30C
  8
0
 10
99.750000000000014
 20
79.008358999999999
 30
0.0
 40
13.719684000000001
 50
249.74384199999989
 51
290.25615800000008
  0
ARC
  5
30D
  8
0
 10
90.25
 20
79.008358999999999
 30
0.0
 40
13.719684000000001
 50
249.74384199999989
 51
290.25615800000008
  0
LINE
  5
30E
  8
0
 10
85.5
 20
65.360472000000001
 30
0.0
 11
85.5
 21
71.711325000000002
 31
0.0
  0
LINE
  5
30F
  8
0
 10
86.0
 20
65.0
 30
0.0
 11
85.5
 21
65.360472000000001
 31
0.0
  0
ARC
  5
310
  8
0
 10
90.25
 20
57.991641000000001
 30
0.0
 40
13.719684000000001
 50
69.743841999999916
 51
110.2561580000001
  0
LINE
  5
311
  8
0
 10
85.5
 20
71.711325000000002
 30
0.0
 11
86.0
 21
72.0
 31
0.0
  0
LINE
  5
312
  8
0
 10
86.0
 20
72.0
 30
0.0
 11
104.0
 21
72.0
 31
0.0
  0
LINE
  5
314
  8
0
 10
95.0
 20
70.862819000000002
 30
0.0
 11
95.0
 21
66.137180999999984
 31
0.0
  0
LINE
  5
315
  8
0
 10
185.48482799999999
 20
70.862819000000002
 30
0.0
 11
185.48482799999999
 21
66.137180999999984
 31
0.0
  0
LINE
  5
316
  8
0
 10
190.9696549999999
 20
70.862819000000002
 30
0.0
 11
190.9696549999999
 21
66.137180999999984
 31
0.0
  0
LINE
  5
317
  8
0
 10
174.51517200000001
 20
70.862819000000002
 30
0.0
 11
174.51517200000001
 21
66.137180999999984
 31
0.0
  0
LINE
  5
318
  8
0
 10
169.03034500000001
 20
70.862819000000002
 30
0.0
 11
169.03034500000001
 21
66.137180999999984
 31
0.0
  0
LINE
  5
319
  8
0
 10
169.03034500000001
 20
66.137180999999984
 30
0.0
 11
171.0
 21
65.0
 31
0.0
  0
ARC
  5
31A
  8
0
 10
171.77275900000001
 20
70.144738000000004
 30
0.0
 40
4.8560629999999989
 50
244.3842470000001
 51
304.38424700000007
  0
ARC
  5
31B
  8
0
 10
180.0
 20
83.440168999999983
 30
0.0
 40
18.151494
 50
252.41204599999941
 51
287.58795400000059
  0
ARC
  5
31C
  8
0
 10
188.22724099999999
 20
70.144738000000004
 30
0.0
 40
4.8560629999999989
 50
235.6157529999999
 51
295.61575299999993
  0
LINE
  5
31D
  8
0
 10
190.9696549999999
 20
66.137180999999984
 30
0.0
 11
189.0
 21
65.0
 31
0.0
  0
LINE
  5
31E
  8
0
 10
171.0
 20
65.0
 30
0.0
 11
189.0
 21
65.0
 31
0.0
  0
LINE
  5
31F
  8
0
 10
171.0
 20
72.0
 30
0.0
 11
189.0
 21
72.0
 31
0.0
  0
LINE
  5
320
  8
0
 10
190.9696549999999
 20
70.862819000000002
 30
0.0
 11
189.0
 21
72.0
 31
0.0
  0
ARC
  5
321
  8
0
 10
188.22724099999999
 20
66.855261999999996
 30
0.0
 40
4.8560629999999989
 50
64.384247000000116
 51
124.3842470000001
  0
ARC
  5
322
  8
0
 10
180.0
 20
53.559831000000003
 30
0.0
 40
18.151494
 50
72.412045999999393
 51
107.58795400000059
  0
ARC
  5
323
  8
0
 10
171.77275900000001
 20
66.855261999999996
 30
0.0
 40
4.8560629999999989
 50
55.61575299999987
 51
115.6157529999999
  0
LINE
  5
324
  8
0
 10
169.03034500000001
 20
70.862819000000002
 30
0.0
 11
171.0
 21
72.0
 31
0.0
  0
CIRCLE
  5
327
  8
3
 10
180.0
 20
255.5135327593413
 30
0.0
 40
5.0999999999999988
  0
CIRCLE
  5
328
  8
0
 10
180.0
 20
255.5135327593413
 30
0.0
 40
6.0
  0
LINE
  5
329
  8
0
 10
185.71166500000001
 20
246.40642675934129
 30
0.0
 11
190.742818
 21
255.12063875934129
 31
0.0
  0
ARC
  5
32A
  8
0
 10
180.0
 20
255.5135327593413
 30
0.0
 40
10.75
 50
357.90547299999992
 51
2.0945270000001308
  0
LINE
  5
32B
  8
0
 10
190.742818
 20
255.90642675934129
 30
0.0
 11
185.71166500000001
 21
264.62063875934132
 31
0.0
  0
ARC
  5
32C
  8
0
 10
180.0
 20
255.5135327593413
 30
0.0
 40
10.75
 50
57.90547300000047
 51
62.094527000000568
  0
LINE
  5
32D
  8
0
 10
185.03115299999999
 20
265.01353275934127
 30
0.0
 11
174.96884700000001
 21
265.01353275934127
 31
0.0
  0
ARC
  5
32E
  8
0
 10
180.0
 20
255.5135327593413
 30
0.0
 40
10.75
 50
117.9054729999994
 51
122.0945269999995
  0
LINE
  5
32F
  8
0
 10
174.28833499999999
 20
264.62063875934132
 30
0.0
 11
169.257182
 21
255.90642675934129
 31
0.0
  0
ARC
  5
330
  8
0
 10
180.0
 20
255.5135327593413
 30
0.0
 40
10.75
 50
177.9054729999998
 51
182.09452700000011
  0
LINE
  5
331
  8
0
 10
169.257182
 20
255.12063875934129
 30
0.0
 11
174.28833499999999
 21
246.40642675934129
 31
0.0
  0
ARC
  5
332
  8
0
 10
180.0
 20
255.5135327593413
 30
0.0
 40
10.75
 50
237.90547300000051
 51
242.0945270000006
  0
LINE
  5
333
  8
0
 10
174.96884700000001
 20
246.0135327593413
 30
0.0
 11
185.03115299999999
 21
246.0135327593413
 31
0.0
  0
ARC
  5
334
  8
0
 10
180.0
 20
255.5135327593413
 30
0.0
 40
10.75
 50
297.9054729999994
 51
302.09452699999952
  0
CIRCLE
  5
335
  8
0
 10
180.0
 20
255.5135327593413
 30
0.0
 40
13.0
  0
CIRCLE
  5
336
  8
0
 10
180.0
 20
255.5135327593413
 30
0.0
 40
9.0
  0
LINE
  5
337
  8
1
 10
180.0
 20
273.51353275934127
 30
0.0
 11
180.0
 21
237.5135327593413
 31
0.0
  0
LINE
  5
33B
  8
0
 10
86.0
 20
158.0
 30
0.0
 11
83.098731999999998
 21
161.0
 31
0.0
  0
LINE
  5
33C
  8
0
 10
104.0
 20
158.0
 30
0.0
 11
106.901268
 21
161.0
 31
0.0
  0
LINE
  5
33D
  8
0
 10
104.0
 20
158.0
 30
0.0
 11
104.0
 21
145.0
 31
0.0
  0
LINE
  5
33E
  8
0
 10
86.0
 20
158.0
 30
0.0
 11
86.0
 21
145.0
 31
0.0
  0
LINE
  5
33F
  8
0
 10
111.0
 20
160.0
 30
0.0
 11
111.0
 21
146.0
 31
0.0
  0
LINE
  5
340
  8
0
 10
110.0
 20
145.0
 30
0.0
 11
80.0
 21
145.0
 31
0.0
  0
LINE
  5
341
  8
0
 10
79.0
 20
146.0
 30
0.0
 11
79.0
 21
160.0
 31
0.0
  0
LINE
  5
342
  8
0
 10
80.0
 20
161.0
 30
0.0
 11
110.0
 21
161.0
 31
0.0
  0
LINE
  5
344
  8
0
 10
104.0
 20
158.0
 30
0.0
 11
86.0
 21
158.0
 31
0.0
  0
LINE
  5
345
  8
0
 10
80.0
 20
145.0
 30
0.0
 11
79.0
 21
146.0
 31
0.0
  0
LINE
  5
346
  8
0
 10
110.0
 20
145.0
 30
0.0
 11
111.0
 21
146.0
 31
0.0
  0
LINE
  5
347
  8
0
 10
111.0
 20
160.0
 30
0.0
 11
110.0
 21
161.0
 31
0.0
  0
LINE
  5
348
  8
0
 10
80.0
 20
161.0
 30
0.0
 11
79.0
 21
160.0
 31
0.0
  0
LINE
  5
34B
  8
0
 10
259.0
 20
146.0
 30
0.0
 11
259.0
 21
160.0
 31
0.0
  0
LINE
  5
34C
  8
0
 10
260.0
 20
161.0
 30
0.0
 11
290.0
 21
161.0
 31
0.0
  0
LINE
  5
34D
  8
0
 10
291.0
 20
160.0
 30
0.0
 11
291.0
 21
146.0
 31
0.0
  0
LINE
  5
34E
  8
0
 10
290.0
 20
145.0
 30
0.0
 11
260.0
 21
145.0
 31
0.0
  0
LINE
  5
350
  8
0
 10
281.5
 20
150.0
 30
0.0
 11
268.5
 21
150.0
 31
0.0
  0
LINE
  5
351
  8
0
 10
268.5
 20
150.0
 30
0.0
 11
268.5
 21
145.0
 31
0.0
  0
LINE
  5
352
  8
0
 10
281.5
 20
150.0
 30
0.0
 11
281.5
 21
145.0
 31
0.0
  0
LINE
  5
354
  8
0
 10
290.0
 20
161.0
 30
0.0
 11
291.0
 21
160.0
 31
0.0
  0
LINE
  5
355
  8
0
 10
260.0
 20
161.0
 30
0.0
 11
259.0
 21
160.0
 31
0.0
  0
LINE
  5
356
  8
0
 10
259.0
 20
146.0
 30
0.0
 11
260.0
 21
145.0
 31
0.0
  0
LINE
  5
357
  8
0
 10
290.0
 20
145.0
 30
0.0
 11
291.0
 21
146.0
 31
0.0
  0
LINE
  5
358
  8
0
 10
202.26794899999999
 20
252.5135327593413
 30
0.0
 11
205.73205100000001
 21
252.5135327593413
 31
0.0
  0
LINE
  5
359
  8
0
 10
205.73205100000001
 20
252.5135327593413
 30
0.0
 11
207.464102
 21
255.5135327593413
 31
0.0
  0
LINE
  5
35A
  8
0
 10
207.464102
 20
255.5135327593413
 30
0.0
 11
205.73205100000001
 21
258.51353275934127
 31
0.0
  0
LINE
  5
35B
  8
0
 10
205.73205100000001
 20
258.51353275934127
 30
0.0
 11
202.26794899999999
 21
258.51353275934127
 31
0.0
  0
LINE
  5
35C
  8
0
 10
202.26794899999999
 20
258.51353275934127
 30
0.0
 11
200.535898
 21
255.5135327593413
 31
0.0
  0
LINE
  5
35D
  8
0
 10
200.535898
 20
255.5135327593413
 30
0.0
 11
202.26794899999999
 21
252.5135327593413
 31
0.0
  0
CIRCLE
  5
35E
  8
0
 10
204.0
 20
255.5135327593413
 30
0.0
 40
6.0
  0
CIRCLE
  5
35F
  8
3
 10
204.0
 20
255.5135327593413
 30
0.0
 40
5.0529999999999973
  0
LINE
  5
360
  8
1
 10
204.0
 20
270.51353275934127
 30
0.0
 11
204.0
 21
240.5135327593413
 31
0.0
  0
ARC
  5
362
  8
2
 10
204.0
 20
255.5135327593413
 30
0.0
 40
12.5
 50
28.357636576328002
 51
331.64236342367201
  0
CIRCLE
  5
363
  8
2
 10
204.0
 20
255.5135327593413
 30
0.0
 40
9.0
  0
LINE
  5
365
  8
0
 10
213.0
 20
239.5135327593413
 30
0.0
 11
147.12435600000001
 21
239.5135327593413
 31
0.0
  0
LINE
  5
366
  8
0
 10
147.12435600000001
 20
271.51353275934127
 30
0.0
 11
213.0
 21
271.51353275934127
 31
0.0
  0
LINE
  5
367
  8
0
 10
215.0
 20
269.51353275934127
 30
0.0
 11
215.0
 21
241.5135327593413
 31
0.0
  0
LINE
  5
368
  8
1
 10
225.0
 20
255.5135327593413
 30
0.0
 11
125.0
 21
255.5135327593413
 31
0.0
  0
LINE
  5
36B
  8
1
 10
155.0
 20
243.03436575934131
 30
0.0
 11
155.0
 21
267.96976775934132
 31
0.0
  0
CIRCLE
  5
36C
  8
3
 10
204.0
 20
255.5135327593413
 30
0.0
 40
6.0
  0
LINE
  5
36D
  8
0
 10
213.0
 20
271.51353275934127
 30
0.0
 11
215.0
 21
269.51353275934127
 31
0.0
  0
LINE
  5
36E
  8
0
 10
215.0
 20
241.5135327593413
 30
0.0
 11
213.0
 21
239.5135327593413
 31
0.0
  0
LINE
  5
36F
  8
0
 10
135.0
 20
246.5135327593413
 30
0.0
 11
135.0
 21
264.51353275934127
 31
0.0
  0
LINE
  5
370
  8
0
 10
135.0
 20
246.5135327593413
 30
0.0
 11
147.12435600000001
 21
239.5135327593413
 31
0.0
  0
LINE
  5
371
  8
0
 10
135.0
 20
264.51353275934127
 30
0.0
 11
147.12435600000001
 21
271.51353275934127
 31
0.0
  0
LINE
  5
372
  8
0
 10
140.02514300000001
 20
267.41480075934118
 30
0.0
 11
140.02514300000001
 21
243.61226475934129
 31
0.0
  0
LINE
  5
373
  8
0
 10
168.74166975080229
 20
249.0135327593413
 30
0.0
 11
155.0
 21
249.0135327593413
 31
0.0
  0
LINE
  5
374
  8
0
 10
168.74166975080229
 20
262.01353275934127
 30
0.0
 11
155.0
 21
262.01353275934127
 31
0.0
  0
ARC
  5
375
  8
2
 10
180.0
 20
255.5135327593413
 30
0.0
 40
6.5
 50
270.0
 51
90.0
  0
ARC
  5
376
  8
0
 10
155.0
 20
255.5135327593413
 30
0.0
 40
6.5
 50
90.0
 51
270.0
  0
LINE
  5
377
  8
2
 10
168.74166975080229
 20
249.0135327593413
 30
0.0
 11
215.0
 21
249.0135327593413
 31
0.0
  0
LINE
  5
378
  8
2
 10
168.74166975080229
 20
262.01353275934127
 30
0.0
 11
215.0
 21
262.01353275934127
 31
0.0
  0
ARC
  5
379
  8
0
 10
188.0625
 20
177.44278199999999
 30
0.0
 40
4.0794689999999996
 50
71.207401999999249
 51
131.20740200000009
  0
ARC
  5
37A
  8
0
 10
180.0
 20
166.52225100000001
 30
0.0
 40
14.98668
 50
68.98257700000083
 51
90.0
  0
LINE
  5
37B
  8
0
 10
185.375
 20
180.511888
 30
0.0
 11
185.375
 21
168.52225100000001
 31
0.0
  0
LINE
  5
37D
  8
0
 10
174.625
 20
180.511888
 30
0.0
 11
174.625
 21
168.52225100000001
 31
0.0
  0
LINE
  5
37E
  8
0
 10
167.5
 20
168.52225100000001
 30
0.0
 11
192.5
 21
168.52225100000001
 31
0.0
  0
LINE
  5
37F
  8
0
 10
172.45997700000001
 20
163.52225100000001
 30
0.0
 11
187.54002299999999
 21
163.52225100000001
 31
0.0
  0
LINE
  5
380
  8
0
 10
167.5
 20
168.52225100000001
 30
0.0
 11
167.0
 21
168.02225100000001
 31
0.0
  0
LINE
  5
381
  8
0
 10
167.0
 20
168.02225100000001
 30
0.0
 11
167.0
 21
165.52225100000001
 31
0.0
  0
ARC
  5
382
  8
0
 10
168.84999999999999
 20
168.92225099999999
 30
0.0
 40
0.4
 50
270.0
 51
0.0
  0
LINE
  5
383
  8
0
 10
169.25
 20
180.511888
 30
0.0
 11
169.25
 21
168.92225099999999
 31
0.0
  0
ARC
  5
384
  8
0
 10
191.15000000000001
 20
168.92225099999999
 30
0.0
 40
0.4
 50
180.0
 51
270.0
  0
LINE
  5
385
  8
0
 10
192.5
 20
168.52225100000001
 30
0.0
 11
193.0
 21
168.02225100000001
 31
0.0
  0
LINE
  5
386
  8
0
 10
190.75
 20
180.511888
 30
0.0
 11
190.75
 21
168.92225099999999
 31
0.0
  0
LINE
  5
387
  8
0
 10
189.0
 20
181.52225100000001
 30
0.0
 11
171.0
 21
181.52225100000001
 31
0.0
  0
ARC
  5
388
  8
0
 10
180.0
 20
166.52225100000001
 30
0.0
 40
14.98668
 50
90.0
 51
111.0174229999991
  0
ARC
  5
389
  8
0
 10
171.9375
 20
177.44278199999999
 30
0.0
 40
4.0794689999999996
 50
48.79259799999992
 51
108.79259800000069
  0
LINE
  5
38A
  8
0
 10
169.25
 20
180.511888
 30
0.0
 11
171.0
 21
181.52225100000001
 31
0.0
  0
LINE
  5
38B
  8
0
 10
190.75
 20
180.511888
 30
0.0
 11
189.0
 21
181.52225100000001
 31
0.0
  0
LINE
  5
38C
  8
0
 10
193.0
 20
165.52225100000001
 30
0.0
 11
167.0
 21
165.52225100000001
 31
0.0
  0
LINE
  5
38D
  8
0
 10
193.0
 20
168.02225100000001
 30
0.0
 11
193.0
 21
165.52225100000001
 31
0.0
  0
ARC
  5
38E
  8
0
 10
180.0
 20
192.55926299999999
 30
0.0
 40
30.0
 50
244.32071099999951
 51
255.4435279999995
  0
ARC
  5
38F
  8
0
 10
180.0
 20
192.55926299999999
 30
0.0
 40
30.0
 50
284.5564720000005
 51
295.67928900000061
  0
LINE
  5
390
  8
2
 10
172.5
 20
163.362134
 30
0.0
 11
187.5
 21
163.362134
 31
0.0
  0
LINE
  5
391
  8
2
 10
172.5
 20
161.5
 30
0.0
 11
187.5
 21
161.5
 31
0.0
  0
LINE
  5
392
  8
2
 10
172.5
 20
161.5
 30
0.0
 11
172.0
 21
161.0
 31
0.0
  0
LINE
  5
393
  8
2
 10
172.5
 20
163.362134
 30
0.0
 11
172.5
 21
161.5
 31
0.0
  0
LINE
  5
394
  8
2
 10
168.0
 20
165.0
 30
0.0
 11
172.5
 21
163.362134
 31
0.0
  0
LINE
  5
395
  8
2
 10
187.5
 20
161.5
 30
0.0
 11
188.0
 21
161.0
 31
0.0
  0
LINE
  5
396
  8
2
 10
187.5
 20
163.362134
 30
0.0
 11
187.5
 21
161.5
 31
0.0
  0
LINE
  5
397
  8
2
 10
192.0
 20
165.0
 30
0.0
 11
187.5
 21
163.362134
 31
0.0
  0
LINE
  5
398
  8
0
 10
193.0
 20
164.5
 30
0.0
 11
192.5
 21
165.0
 31
0.0
  0
LINE
  5
399
  8
0
 10
192.5
 20
161.0
 30
0.0
 11
193.0
 21
161.5
 31
0.0
  0
LINE
  5
39A
  8
0
 10
167.0
 20
164.5
 30
0.0
 11
167.5
 21
165.0
 31
0.0
  0
LINE
  5
39B
  8
0
 10
167.5
 20
161.0
 30
0.0
 11
167.0
 21
161.5
 31
0.0
  0
LINE
  5
39C
  8
0
 10
167.0
 20
161.5
 30
0.0
 11
167.0
 21
164.5
 31
0.0
  0
LINE
  5
39E
  8
0
 10
193.0
 20
164.5
 30
0.0
 11
193.0
 21
161.5
 31
0.0
  0
LINE
  5
39F
  8
0
 10
167.5
 20
165.0
 30
0.0
 11
192.5
 21
165.0
 31
0.0
  0
ARC
  5
3A3
  8
0
 10
104.90000000000001
 20
168.92225099999999
 30
0.0
 40
0.4
 50
180.0
 51
270.0
  0
ARC
  5
3A4
  8
0
 10
90.25
 20
171.03329500000001
 30
0.0
 40
10.488956
 50
63.072847000000237
 51
116.92715299999971
  0
ARC
  5
3A5
  8
0
 10
99.750000000000014
 20
171.03329500000001
 30
0.0
 40
10.488956
 50
63.072847000000237
 51
116.92715299999971
  0
LINE
  5
3A6
  8
0
 10
86.0
 20
181.52225100000001
 30
0.0
 11
85.5
 21
181.233576
 31
0.0
  0
LINE
  5
3A7
  8
0
 10
104.0
 20
181.52225100000001
 30
0.0
 11
104.5
 21
181.233576
 31
0.0
  0
LINE
  5
3A8
  8
0
 10
104.5
 20
181.233576
 30
0.0
 11
104.5
 21
168.92225099999999
 31
0.0
  0
LINE
  5
3A9
  8
0
 10
86.0
 20
181.52225100000001
 30
0.0
 11
104.0
 21
181.52225100000001
 31
0.0
  0
LINE
  5
3AA
  8
0
 10
95.0
 20
180.38507000000001
 30
0.0
 11
95.0
 21
168.52225100000001
 31
0.0
  0
LINE
  5
3AB
  8
0
 10
85.5
 20
181.233576
 30
0.0
 11
85.5
 21
168.92225099999999
 31
0.0
  0
ARC
  5
3AC
  8
0
 10
95.0
 20
192.55926299999999
 30
0.0
 40
30.0
 50
293.2716333449103
 51
295.67928900000061
  0
LINE
  5
3AD
  8
0
 10
108.0
 20
168.02225100000001
 30
0.0
 11
108.0
 21
165.52225100000001
 31
0.0
  0
LINE
  5
3AE
  8
0
 10
107.5
 20
168.52225100000001
 30
0.0
 11
108.0
 21
168.02225100000001
 31
0.0
  0
ARC
  5
3AF
  8
0
 10
85.099999999999994
 20
168.92225099999999
 30
0.0
 40
0.4
 50
270.0
 51
0.0
  0
ARC
  5
3B0
  8
0
 10
95.0
 20
192.55926299999999
 30
0.0
 40
30.0
 50
244.32071099999951
 51
246.7283666550897
  0
LINE
  5
3B1
  8
0
 10
108.0
 20
165.52225100000001
 30
0.0
 11
82.0
 21
165.52225100000001
 31
0.0
  0
LINE
  5
3B2
  8
0
 10
82.0
 20
168.02225100000001
 30
0.0
 11
82.0
 21
165.52225100000001
 31
0.0
  0
LINE
  5
3B3
  8
0
 10
82.5
 20
168.52225100000001
 30
0.0
 11
82.0
 21
168.02225100000001
 31
0.0
  0
LINE
  5
3B4
  8
0
 10
82.5
 20
168.52225100000001
 30
0.0
 11
107.5
 21
168.52225100000001
 31
0.0
  0
LINE
  5
3B5
  8
2
 10
87.5
 20
163.362134
 30
0.0
 11
102.5
 21
163.362134
 31
0.0
  0
LINE
  5
3B6
  8
2
 10
87.5
 20
161.5
 30
0.0
 11
102.5
 21
161.5
 31
0.0
  0
LINE
  5
3B7
  8
2
 10
87.5
 20
161.5
 30
0.0
 11
87.0
 21
161.0
 31
0.0
  0
LINE
  5
3B8
  8
2
 10
87.5
 20
163.362134
 30
0.0
 11
87.5
 21
161.5
 31
0.0
  0
LINE
  5
3B9
  8
2
 10
83.0
 20
165.0
 30
0.0
 11
87.5
 21
163.362134
 31
0.0
  0
LINE
  5
3BA
  8
2
 10
102.5
 20
161.5
 30
0.0
 11
103.0
 21
161.0
 31
0.0
  0
LINE
  5
3BB
  8
2
 10
102.5
 20
163.362134
 30
0.0
 11
102.5
 21
161.5
 31
0.0
  0
LINE
  5
3BC
  8
2
 10
107.0
 20
165.0
 30
0.0
 11
102.5
 21
163.362134
 31
0.0
  0
LINE
  5
3BD
  8
0
 10
108.0
 20
164.5
 30
0.0
 11
107.5
 21
165.0
 31
0.0
  0
LINE
  5
3BE
  8
0
 10
107.5
 20
161.0
 30
0.0
 11
108.0
 21
161.5
 31
0.0
  0
LINE
  5
3BF
  8
0
 10
82.0
 20
164.5
 30
0.0
 11
82.5
 21
165.0
 31
0.0
  0
LINE
  5
3C0
  8
0
 10
82.5
 20
161.0
 30
0.0
 11
82.0
 21
161.5
 31
0.0
  0
LINE
  5
3C1
  8
0
 10
82.0
 20
161.5
 30
0.0
 11
82.0
 21
164.5
 31
0.0
  0
LINE
  5
3C3
  8
0
 10
108.0
 20
164.5
 30
0.0
 11
108.0
 21
161.5
 31
0.0
  0
LINE
  5
3C4
  8
0
 10
82.5
 20
165.0
 30
0.0
 11
107.5
 21
165.0
 31
0.0
  0
ARC
  5
3C8
  8
0
 10
284.89999999999998
 20
168.92225099999999
 30
0.0
 40
0.4
 50
180.0
 51
270.0
  0
ARC
  5
3C9
  8
0
 10
270.25
 20
171.03329500000001
 30
0.0
 40
10.488956
 50
96.844374531267519
 51
116.92715299999971
  0
ARC
  5
3CA
  8
0
 10
279.75
 20
171.03329500000001
 30
0.0
 40
10.488956
 50
63.072847000000237
 51
83.155625468732481
  0
LINE
  5
3CB
  8
0
 10
266.0
 20
181.52225100000001
 30
0.0
 11
265.5
 21
181.233576
 31
0.0
  0
LINE
  5
3CC
  8
0
 10
284.0
 20
181.52225100000001
 30
0.0
 11
284.5
 21
181.233576
 31
0.0
  0
LINE
  5
3CD
  8
0
 10
284.5
 20
181.233576
 30
0.0
 11
284.5
 21
168.92225099999999
 31
0.0
  0
LINE
  5
3CE
  8
0
 10
266.0
 20
181.52225100000001
 30
0.0
 11
269.0
 21
181.52225100000001
 31
0.0
  0
LINE
  5
3D0
  8
0
 10
265.5
 20
181.233576
 30
0.0
 11
265.5
 21
168.92225099999999
 31
0.0
  0
ARC
  5
3D1
  8
0
 10
275.0
 20
192.55926299999999
 30
0.0
 40
30.0
 50
293.2716333449103
 51
295.67928899999919
  0
LINE
  5
3D2
  8
0
 10
288.0
 20
168.02225100000001
 30
0.0
 11
288.0
 21
165.52225100000001
 31
0.0
  0
LINE
  5
3D3
  8
0
 10
287.5
 20
168.52225100000001
 30
0.0
 11
288.0
 21
168.02225100000001
 31
0.0
  0
ARC
  5
3D4
  8
0
 10
265.10000000000002
 20
168.92225099999999
 30
0.0
 40
0.4
 50
270.0
 51
0.0
  0
ARC
  5
3D5
  8
0
 10
275.0
 20
192.55926299999999
 30
0.0
 40
30.0
 50
244.3207110000009
 51
246.7283666550897
  0
LINE
  5
3D6
  8
0
 10
288.0
 20
165.52225100000001
 30
0.0
 11
281.0
 21
165.52225100000001
 31
0.0
  0
LINE
  5
3D7
  8
0
 10
262.0
 20
168.02225100000001
 30
0.0
 11
262.0
 21
165.52225100000001
 31
0.0
  0
LINE
  5
3D8
  8
0
 10
262.5
 20
168.52225100000001
 30
0.0
 11
262.0
 21
168.02225100000001
 31
0.0
  0
LINE
  5
3D9
  8
0
 10
262.5
 20
168.52225100000001
 30
0.0
 11
269.0
 21
168.52225100000001
 31
0.0
  0
LINE
  5
3E2
  8
0
 10
288.0
 20
164.5
 30
0.0
 11
287.5
 21
165.0
 31
0.0
  0
LINE
  5
3E3
  8
0
 10
287.5
 20
161.0
 30
0.0
 11
288.0
 21
161.5
 31
0.0
  0
LINE
  5
3E4
  8
0
 10
262.0
 20
164.5
 30
0.0
 11
262.5
 21
165.0
 31
0.0
  0
LINE
  5
3E5
  8
0
 10
262.5
 20
161.0
 30
0.0
 11
262.0
 21
161.5
 31
0.0
  0
LINE
  5
3E6
  8
0
 10
262.0
 20
161.5
 30
0.0
 11
262.0
 21
164.5
 31
0.0
  0
LINE
  5
3E8
  8
0
 10
288.0
 20
164.5
 30
0.0
 11
288.0
 21
161.5
 31
0.0
  0
LINE
  5
3E9
  8
0
 10
262.5
 20
165.0
 30
0.0
 11
269.0
 21
165.0
 31
0.0
  0
ARC
  5
3EC
  8
0
 10
204.0
 20
255.50206675934129
 30
0.0
 40
12.511465999999981
 50
331.5452323458706
 51
28.454767654129441
  0
LINE
  5
3ED
  8
0
 10
101.0
 20
65.0
 30
0.0
 11
101.0
 21
43.0
 31
0.0
  0
LINE
  5
3EE
  8
3
 10
100.09999999999999
 20
65.0
 30
0.0
 11
100.09999999999999
 21
42.099999999999987
 31
0.0
  0
LINE
  5
3EF
  8
3
 10
89.900000000000006
 20
65.0
 30
0.0
 11
89.900000000000006
 21
42.099999999999987
 31
0.0
  0
LINE
  5
3F0
  8
0
 10
89.0
 20
72.0
 30
0.0
 11
89.0
 21
145.0
 31
0.0
  0
LINE
  5
3F1
  8
0
 10
186.0
 20
65.0
 30
0.0
 11
186.0
 21
43.0
 31
0.0
  0
LINE
  5
3F2
  8
3
 10
185.09999999999999
 20
65.0
 30
0.0
 11
185.09999999999999
 21
42.099999999999987
 31
0.0
  0
LINE
  5
3F3
  8
3
 10
174.90000000000001
 20
65.0
 30
0.0
 11
174.90000000000001
 21
42.099999999999987
 31
0.0
  0
LINE
  5
3F4
  8
0
 10
174.0
 20
72.0
 30
0.0
 11
174.0
 21
145.0
 31
0.0
  0
LINE
  5
3F5
  8
0
 10
107.5
 20
66.0
 30
0.0
 11
106.5
 21
65.0
 31
0.0
  0
LINE
  5
3F6
  8
0
 10
106.5
 20
71.0
 30
0.0
 11
107.5
 21
70.0
 31
0.0
  0
LINE
  5
3F7
  8
0
 10
103.0
 20
78.0
 30
0.0
 11
104.0
 21
77.0
 31
0.0
  0
LINE
  5
3F8
  8
0
 10
86.0
 20
77.0
 30
0.0
 11
87.0
 21
78.0
 31
0.0
  0
LINE
  5
3F9
  8
0
 10
82.5
 20
70.0
 30
0.0
 11
83.499999999999986
 21
71.0
 31
0.0
  0
LINE
  5
3FA
  8
0
 10
83.499999999999986
 20
65.0
 30
0.0
 11
82.5
 21
66.0
 31
0.0
  0
ARC
  5
3FB
  8
0
 10
106.0
 20
73.0
 30
0.0
 40
2.0
 50
180.0
 51
270.0
  0
ARC
  5
3FC
  8
0
 10
84.0
 20
73.0
 30
0.0
 40
2.0
 50
270.0
 51
0.0
  0
LINE
  5
3FD
  8
0
 10
82.5
 20
70.0
 30
0.0
 11
82.5
 21
66.0
 31
0.0
  0
LINE
  5
3FE
  8
0
 10
84.0
 20
71.0
 30
0.0
 11
83.499999999999986
 21
71.0
 31
0.0
  0
LINE
  5
3FF
  8
0
 10
86.0
 20
77.0
 30
0.0
 11
86.0
 21
73.0
 31
0.0
  0
LINE
  5
400
  8
0
 10
103.0
 20
78.0
 30
0.0
 11
101.0
 21
78.0
 31
0.0
  0
LINE
  5
401
  8
0
 10
104.0
 20
73.0
 30
0.0
 11
104.0
 21
77.0
 31
0.0
  0
LINE
  5
402
  8
0
 10
106.5
 20
71.0
 30
0.0
 11
106.0
 21
71.0
 31
0.0
  0
LINE
  5
403
  8
0
 10
107.5
 20
66.0
 30
0.0
 11
107.5
 21
70.0
 31
0.0
  0
LINE
  5
404
  8
0
 10
83.499999999999986
 20
65.0
 30
0.0
 11
106.5
 21
65.0
 31
0.0
  0
LINE
  5
405
  8
0
 10
83.499999999999986
 20
71.0
 30
0.0
 11
85.5
 21
71.0
 31
0.0
  0
LINE
  5
406
  8
0
 10
89.0
 20
78.0
 30
0.0
 11
87.0
 21
78.0
 31
0.0
  0
LINE
  5
407
  8
0
 10
104.5
 20
71.0
 30
0.0
 11
106.5
 21
71.0
 31
0.0
  0
LINE
  5
408
  8
0
 10
101.0
 20
145.0
 30
0.0
 11
101.0
 21
72.0
 31
0.0
  0
LINE
  5
409
  8
0
 10
89.0
 20
181.52225100000001
 30
0.0
 11
89.0
 21
199.0
 31
0.0
  0
LINE
  5
45E
  8
0
 10
210.0
 20
161.0
 30
0.0
 11
210.0
 21
192.56633600000001
 31
0.0
  0
LINE
  5
45F
  8
3
 10
209.053
 20
145.0
 30
0.0
 11
209.053
 21
79.019585000000006
 31
0.0
  0
LINE
  5
460
  8
3
 10
198.947
 20
145.0
 30
0.0
 11
198.947
 21
79.019585000000006
 31
0.0
  0
LINE
  5
461
  8
0
 10
198.0
 20
145.0
 30
0.0
 11
198.0
 21
79.566335999999993
 31
0.0
  0
LINE
  5
462
  8
0
 10
186.0
 20
145.0
 30
0.0
 11
186.0
 21
72.0
 31
0.0
  0
LINE
  5
463
  8
0
 10
174.0
 20
181.52225100000001
 30
0.0
 11
174.0
 21
199.0
 31
0.0
  0
LINE
  5
4AA
  8
0
 10
281.0
 20
145.0
 30
0.0
 11
281.0
 21
78.0
 31
0.0
  0
LINE
  5
4AB
  8
3
 10
280.053
 20
145.0
 30
0.0
 11
280.053
 21
79.019585000000006
 31
0.0
  0
LINE
  5
4AC
  8
3
 10
269.947
 20
145.0
 30
0.0
 11
269.947
 21
79.019585000000006
 31
0.0
  0
LINE
  5
4AE
  8
0
 10
269.0
 20
161.0
 30
0.0
 11
269.0
 21
199.0
 31
0.0
  0
LINE
  5
4AF
  8
0
 10
281.0
 20
181.52225100000001
 30
0.0
 11
284.0
 21
181.52225100000001
 31
0.0
  0
LINE
  5
4B3
  8
0
 10
281.0
 20
165.0
 30
0.0
 11
287.5
 21
165.0
 31
0.0
  0
LINE
  5
4B4
  8
0
 10
269.0
 20
165.52225100000001
 30
0.0
 11
262.0
 21
165.52225100000001
 31
0.0
  0
LINE
  5
4B5
  8
0
 10
281.0
 20
168.52225100000001
 30
0.0
 11
287.5
 21
168.52225100000001
 31
0.0
  0
LINE
  5
4B6
  8
0
 10
281.0
 20
65.0
 30
0.0
 11
281.0
 21
43.0
 31
0.0
  0
LINE
  5
4B7
  8
3
 10
280.10000000000008
 20
65.0
 30
0.0
 11
280.10000000000002
 21
42.099999999999987
 31
0.0
  0
LINE
  5
4B8
  8
3
 10
269.89999999999998
 20
65.0
 30
0.0
 11
269.89999999999998
 21
42.099999999999987
 31
0.0
  0
LINE
  5
4B9
  8
0
 10
269.0
 20
78.0
 30
0.0
 11
269.0
 21
145.0
 31
0.0
  0
LINE
  5
4BD
  8
0
 10
264.26794942933452
 20
71.0
 30
0.0
 11
265.55627976206722
 21
71.743817966145002
 31
0.0
  0
ARC
  5
4BE
  8
0
 10
266.77275900000001
 20
66.855261999999996
 30
0.0
 40
4.8560629999999989
 50
107.59812074628741
 51
115.6157529999999
  0
ARC
  5
4BF
  8
0
 10
283.22724099999999
 20
66.855261999999996
 30
0.0
 40
4.8560629999999989
 50
64.384247000000045
 51
72.401879253713034
  0
LINE
  5
4C0
  8
0
 10
285.73205057066548
 20
71.0
 30
0.0
 11
284.44372023793278
 21
71.743817966145002
 31
0.0
  0
TEXT
  5
56C
  8
0
 62
     3
 10
0.0
 20
0.0
 30
0.0
 40
10.0
  1
BJ153-12080B3
  7
STANDARD1
  0
ENDSEC
  0
EOF
