  0
SECTION
  2
HEADER
  9
$ACADVER
  1
AC1009
  9
$INSBASE
 10
82.638099999999994
 20
103.82319099999999
 30
0.0
  9
$EXTMIN
 10
0.0
 20
-2.960436562073669
 30
0.0
  9
$EXTMAX
 10
321.0
 20
247.0
 30
0.0
  9
$LIMMIN
 10
0.0
 20
0.0
  9
$LIMMAX
 10
375.0
 20
270.0
  9
$ORTHOMODE
 70
     1
  9
$REGENMODE
 70
     1
  9
$FILLMODE
 70
     1
  9
$QTEXTMODE
 70
     0
  9
$MIRRTEXT
 70
     0
  9
$DRAGMODE
 70
     2
  9
$LTSCALE
 40
10.0
  9
$OSMODE
 70
  3071
  9
$ATTMODE
 70
     1
  9
$TEXTSIZE
 40
0.06
  9
$TRACEWID
 40
0.05
  9
$TEXTSTYLE
  7
STANDARD
  9
$CLAYER
  8
0
  9
$CELTYPE
  6
BYLAYER
  9
$CECOLOR
 62
   256
  9
$DIMSCALE
 40
1.0
  9
$DIMASZ
 40
3.0
  9
$DIMEXO
 40
2.0
  9
$DIMDLI
 40
10.0
  9
$DIMRND
 40
0.0
  9
$DIMDLE
 40
0.0
  9
$DIMEXE
 40
2.0
  9
$DIMTP
 40
0.0
  9
$DIMTM
 40
0.0
  9
$DIMTXT
 40
3.0
  9
$DIMCEN
 40
0.0
  9
$DIMTSZ
 40
0.0
  9
$DIMTOL
 70
     0
  9
$DIMLIM
 70
     0
  9
$DIMTIH
 70
     0
  9
$DIMTOH
 70
     0
  9
$DIMSE1
 70
     0
  9
$DIMSE2
 70
     0
  9
$DIMTAD
 70
     1
  9
$DIMZIN
 70
     0
  9
$DIMBLK
  1

  9
$DIMASO
 70
     0
  9
$DIMSHO
 70
     0
  9
$DIMPOST
  1

  9
$DIMAPOST
  1

  9
$DIMALT
 70
     0
  9
$DIMALTD
 70
     2
  9
$DIMALTF
 40
25.399999999999999
  9
$DIMLFAC
 40
1.0
  9
$DIMTOFL
 70
     1
  9
$DIMTVP
 40
1.6000000000000001
  9
$DIMTIX
 70
     1
  9
$DIMSOXD
 70
     0
  9
$DIMSAH
 70
     0
  9
$DIMBLK1
  1

  9
$DIMBLK2
  1

  9
$DIMSTYLE
  2
STANDARD
  9
$DIMCLRD
 70
     0
  9
$DIMCLRE
 70
     0
  9
$DIMCLRT
 70
     0
  9
$DIMTFAC
 40
1.0
  9
$DIMGAP
 40
0.09
  9
$LUNITS
 70
     2
  9
$LUPREC
 70
     4
  9
$SKETCHINC
 40
0.1
  9
$FILLETRAD
 40
0.0
  9
$AUNITS
 70
     0
  9
$AUPREC
 70
     4
  9
$MENU
  1
E:\r13\win\SUPPORT\ACAD
  9
$ELEVATION
 40
0.0
  9
$PELEVATION
 40
0.0
  9
$THICKNESS
 40
0.0
  9
$LIMCHECK
 70
     0
  9
$BLIPMODE
 70
     0
  9
$CHAMFERA
 40
0.0
  9
$CHAMFERB
 40
0.0
  9
$SKPOLY
 70
     0
  9
$TDCREATE
 40
2449840.3462268519
  9
$TDUPDATE
 40
2456597.6374859721
  9
$TDINDWG
 40
0.0030279745
  9
$TDUSRTIMER
 40
0.0030279745
  9
$USRTIMER
 70
     1
  9
$ANGBASE
 50
0.0
  9
$ANGDIR
 70
     0
  9
$PDMODE
 70
     1
  9
$PDSIZE
 40
0.0
  9
$PLINEWID
 40
0.0
  9
$COORDS
 70
     1
  9
$SPLFRAME
 70
     0
  9
$SPLINETYPE
 70
     6
  9
$SPLINESEGS
 70
     8
  9
$ATTDIA
 70
     0
  9
$ATTREQ
 70
     1
  9
$HANDLING
 70
     1
  9
$HANDSEED
  5
720
  9
$SURFTAB1
 70
     6
  9
$SURFTAB2
 70
     6
  9
$SURFTYPE
 70
     6
  9
$SURFU
 70
     6
  9
$SURFV
 70
     6
  9
$UCSNAME
  2

  9
$UCSORG
 10
0.0
 20
0.0
 30
0.0
  9
$UCSXDIR
 10
1.0
 20
0.0
 30
0.0
  9
$UCSYDIR
 10
0.0
 20
1.0
 30
0.0
  9
$PUCSNAME
  2

  9
$PUCSORG
 10
0.0
 20
0.0
 30
0.0
  9
$PUCSXDIR
 10
1.0
 20
0.0
 30
0.0
  9
$PUCSYDIR
 10
0.0
 20
1.0
 30
0.0
  9
$USERI1
 70
     3
  9
$USERI2
 70
     1
  9
$USERI3
 70
     0
  9
$USERI4
 70
     0
  9
$USERI5
 70
     0
  9
$USERR1
 40
1.0
  9
$USERR2
 40
3.0
  9
$USERR3
 40
3.0
  9
$USERR4
 40
3.0
  9
$USERR5
 40
10.0
  9
$WORLDVIEW
 70
     1
  9
$SHADEDGE
 70
     3
  9
$SHADEDIF
 70
    70
  9
$TILEMODE
 70
     1
  9
$MAXACTVP
 70
    16
  9
$PLIMCHECK
 70
     0
  9
$PEXTMIN
 10
1.0000000000000000E+020
 20
1.0000000000000000E+020
 30
1.0000000000000000E+020
  9
$PEXTMAX
 10
-1.0000000000000000E+020
 20
-1.0000000000000000E+020
 30
-1.0000000000000000E+020
  9
$PLIMMIN
 10
0.0
 20
0.0
  9
$PLIMMAX
 10
12.0
 20
9.0
  9
$UNITMODE
 70
     0
  9
$VISRETAIN
 70
     0
  9
$PLINEGEN
 70
     0
  9
$PSLTSCALE
 70
     0
  0
ENDSEC
  0
SECTION
  2
TABLES
  0
TABLE
  2
VPORT
 70
     1
  0
VPORT
  2
*ACTIVE
 70
     0
 10
0.0
 20
0.0
 11
1.0
 21
1.0
 12
195.0581083320873
 22
133.5127261426681
 13
0.0
 23
0.0
 14
5.0
 24
5.0
 15
10.0
 25
10.0
 16
0.0
 26
0.0
 36
1.0
 17
0.0
 27
0.0
 37
0.0
 40
275.42274993631997
 41
1.831871345029239
 42
50.0
 43
0.0
 44
0.0
 50
0.0
 51
0.0
 71
     0
 72
   100
 73
     1
 74
     0
 75
     0
 76
     0
 77
     0
 78
     0
  0
ENDTAB
  0
TABLE
  2
LTYPE
 70
     4
  0
LTYPE
  2
CONTINUOUS
 70
     0
  3
Solid Line
 72
    65
 73
     0
 40
0.0
  0
LTYPE
  2
CENTER
 70
     0
  3
____ _ ____ _ ____ _ ____ _ ____ _ ____ _ ____
 72
    65
 73
     4
 40
2.0
 49
1.25
 49
-0.25
 49
0.25
 49
-0.25
  0
LTYPE
  2
HIDDEN
 70
     0
  3
__ __ __ __ __ __ __ __ __ __ __ __ __ __ __ __
 72
    65
 73
     2
 40
0.375
 49
0.25
 49
-0.125
  0
LTYPE
  2
PHANTOM2
 70
     0
  3
___ _ _ ___ _ _ ___ _ _ ___ _ _
 72
    65
 73
     6
 40
1.25
 49
0.625
 49
-0.125
 49
0.125
 49
-0.125
 49
0.125
 49
-0.125
  0
ENDTAB
  0
TABLE
  2
LAYER
 70
     4
  0
LAYER
  2
0
 70
     0
 62
     7
  6
CONTINUOUS
  0
LAYER
  2
1
 70
     0
 62
     1
  6
CENTER
  0
LAYER
  2
2
 70
     0
 62
     2
  6
HIDDEN
  0
LAYER
  2
3
 70
     0
 62
     3
  6
CONTINUOUS
  0
ENDTAB
  0
TABLE
  2
STYLE
 70
     2
  0
STYLE
  2
STANDARD
 70
     0
 40
0.0
 41
1.0
 50
0.0
 71
     0
 42
0.06
  3
TXT
  4
BIGFONT
  0
STYLE
  2
STANDARD1
 70
     0
 40
0.0
 41
1.0
 50
0.0
 71
     0
 42
3.0
  3
txt
  4

  0
ENDTAB
  0
TABLE
  2
VIEW
 70
     0
  0
ENDTAB
  0
TABLE
  2
UCS
 70
     0
  0
ENDTAB
  0
TABLE
  2
APPID
 70
     3
  0
APPID
  2
ACAD
 70
     0
  0
APPID
  2
ACAD_MLEADERVER
 70
     0
  0
APPID
  2
ACAD_NAV_VCDISPLAY
 70
     0
  0
ENDTAB
  0
TABLE
  2
DIMSTYLE
 70
     1
  0
DIMSTYLE
  2
STANDARD
 70
     0
  3

  4

  5

  6

  7

 40
1.0
 41
0.18
 42
0.0625
 43
0.38
 44
0.18
 45
0.0
 46
0.0
 47
0.0
 48
0.0
140
0.18
141
0.09
142
0.0
143
25.399999999999999
144
1.0
145
0.0
146
1.0
147
0.09
 71
     0
 72
     0
 73
     1
 74
     1
 75
     0
 76
     0
 77
     0
 78
     0
170
     0
171
     2
172
     0
173
     0
174
     0
175
     0
176
     0
177
     0
178
     0
  0
ENDTAB
  0
ENDSEC
  0
SECTION
  2
BLOCKS
  0
BLOCK
  8
0
  2
$MODEL_SPACE
 70
     0
 10
0.0
 20
0.0
 30
0.0
  3
$MODEL_SPACE
  1

  0
ENDBLK
  5
222
  8
0
  0
BLOCK
 67
     1
  8
0
  2
$PAPER_SPACE
 70
     0
 10
0.0
 20
0.0
 30
0.0
  3
$PAPER_SPACE
  1

  0
ENDBLK
  5
220
 67
     1
  8
0
  0
ENDSEC
  0
SECTION
  2
ENTITIES
  0
CIRCLE
  5
433
  8
0
 10
195.0
 20
225.0
 30
0.0
 40
5.0999999999999988
  0
CIRCLE
  5
434
  8
3
 10
195.0
 20
225.0
 30
0.0
 40
6.0
  0
LINE
  5
435
  8
0
 10
200.71166500000001
 20
215.89289400000001
 30
0.0
 11
205.742818
 21
224.60710599999999
 31
0.0
  0
ARC
  5
436
  8
0
 10
195.0
 20
225.0
 30
0.0
 40
10.75
 50
357.90547299999992
 51
2.094527000000046
  0
LINE
  5
437
  8
0
 10
205.742818
 20
225.39289400000001
 30
0.0
 11
200.71166500000001
 21
234.10710599999999
 31
0.0
  0
ARC
  5
438
  8
0
 10
195.0
 20
225.0
 30
0.0
 40
10.75
 50
57.905472999998601
 51
62.094526999998649
  0
LINE
  5
439
  8
0
 10
200.03115299999999
 20
234.5
 30
0.0
 11
189.96884700000001
 21
234.5
 31
0.0
  0
ARC
  5
43A
  8
0
 10
195.0
 20
225.0
 30
0.0
 40
10.75
 50
117.90547300000129
 51
122.09452700000141
  0
LINE
  5
43B
  8
0
 10
189.2883349999999
 20
234.10710599999999
 30
0.0
 11
184.257182
 21
225.39289400000001
 31
0.0
  0
ARC
  5
43C
  8
0
 10
195.0
 20
225.0
 30
0.0
 40
10.75
 50
177.90547299999989
 51
182.094527
  0
LINE
  5
43D
  8
0
 10
184.257182
 20
224.60710599999999
 30
0.0
 11
189.2883349999999
 21
215.89289400000001
 31
0.0
  0
ARC
  5
43E
  8
0
 10
195.0
 20
225.0
 30
0.0
 40
10.75
 50
237.90547299999861
 51
242.09452699999861
  0
LINE
  5
43F
  8
0
 10
189.96884700000001
 20
215.5
 30
0.0
 11
200.03115299999999
 21
215.5
 31
0.0
  0
ARC
  5
440
  8
0
 10
195.0
 20
225.0
 30
0.0
 40
10.75
 50
297.90547300000128
 51
302.09452700000151
  0
CIRCLE
  5
441
  8
0
 10
195.0
 20
225.0
 30
0.0
 40
13.0
  0
CIRCLE
  5
442
  8
0
 10
195.0
 20
225.0
 30
0.0
 40
9.0
  0
LINE
  5
443
  8
1
 10
195.0
 20
243.0
 30
0.0
 11
195.0
 21
207.0
 31
0.0
  0
LINE
  5
444
  8
0
 10
208.0
 20
137.5
 30
0.0
 11
207.5
 21
138.0
 31
0.0
  0
LINE
  5
445
  8
0
 10
207.5
 20
134.0
 30
0.0
 11
208.0
 21
134.5
 31
0.0
  0
LINE
  5
446
  8
0
 10
182.0
 20
137.5
 30
0.0
 11
182.5
 21
138.0
 31
0.0
  0
LINE
  5
447
  8
0
 10
182.5
 20
134.0
 30
0.0
 11
182.0
 21
134.5
 31
0.0
  0
LINE
  5
448
  8
0
 10
182.0
 20
134.5
 30
0.0
 11
182.0
 21
137.5
 31
0.0
  0
LINE
  5
449
  8
0
 10
207.5
 20
134.0
 30
0.0
 11
182.5
 21
134.0
 31
0.0
  0
LINE
  5
44A
  8
0
 10
208.0
 20
137.5
 30
0.0
 11
208.0
 21
134.5
 31
0.0
  0
LINE
  5
44B
  8
0
 10
182.5
 20
138.0
 30
0.0
 11
207.5
 21
138.0
 31
0.0
  0
ARC
  5
44C
  8
0
 10
203.0625
 20
150.44278199999999
 30
0.0
 40
4.0794689999999996
 50
71.207401999997529
 51
131.20740199999861
  0
ARC
  5
44D
  8
0
 10
195.0
 20
139.5222509999999
 30
0.0
 40
14.98668
 50
68.982576999998983
 51
90.0
  0
LINE
  5
44E
  8
0
 10
200.375
 20
153.511888
 30
0.0
 11
200.375
 21
141.5222509999999
 31
0.0
  0
LINE
  5
44F
  8
0
 10
189.625
 20
153.511888
 30
0.0
 11
189.625
 21
141.5222509999999
 31
0.0
  0
LINE
  5
450
  8
0
 10
182.5
 20
141.5222509999999
 30
0.0
 11
207.5
 21
141.5222509999999
 31
0.0
  0
LINE
  5
451
  8
0
 10
182.5
 20
141.5222509999999
 30
0.0
 11
182.0
 21
141.02225100000001
 31
0.0
  0
LINE
  5
452
  8
0
 10
182.0
 20
141.02225100000001
 30
0.0
 11
182.0
 21
138.52225100000001
 31
0.0
  0
ARC
  5
453
  8
0
 10
183.84999999999999
 20
141.92225099999999
 30
0.0
 40
0.4
 50
270.0
 51
0.0
  0
LINE
  5
454
  8
0
 10
184.25
 20
153.511888
 30
0.0
 11
184.25
 21
141.92225099999999
 31
0.0
  0
ARC
  5
455
  8
0
 10
206.15000000000001
 20
141.92225099999999
 30
0.0
 40
0.4
 50
180.0
 51
270.0
  0
LINE
  5
456
  8
0
 10
207.5
 20
141.5222509999999
 30
0.0
 11
208.0
 21
141.02225100000001
 31
0.0
  0
LINE
  5
457
  8
0
 10
205.75
 20
153.511888
 30
0.0
 11
205.75
 21
141.92225099999999
 31
0.0
  0
LINE
  5
458
  8
0
 10
204.0
 20
154.52225100000001
 30
0.0
 11
186.0
 21
154.52225100000001
 31
0.0
  0
ARC
  5
459
  8
0
 10
195.0
 20
139.5222509999999
 30
0.0
 40
14.98668
 50
90.0
 51
111.017423000001
  0
ARC
  5
45A
  8
0
 10
186.9375
 20
150.44278199999999
 30
0.0
 40
4.0794689999999996
 50
48.792598000001391
 51
108.7925980000025
  0
LINE
  5
45B
  8
0
 10
184.25
 20
153.511888
 30
0.0
 11
186.0
 21
154.52225100000001
 31
0.0
  0
LINE
  5
45C
  8
0
 10
205.75
 20
153.511888
 30
0.0
 11
204.0
 21
154.52225100000001
 31
0.0
  0
LINE
  5
45D
  8
0
 10
208.0
 20
138.52225100000001
 30
0.0
 11
182.0
 21
138.52225100000001
 31
0.0
  0
LINE
  5
45E
  8
0
 10
208.0
 20
141.02225100000001
 30
0.0
 11
208.0
 21
138.52225100000001
 31
0.0
  0
ARC
  5
45F
  8
0
 10
195.0
 20
165.55926299999999
 30
0.0
 40
30.0
 50
244.3207109999978
 51
246.7283666550868
  0
ARC
  5
460
  8
0
 10
195.0
 20
165.55926299999999
 30
0.0
 40
30.0
 50
293.2716333449132
 51
295.6792890000022
  0
LINE
  5
461
  8
1
 10
195.0
 20
183.5
 30
0.0
 11
195.0
 21
43.5
 31
0.0
  0
LINE
  5
462
  8
0
 10
199.0
 20
51.0
 30
0.0
 11
191.0
 21
51.0
 31
0.0
  0
LINE
  5
463
  8
0
 10
189.0
 20
53.0
 30
0.0
 11
189.0
 21
75.0
 31
0.0
  0
LINE
  5
464
  8
0
 10
189.0
 20
82.0
 30
0.0
 11
189.0
 21
115.0
 31
0.0
  0
LINE
  5
465
  8
0
 10
189.0
 20
154.52225100000001
 30
0.0
 11
189.0
 21
174.0
 31
0.0
  0
LINE
  5
466
  8
0
 10
191.0
 20
176.0
 30
0.0
 11
199.0
 21
176.0
 31
0.0
  0
LINE
  5
467
  8
0
 10
201.0
 20
174.0
 30
0.0
 11
201.0
 21
154.52225100000001
 31
0.0
  0
LINE
  5
468
  8
0
 10
201.0
 20
115.0
 30
0.0
 11
201.0
 21
82.0
 31
0.0
  0
LINE
  5
469
  8
0
 10
201.0
 20
75.0
 30
0.0
 11
201.0
 21
53.0
 31
0.0
  0
LINE
  5
46A
  8
0
 10
189.0
 20
174.0
 30
0.0
 11
191.0
 21
176.0
 31
0.0
  0
LINE
  5
46B
  8
0
 10
201.0
 20
174.0
 30
0.0
 11
199.0
 21
176.0
 31
0.0
  0
LINE
  5
46C
  8
0
 10
199.0
 20
51.0
 30
0.0
 11
201.0
 21
53.0
 31
0.0
  0
LINE
  5
46D
  8
0
 10
191.0
 20
51.0
 30
0.0
 11
189.0
 21
53.0
 31
0.0
  0
LINE
  5
46E
  8
0
 10
189.0
 20
53.0
 30
0.0
 11
201.0
 21
53.0
 31
0.0
  0
LINE
  5
470
  8
3
 10
189.90000000000001
 20
75.0
 30
0.0
 11
189.90000000000001
 21
52.099999999999987
 31
0.0
  0
LINE
  5
472
  8
3
 10
200.09999999999999
 20
75.0
 30
0.0
 11
200.09999999999999
 21
52.099999999999987
 31
0.0
  0
LINE
  5
473
  8
3
 10
200.09999999999999
 20
154.52225100000001
 30
0.0
 11
200.09999999999999
 21
174.90000000000001
 31
0.0
  0
LINE
  5
474
  8
3
 10
189.90000000000009
 20
154.52225100000001
 30
0.0
 11
189.90000000000001
 21
174.90000000000001
 31
0.0
  0
LINE
  5
475
  8
0
 10
189.0
 20
174.0
 30
0.0
 11
201.0
 21
174.0
 31
0.0
  0
LINE
  5
476
  8
1
 10
245.0
 20
203.0
 30
0.0
 11
245.0
 21
247.0
 31
0.0
  0
ARC
  5
477
  8
0
 10
245.0
 20
225.0
 30
0.0
 40
12.5
 50
331.26020500000061
 51
343.73979499999888
  0
ARC
  5
478
  8
0
 10
245.0
 20
225.0
 30
0.0
 40
12.5
 50
293.57817847820041
 51
298.73979500000121
  0
ARC
  5
479
  8
0
 10
245.0
 20
225.0
 30
0.0
 40
12.5
 50
16.260205000001079
 51
28.739794999999351
  0
LINE
  5
47A
  8
0
 10
251.01040800000001
 20
214.03984500000001
 30
0.0
 11
255.96015499999999
 21
218.98959199999999
 31
0.0
  0
LINE
  5
47B
  8
0
 10
251.01040800000001
 20
235.96015499999999
 30
0.0
 11
255.96015499999999
 21
231.01040800000001
 31
0.0
  0
LINE
  5
47C
  8
0
 10
257.0
 20
228.5
 30
0.0
 11
257.0
 21
221.5
 31
0.0
  0
ARC
  5
47D
  8
0
 10
245.0
 20
225.0
 30
0.0
 40
12.5
 50
61.260204999998848
 51
66.421821521799586
  0
ARC
  5
47E
  8
0
 10
245.0
 20
225.0
 30
0.0
 40
11.0
 50
174.8502916678531
 51
185.14970833214679
  0
ARC
  5
47F
  8
0
 10
245.0
 20
225.0
 30
0.0
 40
11.0
 50
297.03569178941478
 51
62.964308210585152
  0
ARC
  5
480
  8
0
 10
245.0
 20
225.0
 30
0.0
 40
6.0
 50
130.19399648407531
 51
229.80600351592469
  0
ARC
  5
481
  8
0
 10
245.0
 20
225.0
 30
0.0
 40
6.0
 50
326.44269023807931
 51
33.557309761920649
  0
LINE
  5
482
  8
1
 10
111.9475843372386
 20
225.0
 30
0.0
 11
267.0
 21
225.0
 31
0.0
  0
LINE
  5
483
  8
1
 10
245.0
 20
121.5
 30
0.0
 11
245.0
 21
39.5
 31
0.0
  0
LINE
  5
484
  8
0
 10
249.0
 20
47.0
 30
0.0
 11
241.0
 21
47.0
 31
0.0
  0
LINE
  5
485
  8
0
 10
239.0
 20
49.0
 30
0.0
 11
251.0
 21
49.0
 31
0.0
  0
LINE
  5
486
  8
0
 10
239.0
 20
102.725055
 30
0.0
 11
251.0
 21
102.725055
 31
0.0
  0
LINE
  5
487
  8
0
 10
251.00000199999999
 20
115.0
 30
0.0
 11
251.00000199999999
 21
118.5
 31
0.0
  0
LINE
  5
488
  8
0
 10
250.50000199999999
 20
119.0
 30
0.0
 11
250.0
 21
119.0
 31
0.0
  0
LINE
  5
489
  8
0
 10
250.50000199999999
 20
119.0
 30
0.0
 11
251.00000199999999
 21
118.5
 31
0.0
  0
LINE
  5
48A
  8
0
 10
251.0
 20
49.0
 30
0.0
 11
251.0
 21
75.0
 31
0.0
  0
LINE
  5
48B
  8
0
 10
251.0
 20
82.0
 30
0.0
 11
251.0
 21
104.59999999999999
 31
0.0
  0
LINE
  5
48C
  8
3
 10
250.053
 20
48.05299999999999
 30
0.0
 11
250.053
 21
75.0
 31
0.0
  0
LINE
  5
48D
  8
3
 10
250.053
 20
82.0
 30
0.0
 11
250.053
 21
102.725055
 31
0.0
  0
LINE
  5
48E
  8
0
 10
251.0
 20
49.0
 30
0.0
 11
249.0
 21
47.0
 31
0.0
  0
LINE
  5
48F
  8
3
 10
250.053
 20
102.725055
 30
0.0
 11
251.0
 21
104.365307
 31
0.0
  0
ARC
  5
490
  8
0
 10
251.40000000000001
 20
104.59999999999999
 30
0.0
 40
0.4
 50
90.0
 51
180.0
  0
ARC
  5
491
  8
0
 10
238.59999999999999
 20
104.59999999999999
 30
0.0
 40
0.4
 50
0.0
 51
90.0
  0
LINE
  5
492
  8
3
 10
239.947
 20
102.725055
 30
0.0
 11
239.0
 21
104.365307
 31
0.0
  0
LINE
  5
493
  8
0
 10
239.0
 20
49.0
 30
0.0
 11
241.0
 21
47.0
 31
0.0
  0
LINE
  5
494
  8
3
 10
239.947
 20
48.05299999999999
 30
0.0
 11
239.947
 21
75.0
 31
0.0
  0
LINE
  5
495
  8
3
 10
239.947
 20
82.0
 30
0.0
 11
239.947
 21
102.725055
 31
0.0
  0
LINE
  5
496
  8
0
 10
239.0
 20
49.0
 30
0.0
 11
239.0
 21
75.0
 31
0.0
  0
LINE
  5
497
  8
0
 10
239.0
 20
82.0
 30
0.0
 11
239.0
 21
104.59999999999999
 31
0.0
  0
LINE
  5
498
  8
0
 10
234.00000700000001
 20
115.0
 30
0.0
 11
256.00000699999998
 21
115.0
 31
0.0
  0
LINE
  5
499
  8
0
 10
256.00000699999998
 20
115.0
 30
0.0
 11
257.00000699999998
 21
114.42265
 31
0.0
  0
LINE
  5
49A
  8
0
 10
257.00000699999998
 20
114.13397500000001
 30
0.0
 11
255.96016200000011
 21
114.13397500000001
 31
0.0
  0
ARC
  5
49B
  8
0
 10
253.485288
 20
103.669501
 30
0.0
 40
10.753149000000001
 50
76.693897000000902
 51
103.3061029999991
  0
ARC
  5
49C
  8
0
 10
245.00000700000001
 20
93.060689999999994
 30
0.0
 40
21.36196
 50
80.569992000003438
 51
99.430007999996576
  0
LINE
  5
49D
  8
0
 10
251.01041499999999
 20
114.13397500000001
 30
0.0
 11
248.50000700000001
 21
114.13397500000001
 31
0.0
  0
LINE
  5
49E
  8
0
 10
241.50000700000001
 20
114.13397500000001
 30
0.0
 11
238.989599
 21
114.13397500000001
 31
0.0
  0
LINE
  5
49F
  8
0
 10
238.989599
 20
114.13397500000001
 30
0.0
 11
241.50000700000001
 21
114.13397500000001
 31
0.0
  0
ARC
  5
4A0
  8
0
 10
236.514726
 20
103.669501
 30
0.0
 40
10.753149000000001
 50
76.693897000000902
 51
103.3061029999991
  0
LINE
  5
4A1
  8
0
 10
233.00000700000001
 20
114.13397500000001
 30
0.0
 11
234.039852
 21
114.13397500000001
 31
0.0
  0
LINE
  5
4A2
  8
0
 10
234.00000700000001
 20
115.0
 30
0.0
 11
233.00000700000001
 21
114.42265
 31
0.0
  0
LINE
  5
4A3
  8
0
 10
234.039852
 20
114.13397500000001
 30
0.0
 11
233.00000700000001
 21
114.13397500000001
 31
0.0
  0
LINE
  5
4A4
  8
0
 10
234.039852
 20
105.86602499999999
 30
0.0
 11
233.00000700000001
 21
105.86602499999999
 31
0.0
  0
LINE
  5
4A5
  8
0
 10
238.989599
 20
105.86602499999999
 30
0.0
 11
238.989599
 21
114.13397500000001
 31
0.0
  0
LINE
  5
4A6
  8
0
 10
233.00000700000001
 20
105.57735
 30
0.0
 11
233.00000700000001
 21
114.42265
 31
0.0
  0
LINE
  5
4A7
  8
0
 10
234.039852
 20
105.86602499999999
 30
0.0
 11
234.039852
 21
114.13397500000001
 31
0.0
  0
LINE
  5
4A8
  8
0
 10
234.00000700000001
 20
105.0
 30
0.0
 11
233.00000700000001
 21
105.57735
 31
0.0
  0
LINE
  5
4A9
  8
0
 10
233.00000700000001
 20
105.86602499999999
 30
0.0
 11
234.039852
 21
105.86602499999999
 31
0.0
  0
ARC
  5
4AA
  8
0
 10
236.514726
 20
116.330499
 30
0.0
 40
10.753149000000001
 50
256.6938970000009
 51
283.3061029999991
  0
LINE
  5
4AB
  8
0
 10
238.989599
 20
105.86602499999999
 30
0.0
 11
241.50000700000001
 21
105.86602499999999
 31
0.0
  0
LINE
  5
4AC
  8
0
 10
241.50000700000001
 20
105.86602499999999
 30
0.0
 11
238.989599
 21
105.86602499999999
 31
0.0
  0
LINE
  5
4AD
  8
0
 10
251.01041499999999
 20
105.86602499999999
 30
0.0
 11
248.50000700000001
 21
105.86602499999999
 31
0.0
  0
ARC
  5
4AE
  8
0
 10
245.00000700000001
 20
126.93931000000001
 30
0.0
 40
21.36196
 50
260.56999200000348
 51
279.43000799999652
  0
LINE
  5
4AF
  8
0
 10
241.50000700000001
 20
105.86602499999999
 30
0.0
 11
241.50000700000001
 21
114.13397500000001
 31
0.0
  0
ARC
  5
4B0
  8
0
 10
253.485288
 20
116.330499
 30
0.0
 40
10.753149000000001
 50
256.6938970000009
 51
283.3061029999991
  0
LINE
  5
4B1
  8
0
 10
257.00000699999998
 20
105.86602499999999
 30
0.0
 11
255.96016200000011
 21
105.86602499999999
 31
0.0
  0
LINE
  5
4B2
  8
0
 10
255.96016200000011
 20
105.86602499999999
 30
0.0
 11
255.96016200000011
 21
114.13397500000001
 31
0.0
  0
LINE
  5
4B3
  8
0
 10
256.00000699999998
 20
105.0
 30
0.0
 11
257.00000699999998
 21
105.57735
 31
0.0
  0
LINE
  5
4B4
  8
0
 10
251.01041499999999
 20
105.86602499999999
 30
0.0
 11
251.01041499999999
 21
114.13397500000001
 31
0.0
  0
LINE
  5
4B5
  8
0
 10
248.50000700000001
 20
105.86602499999999
 30
0.0
 11
248.50000700000001
 21
114.13397500000001
 31
0.0
  0
LINE
  5
4B6
  8
0
 10
257.00000699999998
 20
105.57735
 30
0.0
 11
257.00000699999998
 21
114.42265
 31
0.0
  0
LINE
  5
4B7
  8
0
 10
234.00000700000001
 20
105.0
 30
0.0
 11
255.96016200000011
 21
105.0
 31
0.0
  0
LINE
  5
4B8
  8
0
 10
250.48482799999999
 20
80.862819000000016
 30
0.0
 11
250.48482799999999
 21
76.137180999999984
 31
0.0
  0
LINE
  5
4B9
  8
0
 10
255.96965499999999
 20
80.862819000000016
 30
0.0
 11
255.96965499999999
 21
76.137180999999984
 31
0.0
  0
LINE
  5
4BA
  8
0
 10
239.51517200000001
 20
80.862819000000016
 30
0.0
 11
239.51517200000001
 21
76.137180999999984
 31
0.0
  0
LINE
  5
4BB
  8
0
 10
234.03034500000001
 20
80.862819000000016
 30
0.0
 11
234.03034500000001
 21
76.137180999999984
 31
0.0
  0
LINE
  5
4BC
  8
0
 10
234.03034500000001
 20
76.137180999999984
 30
0.0
 11
236.0
 21
75.0
 31
0.0
  0
ARC
  5
4BD
  8
0
 10
236.77275899999989
 20
80.144738000000004
 30
0.0
 40
4.8560629999999989
 50
244.38424699999999
 51
304.38424699999672
  0
ARC
  5
4BE
  8
0
 10
245.0
 20
93.440168999999983
 30
0.0
 40
18.151494
 50
252.412046000001
 51
287.58795399999912
  0
ARC
  5
4BF
  8
0
 10
253.22724099999999
 20
80.144738000000004
 30
0.0
 40
4.8560629999999989
 50
235.61575300000331
 51
295.61575299999998
  0
LINE
  5
4C0
  8
0
 10
255.96965499999999
 20
76.137180999999984
 30
0.0
 11
254.0
 21
75.0
 31
0.0
  0
LINE
  5
4C1
  8
0
 10
236.0
 20
75.0
 30
0.0
 11
254.0
 21
75.0
 31
0.0
  0
LINE
  5
4C2
  8
0
 10
236.0
 20
82.0
 30
0.0
 11
254.0
 21
82.0
 31
0.0
  0
LINE
  5
4C3
  8
0
 10
255.96965499999999
 20
80.862819000000016
 30
0.0
 11
254.0
 21
82.0
 31
0.0
  0
ARC
  5
4C4
  8
0
 10
253.22724099999999
 20
76.855261999999996
 30
0.0
 40
4.8560629999999989
 50
64.384247000000045
 51
124.38424699999671
  0
ARC
  5
4C5
  8
0
 10
245.0
 20
63.559831000000003
 30
0.0
 40
18.151494
 50
72.412046000000913
 51
107.587953999999
  0
ARC
  5
4C6
  8
0
 10
236.77275899999989
 20
76.855261999999996
 30
0.0
 40
4.8560629999999989
 50
55.615753000003281
 51
115.6157529999999
  0
LINE
  5
4C7
  8
0
 10
234.03034500000001
 20
80.862819000000016
 30
0.0
 11
236.0
 21
82.0
 31
0.0
  0
LINE
  5
4C8
  8
0
 10
200.48482799999999
 20
80.862819000000016
 30
0.0
 11
200.48482799999999
 21
76.137180999999984
 31
0.0
  0
LINE
  5
4C9
  8
0
 10
205.96965499999999
 20
80.862819000000016
 30
0.0
 11
205.96965499999999
 21
76.137180999999984
 31
0.0
  0
LINE
  5
4CA
  8
0
 10
189.51517200000001
 20
80.862819000000016
 30
0.0
 11
189.51517200000001
 21
76.137180999999984
 31
0.0
  0
LINE
  5
4CB
  8
0
 10
184.03034500000001
 20
80.862819000000016
 30
0.0
 11
184.03034500000001
 21
76.137180999999984
 31
0.0
  0
LINE
  5
4CC
  8
0
 10
184.03034500000001
 20
76.137180999999984
 30
0.0
 11
186.0
 21
75.0
 31
0.0
  0
ARC
  5
4CD
  8
0
 10
186.77275899999989
 20
80.144738000000004
 30
0.0
 40
4.8560629999999989
 50
244.38424699999999
 51
304.38424699999672
  0
ARC
  5
4CE
  8
0
 10
195.0
 20
93.440168999999983
 30
0.0
 40
18.151494
 50
252.412046000001
 51
287.58795399999912
  0
ARC
  5
4CF
  8
0
 10
203.22724099999999
 20
80.144738000000004
 30
0.0
 40
4.8560629999999989
 50
235.61575300000331
 51
295.61575299999998
  0
LINE
  5
4D0
  8
0
 10
205.96965499999999
 20
76.137180999999984
 30
0.0
 11
204.0
 21
75.0
 31
0.0
  0
LINE
  5
4D1
  8
0
 10
186.0
 20
75.0
 30
0.0
 11
204.0
 21
75.0
 31
0.0
  0
LINE
  5
4D2
  8
0
 10
186.0
 20
82.0
 30
0.0
 11
204.0
 21
82.0
 31
0.0
  0
LINE
  5
4D3
  8
0
 10
205.96965499999999
 20
80.862819000000016
 30
0.0
 11
204.0
 21
82.0
 31
0.0
  0
ARC
  5
4D4
  8
0
 10
203.22724099999999
 20
76.855261999999996
 30
0.0
 40
4.8560629999999989
 50
64.384247000000045
 51
124.38424699999671
  0
ARC
  5
4D5
  8
0
 10
195.0
 20
63.559831000000003
 30
0.0
 40
18.151494
 50
72.412046000000913
 51
107.587953999999
  0
ARC
  5
4D6
  8
0
 10
186.77275899999989
 20
76.855261999999996
 30
0.0
 40
4.8560629999999989
 50
55.615753000003281
 51
115.6157529999999
  0
LINE
  5
4D7
  8
0
 10
184.03034500000001
 20
80.862819000000016
 30
0.0
 11
186.0
 21
82.0
 31
0.0
  0
LINE
  5
4D8
  8
0
 10
314.5
 20
81.711325000000002
 30
0.0
 11
314.0
 21
82.0
 31
0.0
  0
ARC
  5
4D9
  8
0
 10
309.75
 20
67.991641000000001
 30
0.0
 40
13.719684000000001
 50
69.743841999999773
 51
110.2561580000002
  0
LINE
  5
4DA
  8
0
 10
314.0
 20
75.0
 30
0.0
 11
314.5
 21
75.360472000000001
 31
0.0
  0
LINE
  5
4DB
  8
0
 10
314.5
 20
75.360472000000001
 30
0.0
 11
314.5
 21
81.711325000000002
 31
0.0
  0
ARC
  5
4DC
  8
0
 10
309.75
 20
89.008358999999999
 30
0.0
 40
13.719684000000001
 50
249.7438419999998
 51
290.2561580000002
  0
ARC
  5
4DD
  8
0
 10
300.25
 20
89.008358999999999
 30
0.0
 40
13.719684000000001
 50
249.7438419999998
 51
290.2561580000002
  0
LINE
  5
4DE
  8
0
 10
295.5
 20
75.360472000000001
 30
0.0
 11
295.5
 21
81.711325000000002
 31
0.0
  0
LINE
  5
4DF
  8
0
 10
296.0
 20
75.0
 30
0.0
 11
295.5
 21
75.360472000000001
 31
0.0
  0
ARC
  5
4E0
  8
0
 10
300.25
 20
67.991641000000001
 30
0.0
 40
13.719684000000001
 50
69.743841999999773
 51
110.2561580000002
  0
LINE
  5
4E1
  8
0
 10
295.5
 20
81.711325000000002
 30
0.0
 11
296.0
 21
82.0
 31
0.0
  0
LINE
  5
4E2
  8
0
 10
296.0
 20
82.0
 30
0.0
 11
314.0
 21
82.0
 31
0.0
  0
LINE
  5
4E3
  8
0
 10
314.0
 20
75.0
 30
0.0
 11
296.0
 21
75.0
 31
0.0
  0
LINE
  5
4E4
  8
0
 10
305.0
 20
80.862819000000016
 30
0.0
 11
305.0
 21
76.137180999999984
 31
0.0
  0
LINE
  5
4E5
  8
1
 10
75.0
 20
183.5
 30
0.0
 11
75.0
 21
39.500000000000007
 31
0.0
  0
LINE
  5
4E6
  8
0
 10
79.0
 20
51.0
 30
0.0
 11
71.0
 21
51.0
 31
0.0
  0
LINE
  5
4E7
  8
0
 10
69.0
 20
53.0
 30
0.0
 11
69.0
 21
75.0
 31
0.0
  0
LINE
  5
4E8
  8
0
 10
69.0
 20
82.0
 30
0.0
 11
69.0
 21
115.0
 31
0.0
  0
LINE
  5
4E9
  8
0
 10
69.0
 20
154.52225100000001
 30
0.0
 11
69.0
 21
174.0
 31
0.0
  0
LINE
  5
4EA
  8
0
 10
71.0
 20
176.0
 30
0.0
 11
79.0
 21
176.0
 31
0.0
  0
LINE
  5
4EB
  8
0
 10
81.0
 20
174.0
 30
0.0
 11
81.0
 21
154.52225100000001
 31
0.0
  0
LINE
  5
4EC
  8
0
 10
81.0
 20
115.0
 30
0.0
 11
81.0
 21
82.0
 31
0.0
  0
LINE
  5
4ED
  8
0
 10
81.0
 20
75.0
 30
0.0
 11
81.0
 21
53.0
 31
0.0
  0
LINE
  5
4EE
  8
0
 10
69.0
 20
174.0
 30
0.0
 11
71.0
 21
176.0
 31
0.0
  0
LINE
  5
4EF
  8
0
 10
81.0
 20
174.0
 30
0.0
 11
79.0
 21
176.0
 31
0.0
  0
LINE
  5
4F0
  8
0
 10
79.0
 20
51.0
 30
0.0
 11
81.0
 21
53.0
 31
0.0
  0
LINE
  5
4F1
  8
0
 10
71.0
 20
51.0
 30
0.0
 11
69.0
 21
53.0
 31
0.0
  0
LINE
  5
4F2
  8
0
 10
69.0
 20
53.0
 30
0.0
 11
81.0
 21
53.0
 31
0.0
  0
LINE
  5
4F4
  8
3
 10
69.899999999999977
 20
75.0
 30
0.0
 11
69.899999999999977
 21
52.099999999999987
 31
0.0
  0
LINE
  5
4F6
  8
3
 10
80.100000000000037
 20
75.0
 30
0.0
 11
80.100000000000037
 21
52.099999999999987
 31
0.0
  0
LINE
  5
4F7
  8
3
 10
80.100000000000037
 20
154.52225100000001
 30
0.0
 11
80.100000000000037
 21
174.90000000000001
 31
0.0
  0
LINE
  5
4F8
  8
3
 10
69.899999999999977
 20
154.52225100000001
 30
0.0
 11
69.899999999999977
 21
174.90000000000001
 31
0.0
  0
LINE
  5
4F9
  8
0
 10
69.0
 20
174.0
 30
0.0
 11
81.0
 21
174.0
 31
0.0
  0
LINE
  5
4FA
  8
0
 10
84.500000000000014
 20
81.711325000000002
 30
0.0
 11
84.0
 21
82.0
 31
0.0
  0
ARC
  5
4FB
  8
0
 10
79.75
 20
67.991641000000001
 30
0.0
 40
13.719684000000001
 50
69.743841999999773
 51
110.2561580000002
  0
LINE
  5
4FC
  8
0
 10
84.0
 20
75.0
 30
0.0
 11
84.500000000000014
 21
75.360472000000001
 31
0.0
  0
LINE
  5
4FD
  8
0
 10
84.500000000000014
 20
75.360472000000001
 30
0.0
 11
84.500000000000014
 21
81.711325000000002
 31
0.0
  0
ARC
  5
4FE
  8
0
 10
79.75
 20
89.008358999999999
 30
0.0
 40
13.719684000000001
 50
249.7438419999998
 51
290.2561580000002
  0
ARC
  5
4FF
  8
0
 10
70.25
 20
89.008358999999999
 30
0.0
 40
13.719684000000001
 50
249.7438419999998
 51
290.2561580000002
  0
LINE
  5
500
  8
0
 10
65.5
 20
75.360472000000001
 30
0.0
 11
65.5
 21
81.711325000000002
 31
0.0
  0
LINE
  5
501
  8
0
 10
66.0
 20
75.0
 30
0.0
 11
65.5
 21
75.360472000000001
 31
0.0
  0
ARC
  5
502
  8
0
 10
70.25
 20
67.991641000000001
 30
0.0
 40
13.719684000000001
 50
69.743841999999773
 51
110.2561580000002
  0
LINE
  5
503
  8
0
 10
65.5
 20
81.711325000000002
 30
0.0
 11
66.0
 21
82.0
 31
0.0
  0
LINE
  5
504
  8
0
 10
66.0
 20
82.0
 30
0.0
 11
84.0
 21
82.0
 31
0.0
  0
LINE
  5
505
  8
0
 10
84.0
 20
75.0
 30
0.0
 11
66.0
 21
75.0
 31
0.0
  0
LINE
  5
506
  8
0
 10
75.0
 20
80.862819000000016
 30
0.0
 11
75.0
 21
76.137180999999984
 31
0.0
  0
CIRCLE
  5
507
  8
0
 10
239.0
 20
225.0
 30
0.0
 40
5.052999999999999
  0
LINE
  5
508
  8
0
 10
248.0
 20
241.0
 30
0.0
 11
137.12435600000001
 21
241.0
 31
0.0
  0
LINE
  5
509
  8
0
 10
137.12435600000001
 20
209.0
 30
0.0
 11
248.0
 21
209.0
 31
0.0
  0
LINE
  5
50A
  8
0
 10
250.0
 20
211.0
 30
0.0
 11
250.0
 21
239.0
 31
0.0
  0
LINE
  5
50B
  8
1
 10
239.0
 20
237.47916699999999
 30
0.0
 11
239.0
 21
212.54376500000001
 31
0.0
  0
LINE
  5
50C
  8
1
 10
145.0
 20
237.47916699999999
 30
0.0
 11
145.0
 21
212.54376500000001
 31
0.0
  0
CIRCLE
  5
50D
  8
3
 10
239.0
 20
225.0
 30
0.0
 40
6.0
  0
LINE
  5
50E
  8
0
 10
248.0
 20
209.0
 30
0.0
 11
250.0
 21
211.0
 31
0.0
  0
LINE
  5
50F
  8
0
 10
250.0
 20
239.0
 30
0.0
 11
248.0
 21
241.0
 31
0.0
  0
LINE
  5
510
  8
0
 10
125.0
 20
234.0
 30
0.0
 11
125.0
 21
216.0
 31
0.0
  0
LINE
  5
511
  8
0
 10
125.0
 20
234.0
 30
0.0
 11
137.12435600000001
 21
241.0
 31
0.0
  0
LINE
  5
512
  8
0
 10
125.0
 20
216.0
 30
0.0
 11
137.12435600000001
 21
209.0
 31
0.0
  0
LINE
  5
513
  8
0
 10
130.02514300000001
 20
213.09873200000001
 30
0.0
 11
130.02514300000001
 21
236.90126799999999
 31
0.0
  0
LINE
  5
514
  8
0
 10
183.74166975080229
 20
231.5
 30
0.0
 11
145.0
 21
231.5
 31
0.0
  0
LINE
  5
515
  8
0
 10
183.74166975080229
 20
218.5
 30
0.0
 11
145.0
 21
218.5
 31
0.0
  0
ARC
  5
516
  8
2
 10
195.0
 20
225.0
 30
0.0
 40
6.5
 50
270.0
 51
90.0
  0
ARC
  5
517
  8
0
 10
145.0
 20
225.0
 30
0.0
 40
6.5
 50
90.0
 51
270.0
  0
LINE
  5
518
  8
2
 10
183.74166975080229
 20
231.5
 30
0.0
 11
250.0
 21
231.5
 31
0.0
  0
LINE
  5
519
  8
2
 10
183.74166975080229
 20
218.5
 30
0.0
 11
250.0
 21
218.5
 31
0.0
  0
LINE
  5
51A
  8
0
 10
136.91985
 20
134.176559
 30
0.0
 11
136.91985
 21
115.00060000000001
 31
0.0
  0
LINE
  5
51B
  8
2
 10
233.0
 20
120.0
 30
0.0
 11
233.0
 21
134.0
 31
0.0
  0
LINE
  5
51C
  8
2
 10
233.947
 20
120.0
 30
0.0
 11
233.947
 21
134.0
 31
0.0
  0
LINE
  5
51D
  8
2
 10
244.053
 20
120.0
 30
0.0
 11
244.053
 21
134.0
 31
0.0
  0
LINE
  5
51E
  8
2
 10
245.0
 20
120.0
 30
0.0
 11
245.0
 21
134.0
 31
0.0
  0
LINE
  5
51F
  8
2
 10
250.0
 20
120.0
 30
0.0
 11
195.0
 21
120.0
 31
0.0
  0
LINE
  5
520
  8
0
 10
126.0
 20
115.0
 30
0.0
 11
125.0
 21
116.0
 31
0.0
  0
LINE
  5
521
  8
0
 10
250.0
 20
116.0
 30
0.0
 11
249.0
 21
115.0
 31
0.0
  0
LINE
  5
522
  8
0
 10
249.0
 20
134.0
 30
0.0
 11
250.0
 21
133.0
 31
0.0
  0
LINE
  5
523
  8
0
 10
125.0
 20
131.0
 30
0.0
 11
130.19615200000001
 21
134.0
 31
0.0
  0
LINE
  5
524
  8
2
 10
138.34999999999999
 20
115.00060000000001
 30
0.0
 11
138.34999999999999
 21
134.0
 31
0.0
  0
LINE
  5
525
  8
2
 10
201.5
 20
120.0
 30
0.0
 11
201.5
 21
134.0
 31
0.0
  0
LINE
  5
526
  8
1
 10
145.0
 20
110.0
 30
0.0
 11
145.0
 21
139.0
 31
0.0
  0
LINE
  5
527
  8
1
 10
239.0
 20
110.0
 30
0.0
 11
239.0
 21
139.0
 31
0.0
  0
LINE
  5
528
  8
0
 10
250.0
 20
133.0
 30
0.0
 11
250.0
 21
116.0
 31
0.0
  0
LINE
  5
529
  8
0
 10
130.19615200000001
 20
134.0
 30
0.0
 11
249.0
 21
134.0
 31
0.0
  0
LINE
  5
52A
  8
0
 10
125.0
 20
116.0
 30
0.0
 11
125.0
 21
131.0
 31
0.0
  0
LINE
  5
52B
  8
0
 10
249.0
 20
115.0
 30
0.0
 11
126.0
 21
115.0
 31
0.0
  0
LINE
  5
52C
  8
1
 10
305.0
 20
121.5
 30
0.0
 11
305.0
 21
39.5
 31
0.0
  0
LINE
  5
52D
  8
0
 10
299.00000199999999
 20
115.0
 30
0.0
 11
299.00000199999999
 21
118.5
 31
0.0
  0
LINE
  5
52E
  8
0
 10
309.0
 20
47.0
 30
0.0
 11
301.0
 21
47.0
 31
0.0
  0
LINE
  5
52F
  8
0
 10
299.0
 20
49.0
 30
0.0
 11
311.0
 21
49.0
 31
0.0
  0
LINE
  5
530
  8
0
 10
299.0
 20
102.725055
 30
0.0
 11
311.0
 21
102.725055
 31
0.0
  0
LINE
  5
531
  8
0
 10
311.00000199999999
 20
115.0
 30
0.0
 11
311.00000199999999
 21
118.5
 31
0.0
  0
LINE
  5
532
  8
0
 10
310.50000199999999
 20
119.0
 30
0.0
 11
299.50000199999999
 21
119.0
 31
0.0
  0
LINE
  5
533
  8
0
 10
299.50000199999999
 20
119.0
 30
0.0
 11
299.00000199999999
 21
118.5
 31
0.0
  0
LINE
  5
534
  8
0
 10
310.50000199999999
 20
119.0
 30
0.0
 11
311.00000199999999
 21
118.5
 31
0.0
  0
LINE
  5
535
  8
0
 10
311.0
 20
49.0
 30
0.0
 11
311.0
 21
75.0
 31
0.0
  0
LINE
  5
536
  8
0
 10
311.0
 20
82.0
 30
0.0
 11
311.0
 21
104.59999999999999
 31
0.0
  0
LINE
  5
537
  8
3
 10
310.053
 20
48.05299999999999
 30
0.0
 11
310.053
 21
75.0
 31
0.0
  0
LINE
  5
538
  8
3
 10
310.053
 20
82.0
 30
0.0
 11
310.053
 21
102.725055
 31
0.0
  0
LINE
  5
539
  8
0
 10
311.0
 20
49.0
 30
0.0
 11
309.0
 21
47.0
 31
0.0
  0
LINE
  5
53A
  8
3
 10
310.053
 20
102.725055
 30
0.0
 11
311.0
 21
104.365307
 31
0.0
  0
ARC
  5
53B
  8
0
 10
311.39999999999998
 20
104.59999999999999
 30
0.0
 40
0.4
 50
90.0
 51
180.0
  0
ARC
  5
53C
  8
0
 10
298.60000000000002
 20
104.59999999999999
 30
0.0
 40
0.4
 50
0.0
 51
90.0
  0
LINE
  5
53D
  8
3
 10
299.947
 20
102.725055
 30
0.0
 11
299.0
 21
104.365307
 31
0.0
  0
LINE
  5
53E
  8
0
 10
299.0
 20
49.0
 30
0.0
 11
301.0
 21
47.0
 31
0.0
  0
LINE
  5
53F
  8
3
 10
299.947
 20
48.05299999999999
 30
0.0
 11
299.947
 21
75.0
 31
0.0
  0
LINE
  5
540
  8
3
 10
299.947
 20
82.0
 30
0.0
 11
299.947
 21
102.725055
 31
0.0
  0
LINE
  5
541
  8
0
 10
299.0
 20
49.0
 30
0.0
 11
299.0
 21
75.0
 31
0.0
  0
LINE
  5
542
  8
0
 10
299.0
 20
82.0
 30
0.0
 11
299.0
 21
104.59999999999999
 31
0.0
  0
LINE
  5
543
  8
0
 10
294.00000699999998
 20
115.0
 30
0.0
 11
316.00000699999998
 21
115.0
 31
0.0
  0
LINE
  5
544
  8
0
 10
316.00000699999998
 20
115.0
 30
0.0
 11
317.00000699999998
 21
114.42265
 31
0.0
  0
LINE
  5
545
  8
0
 10
317.00000699999998
 20
114.13397500000001
 30
0.0
 11
315.96016200000008
 21
114.13397500000001
 31
0.0
  0
ARC
  5
546
  8
0
 10
313.48528800000003
 20
103.669501
 30
0.0
 40
10.753149000000001
 50
76.693897000000902
 51
103.3061029999991
  0
ARC
  5
547
  8
0
 10
305.00000699999998
 20
93.060689999999994
 30
0.0
 40
21.36196
 50
80.569992000003438
 51
99.430007999996576
  0
LINE
  5
548
  8
0
 10
311.01041500000002
 20
114.13397500000001
 30
0.0
 11
308.50000699999998
 21
114.13397500000001
 31
0.0
  0
LINE
  5
549
  8
0
 10
301.50000699999998
 20
114.13397500000001
 30
0.0
 11
298.989599
 21
114.13397500000001
 31
0.0
  0
LINE
  5
54A
  8
0
 10
298.989599
 20
114.13397500000001
 30
0.0
 11
301.50000699999998
 21
114.13397500000001
 31
0.0
  0
ARC
  5
54B
  8
0
 10
296.514726
 20
103.669501
 30
0.0
 40
10.753149000000001
 50
76.693897000000902
 51
103.3061029999991
  0
LINE
  5
54C
  8
0
 10
293.00000699999998
 20
114.13397500000001
 30
0.0
 11
294.039852
 21
114.13397500000001
 31
0.0
  0
LINE
  5
54D
  8
0
 10
294.00000699999998
 20
115.0
 30
0.0
 11
293.00000699999998
 21
114.42265
 31
0.0
  0
LINE
  5
54E
  8
0
 10
294.039852
 20
114.13397500000001
 30
0.0
 11
293.00000699999998
 21
114.13397500000001
 31
0.0
  0
LINE
  5
54F
  8
0
 10
294.039852
 20
105.86602499999999
 30
0.0
 11
293.00000699999998
 21
105.86602499999999
 31
0.0
  0
LINE
  5
550
  8
0
 10
298.989599
 20
105.86602499999999
 30
0.0
 11
298.989599
 21
114.13397500000001
 31
0.0
  0
LINE
  5
551
  8
0
 10
293.00000699999998
 20
105.57735
 30
0.0
 11
293.00000699999998
 21
114.42265
 31
0.0
  0
LINE
  5
552
  8
0
 10
294.039852
 20
105.86602499999999
 30
0.0
 11
294.039852
 21
114.13397500000001
 31
0.0
  0
LINE
  5
553
  8
0
 10
294.00000699999998
 20
105.0
 30
0.0
 11
293.00000699999998
 21
105.57735
 31
0.0
  0
LINE
  5
554
  8
0
 10
293.00000699999998
 20
105.86602499999999
 30
0.0
 11
294.039852
 21
105.86602499999999
 31
0.0
  0
ARC
  5
555
  8
0
 10
296.514726
 20
116.330499
 30
0.0
 40
10.753149000000001
 50
256.6938970000009
 51
283.3061029999991
  0
LINE
  5
556
  8
0
 10
298.989599
 20
105.86602499999999
 30
0.0
 11
301.50000699999998
 21
105.86602499999999
 31
0.0
  0
LINE
  5
557
  8
0
 10
301.50000699999998
 20
105.86602499999999
 30
0.0
 11
298.989599
 21
105.86602499999999
 31
0.0
  0
LINE
  5
558
  8
0
 10
311.01041500000002
 20
105.86602499999999
 30
0.0
 11
308.50000699999998
 21
105.86602499999999
 31
0.0
  0
ARC
  5
559
  8
0
 10
305.00000699999998
 20
126.93931000000001
 30
0.0
 40
21.36196
 50
260.56999200000348
 51
279.43000799999652
  0
LINE
  5
55A
  8
0
 10
301.50000699999998
 20
105.86602499999999
 30
0.0
 11
301.50000699999998
 21
114.13397500000001
 31
0.0
  0
ARC
  5
55B
  8
0
 10
313.48528800000003
 20
116.330499
 30
0.0
 40
10.753149000000001
 50
256.6938970000009
 51
283.3061029999991
  0
LINE
  5
55C
  8
0
 10
317.00000699999998
 20
105.86602499999999
 30
0.0
 11
315.96016200000008
 21
105.86602499999999
 31
0.0
  0
LINE
  5
55D
  8
0
 10
315.96016200000008
 20
105.86602499999999
 30
0.0
 11
315.96016200000008
 21
114.13397500000001
 31
0.0
  0
LINE
  5
55E
  8
0
 10
316.00000699999998
 20
105.0
 30
0.0
 11
317.00000699999998
 21
105.57735
 31
0.0
  0
LINE
  5
55F
  8
0
 10
311.01041500000002
 20
105.86602499999999
 30
0.0
 11
311.01041500000002
 21
114.13397500000001
 31
0.0
  0
LINE
  5
560
  8
0
 10
308.50000699999998
 20
105.86602499999999
 30
0.0
 11
308.50000699999998
 21
114.13397500000001
 31
0.0
  0
LINE
  5
561
  8
0
 10
317.00000699999998
 20
105.57735
 30
0.0
 11
317.00000699999998
 21
114.42265
 31
0.0
  0
LINE
  5
562
  8
0
 10
294.00000699999998
 20
105.0
 30
0.0
 11
315.96016200000008
 21
105.0
 31
0.0
  0
LINE
  5
563
  8
0
 10
320.0
 20
115.0
 30
0.0
 11
321.0
 21
116.0
 31
0.0
  0
LINE
  5
564
  8
0
 10
289.0
 20
116.0
 30
0.0
 11
290.0
 21
115.0
 31
0.0
  0
LINE
  5
565
  8
0
 10
290.0
 20
134.0
 30
0.0
 11
289.0
 21
133.0
 31
0.0
  0
LINE
  5
566
  8
0
 10
320.0
 20
134.0
 30
0.0
 11
321.0
 21
133.0
 31
0.0
  0
LINE
  5
567
  8
0
 10
302.0
 20
120.0
 30
0.0
 11
311.60476599999993
 21
120.0
 31
0.0
  0
LINE
  5
568
  8
0
 10
311.5
 20
120.0
 30
0.0
 11
311.5
 21
115.0
 31
0.0
  0
LINE
  5
569
  8
0
 10
298.5
 20
120.0
 30
0.0
 11
298.5
 21
115.0
 31
0.0
  0
LINE
  5
56A
  8
0
 10
305.0
 20
120.0
 30
0.0
 11
298.5
 21
120.0
 31
0.0
  0
LINE
  5
56B
  8
1
 10
305.0
 20
110.0
 30
0.0
 11
305.0
 21
183.5
 31
0.0
  0
LINE
  5
56C
  8
0
 10
320.0
 20
115.0
 30
0.0
 11
290.0
 21
115.0
 31
0.0
  0
LINE
  5
56D
  8
0
 10
321.0
 20
133.0
 30
0.0
 11
321.0
 21
116.0
 31
0.0
  0
LINE
  5
56E
  8
0
 10
290.0
 20
134.0
 30
0.0
 11
320.0
 21
134.0
 31
0.0
  0
LINE
  5
56F
  8
0
 10
289.0
 20
116.0
 30
0.0
 11
289.0
 21
133.0
 31
0.0
  0
LINE
  5
570
  8
0
 10
318.0
 20
137.5
 30
0.0
 11
317.5
 21
138.0
 31
0.0
  0
LINE
  5
571
  8
0
 10
317.5
 20
134.0
 30
0.0
 11
318.0
 21
134.5
 31
0.0
  0
LINE
  5
572
  8
0
 10
292.0
 20
137.5
 30
0.0
 11
292.5
 21
138.0
 31
0.0
  0
LINE
  5
573
  8
0
 10
292.5
 20
134.0
 30
0.0
 11
292.0
 21
134.5
 31
0.0
  0
LINE
  5
574
  8
0
 10
292.0
 20
134.5
 30
0.0
 11
292.0
 21
137.5
 31
0.0
  0
LINE
  5
575
  8
0
 10
317.5
 20
134.0
 30
0.0
 11
292.5
 21
134.0
 31
0.0
  0
LINE
  5
576
  8
0
 10
318.0
 20
137.5
 30
0.0
 11
318.0
 21
134.5
 31
0.0
  0
LINE
  5
577
  8
0
 10
292.5
 20
138.0
 30
0.0
 11
317.5
 21
138.0
 31
0.0
  0
ARC
  5
578
  8
0
 10
314.89999999999998
 20
141.92225099999999
 30
0.0
 40
0.4
 50
180.0
 51
270.0
  0
ARC
  5
579
  8
0
 10
300.25
 20
144.03329500000001
 30
0.0
 40
10.488956
 50
63.072847000000309
 51
116.92715299999971
  0
ARC
  5
57A
  8
0
 10
309.75
 20
144.03329500000001
 30
0.0
 40
10.488956
 50
63.072847000000309
 51
116.92715299999971
  0
LINE
  5
57B
  8
0
 10
296.0
 20
154.52225100000001
 30
0.0
 11
295.5
 21
154.233576
 31
0.0
  0
LINE
  5
57C
  8
0
 10
314.0
 20
154.52225100000001
 30
0.0
 11
314.5
 21
154.233576
 31
0.0
  0
LINE
  5
57D
  8
0
 10
314.5
 20
154.233576
 30
0.0
 11
314.5
 21
141.92225099999999
 31
0.0
  0
LINE
  5
57E
  8
0
 10
296.0
 20
154.52225100000001
 30
0.0
 11
314.0
 21
154.52225100000001
 31
0.0
  0
LINE
  5
57F
  8
0
 10
305.0
 20
153.38507000000001
 30
0.0
 11
305.0
 21
141.5222509999999
 31
0.0
  0
LINE
  5
580
  8
0
 10
295.5
 20
154.233576
 30
0.0
 11
295.5
 21
141.92225099999999
 31
0.0
  0
ARC
  5
581
  8
0
 10
305.0
 20
165.55926299999999
 30
0.0
 40
30.0
 50
293.2716333449132
 51
295.67928900000197
  0
LINE
  5
582
  8
0
 10
318.0
 20
141.02225100000001
 30
0.0
 11
318.0
 21
138.52225100000001
 31
0.0
  0
LINE
  5
583
  8
0
 10
317.5
 20
141.5222509999999
 30
0.0
 11
318.0
 21
141.02225100000001
 31
0.0
  0
ARC
  5
584
  8
0
 10
295.10000000000002
 20
141.92225099999999
 30
0.0
 40
0.4
 50
270.0
 51
0.0
  0
ARC
  5
585
  8
0
 10
305.0
 20
165.55926299999999
 30
0.0
 40
30.0
 50
244.320710999998
 51
246.7283666550868
  0
LINE
  5
586
  8
0
 10
318.0
 20
138.52225100000001
 30
0.0
 11
292.0
 21
138.52225100000001
 31
0.0
  0
LINE
  5
587
  8
0
 10
292.0
 20
141.02225100000001
 30
0.0
 11
292.0
 21
138.52225100000001
 31
0.0
  0
LINE
  5
588
  8
0
 10
292.5
 20
141.5222509999999
 30
0.0
 11
292.0
 21
141.02225100000001
 31
0.0
  0
LINE
  5
589
  8
0
 10
292.5
 20
141.5222509999999
 30
0.0
 11
317.5
 21
141.5222509999999
 31
0.0
  0
LINE
  5
58A
  8
0
 10
84.0
 20
129.0
 30
0.0
 11
89.0
 21
134.0
 31
0.0
  0
LINE
  5
58B
  8
0
 10
66.0
 20
129.0
 30
0.0
 11
61.0
 21
134.0
 31
0.0
  0
LINE
  5
58C
  8
0
 10
84.0
 20
129.0
 30
0.0
 11
84.0
 21
115.0
 31
0.0
  0
LINE
  5
58D
  8
0
 10
66.0
 20
129.0
 30
0.0
 11
66.0
 21
115.0
 31
0.0
  0
LINE
  5
58E
  8
0
 10
60.0
 20
134.0
 30
0.0
 11
59.0
 21
133.0
 31
0.0
  0
LINE
  5
58F
  8
0
 10
91.0
 20
133.0
 30
0.0
 11
90.0
 21
134.0
 31
0.0
  0
LINE
  5
590
  8
0
 10
90.0
 20
115.0
 30
0.0
 11
91.0
 21
116.0
 31
0.0
  0
LINE
  5
591
  8
0
 10
60.0
 20
115.0
 30
0.0
 11
59.0
 21
116.0
 31
0.0
  0
LINE
  5
592
  8
0
 10
84.0
 20
129.0
 30
0.0
 11
66.0
 21
129.0
 31
0.0
  0
LINE
  5
593
  8
0
 10
60.0
 20
134.0
 30
0.0
 11
90.0
 21
134.0
 31
0.0
  0
LINE
  5
594
  8
0
 10
59.0
 20
116.0
 30
0.0
 11
59.0
 21
133.0
 31
0.0
  0
LINE
  5
595
  8
0
 10
90.0
 20
115.0
 30
0.0
 11
60.0
 21
115.0
 31
0.0
  0
LINE
  5
596
  8
0
 10
91.0
 20
133.0
 30
0.0
 11
91.0
 21
116.0
 31
0.0
  0
LINE
  5
597
  8
0
 10
88.0
 20
137.5
 30
0.0
 11
87.5
 21
138.0
 31
0.0
  0
LINE
  5
598
  8
0
 10
87.5
 20
134.0
 30
0.0
 11
88.0
 21
134.5
 31
0.0
  0
LINE
  5
599
  8
0
 10
62.0
 20
137.5
 30
0.0
 11
62.5
 21
138.0
 31
0.0
  0
LINE
  5
59A
  8
0
 10
62.5
 20
134.0
 30
0.0
 11
62.0
 21
134.5
 31
0.0
  0
LINE
  5
59B
  8
0
 10
62.0
 20
134.5
 30
0.0
 11
62.0
 21
137.5
 31
0.0
  0
LINE
  5
59C
  8
0
 10
87.5
 20
134.0
 30
0.0
 11
62.5
 21
134.0
 31
0.0
  0
LINE
  5
59D
  8
0
 10
88.0
 20
137.5
 30
0.0
 11
88.0
 21
134.5
 31
0.0
  0
LINE
  5
59E
  8
0
 10
62.5
 20
138.0
 30
0.0
 11
87.5
 21
138.0
 31
0.0
  0
LINE
  5
59F
  8
1
 10
75.0
 20
154.5222509999999
 30
0.0
 11
75.0
 21
159.52225100000001
 31
0.0
  0
ARC
  5
5A0
  8
0
 10
84.899999999999977
 20
141.92225099999999
 30
0.0
 40
0.4
 50
180.0
 51
270.0
  0
ARC
  5
5A1
  8
0
 10
70.25
 20
144.03329500000001
 30
0.0
 40
10.488956
 50
63.072847000000309
 51
116.92715299999971
  0
ARC
  5
5A2
  8
0
 10
79.75
 20
144.03329500000001
 30
0.0
 40
10.488956
 50
63.072847000000309
 51
116.92715299999971
  0
LINE
  5
5A3
  8
0
 10
66.0
 20
154.52225100000001
 30
0.0
 11
65.5
 21
154.233576
 31
0.0
  0
LINE
  5
5A4
  8
0
 10
84.0
 20
154.52225100000001
 30
0.0
 11
84.500000000000014
 21
154.233576
 31
0.0
  0
LINE
  5
5A5
  8
0
 10
84.500000000000014
 20
154.233576
 30
0.0
 11
84.500000000000014
 21
141.92225099999999
 31
0.0
  0
LINE
  5
5A6
  8
0
 10
66.0
 20
154.52225100000001
 30
0.0
 11
84.0
 21
154.52225100000001
 31
0.0
  0
LINE
  5
5A7
  8
0
 10
75.0
 20
153.38507000000001
 30
0.0
 11
75.0
 21
141.5222509999999
 31
0.0
  0
LINE
  5
5A8
  8
0
 10
65.5
 20
154.233576
 30
0.0
 11
65.5
 21
141.92225099999999
 31
0.0
  0
ARC
  5
5A9
  8
0
 10
75.0
 20
165.55926299999999
 30
0.0
 40
30.0
 50
293.2716333449132
 51
295.6792890000022
  0
LINE
  5
5AA
  8
0
 10
88.0
 20
141.02225100000001
 30
0.0
 11
88.0
 21
138.52225100000001
 31
0.0
  0
LINE
  5
5AB
  8
0
 10
87.5
 20
141.5222509999999
 30
0.0
 11
88.0
 21
141.02225100000001
 31
0.0
  0
ARC
  5
5AC
  8
0
 10
65.100000000000023
 20
141.92225099999999
 30
0.0
 40
0.4
 50
270.0
 51
0.0
  0
ARC
  5
5AD
  8
0
 10
75.0
 20
165.55926299999999
 30
0.0
 40
30.0
 50
244.3207109999978
 51
246.7283666550868
  0
LINE
  5
5AE
  8
0
 10
88.0
 20
138.52225100000001
 30
0.0
 11
62.0
 21
138.52225100000001
 31
0.0
  0
LINE
  5
5AF
  8
0
 10
62.0
 20
141.02225100000001
 30
0.0
 11
62.0
 21
138.52225100000001
 31
0.0
  0
LINE
  5
5B0
  8
0
 10
62.5
 20
141.5222509999999
 30
0.0
 11
62.0
 21
141.02225100000001
 31
0.0
  0
LINE
  5
5B1
  8
0
 10
62.5
 20
141.5222509999999
 30
0.0
 11
87.5
 21
141.5222509999999
 31
0.0
  0
LINE
  5
5B2
  8
0
 10
299.0
 20
154.52225100000001
 30
0.0
 11
299.0
 21
174.0
 31
0.0
  0
LINE
  5
5B3
  8
0
 10
301.0
 20
176.0
 30
0.0
 11
309.0
 21
176.0
 31
0.0
  0
LINE
  5
5B4
  8
0
 10
311.0
 20
174.0
 30
0.0
 11
311.0
 21
154.52225100000001
 31
0.0
  0
LINE
  5
5B5
  8
0
 10
299.0
 20
174.0
 30
0.0
 11
301.0
 21
176.0
 31
0.0
  0
LINE
  5
5B6
  8
0
 10
311.0
 20
174.0
 30
0.0
 11
309.0
 21
176.0
 31
0.0
  0
LINE
  5
5B7
  8
3
 10
310.10000000000002
 20
154.52225100000001
 30
0.0
 11
310.10000000000002
 21
174.90000000000001
 31
0.0
  0
LINE
  5
5B8
  8
3
 10
299.90000000000009
 20
154.52225100000001
 30
0.0
 11
299.89999999999998
 21
174.90000000000001
 31
0.0
  0
LINE
  5
5B9
  8
0
 10
299.0
 20
174.0
 30
0.0
 11
311.0
 21
174.0
 31
0.0
  0
LINE
  5
5BA
  8
0
 10
79.0
 20
47.0
 30
0.0
 11
71.0
 21
47.0
 31
0.0
  0
LINE
  5
5BB
  8
0
 10
69.0
 20
49.0
 30
0.0
 11
81.0
 21
49.0
 31
0.0
  0
LINE
  5
5BC
  8
0
 10
81.0
 20
49.0
 30
0.0
 11
81.0
 21
53.0
 31
0.0
  0
LINE
  5
5BD
  8
3
 10
80.052999999999997
 20
48.05299999999999
 30
0.0
 11
80.052999999999997
 21
52.052999999999983
 31
0.0
  0
LINE
  5
5BE
  8
0
 10
81.0
 20
49.0
 30
0.0
 11
79.0
 21
47.0
 31
0.0
  0
LINE
  5
5BF
  8
0
 10
69.0
 20
49.0
 30
0.0
 11
71.0
 21
47.0
 31
0.0
  0
LINE
  5
5C0
  8
3
 10
69.947000000000003
 20
48.05299999999999
 30
0.0
 11
69.947000000000003
 21
52.052999999999997
 31
0.0
  0
LINE
  5
5C1
  8
0
 10
69.0
 20
49.0
 30
0.0
 11
69.0
 21
53.0
 31
0.0
  0
LINE
  5
5C2
  8
0
 10
86.0
 20
115.0
 30
0.0
 11
87.0
 21
114.42265
 31
0.0
  0
LINE
  5
5C3
  8
0
 10
87.0
 20
114.13397500000001
 30
0.0
 11
85.960155000000043
 21
114.13397500000001
 31
0.0
  0
ARC
  5
5C4
  8
0
 10
83.485280999999986
 20
103.669501
 30
0.0
 40
10.753149000000001
 50
76.693897000000902
 51
103.3630920968956
  0
ARC
  5
5C5
  8
0
 10
66.514719000000014
 20
103.669501
 30
0.0
 40
10.753149000000001
 50
76.636907903104344
 51
103.3061029999991
  0
LINE
  5
5C6
  8
0
 10
63.0
 20
114.13397500000001
 30
0.0
 11
64.039845000000014
 21
114.13397500000001
 31
0.0
  0
LINE
  5
5C7
  8
0
 10
64.0
 20
115.0
 30
0.0
 11
63.0
 21
114.42265
 31
0.0
  0
LINE
  5
5C8
  8
0
 10
64.039845000000014
 20
114.13397500000001
 30
0.0
 11
63.0
 21
114.13397500000001
 31
0.0
  0
LINE
  5
5C9
  8
0
 10
64.039845000000014
 20
105.86602499999999
 30
0.0
 11
63.0
 21
105.86602499999999
 31
0.0
  0
LINE
  5
5CA
  8
0
 10
63.0
 20
105.57735
 30
0.0
 11
63.0
 21
114.42265
 31
0.0
  0
LINE
  5
5CB
  8
0
 10
64.039845000000014
 20
105.86602499999999
 30
0.0
 11
64.039845000000014
 21
114.13397500000001
 31
0.0
  0
LINE
  5
5CC
  8
0
 10
64.0
 20
105.0
 30
0.0
 11
63.0
 21
105.57735
 31
0.0
  0
LINE
  5
5CD
  8
0
 10
63.0
 20
105.86602499999999
 30
0.0
 11
64.039845000000014
 21
105.86602499999999
 31
0.0
  0
ARC
  5
5CE
  8
0
 10
66.514719000000014
 20
116.330499
 30
0.0
 40
10.753149000000001
 50
256.6938970000009
 51
283.36309209689568
  0
ARC
  5
5CF
  8
0
 10
83.485280999999986
 20
116.330499
 30
0.0
 40
10.753149000000001
 50
256.63690790310432
 51
283.3061029999991
  0
LINE
  5
5D0
  8
0
 10
87.0
 20
105.86602499999999
 30
0.0
 11
85.960155000000043
 21
105.86602499999999
 31
0.0
  0
LINE
  5
5D1
  8
0
 10
85.960155000000043
 20
105.86602499999999
 30
0.0
 11
85.960155000000043
 21
114.13397500000001
 31
0.0
  0
LINE
  5
5D2
  8
0
 10
86.0
 20
105.0
 30
0.0
 11
87.0
 21
105.57735
 31
0.0
  0
LINE
  5
5D3
  8
0
 10
87.0
 20
105.57735
 30
0.0
 11
87.0
 21
114.42265
 31
0.0
  0
LINE
  5
5D4
  8
0
 10
64.0
 20
105.0
 30
0.0
 11
69.0
 21
105.0
 31
0.0
  0
LINE
  5
5D5
  8
0
 10
81.0
 20
105.0
 30
0.0
 11
85.960155000000043
 21
105.0
 31
0.0
  0
LINE
  5
64E
  8
3
 10
69.0
 20
92.558845999999988
 30
0.0
 11
69.899999999999977
 21
91.0
 31
0.0
  0
LINE
  5
64F
  8
3
 10
69.899999999999977
 20
91.0
 30
0.0
 11
69.899999999999977
 21
82.000000000000014
 31
0.0
  0
LINE
  5
650
  8
0
 10
69.0
 20
91.0
 30
0.0
 11
81.0
 21
91.0
 31
0.0
  0
LINE
  5
651
  8
3
 10
81.0
 20
92.558845999999988
 30
0.0
 11
80.100000000000037
 21
91.0
 31
0.0
  0
LINE
  5
652
  8
3
 10
80.100000000000037
 20
91.0
 30
0.0
 11
80.100000000000037
 21
82.000000000000014
 31
0.0
  0
LINE
  5
653
  8
3
 10
189.0
 20
92.558845999999988
 30
0.0
 11
189.90000000000001
 21
91.0
 31
0.0
  0
LINE
  5
654
  8
3
 10
189.90000000000001
 20
91.0
 30
0.0
 11
189.90000000000001
 21
82.000000000000014
 31
0.0
  0
LINE
  5
655
  8
0
 10
189.0
 20
91.0
 30
0.0
 11
201.0
 21
91.0
 31
0.0
  0
LINE
  5
656
  8
3
 10
201.0
 20
92.558845999999988
 30
0.0
 11
200.09999999999999
 21
91.0
 31
0.0
  0
LINE
  5
657
  8
3
 10
200.09999999999999
 20
91.0
 30
0.0
 11
200.09999999999999
 21
82.000000000000014
 31
0.0
  0
TEXT
  5
6BB
  8
0
 62
     3
 10
0.0
 20
0.0
 30
0.0
 40
10.0
  1
BJ153-12125A2
  7
STANDARD1
  0
ENDSEC
  0
EOF
