  0
SECTION
  2
HEADER
  9
$ACADVER
  1
AC1009
  9
$INSBASE
 10
82.638099999999994
 20
103.82319099999999
 30
0.0
  9
$EXTMIN
 10
0.0
 20
-2.960436562073669
 30
0.0
  9
$EXTMAX
 10
291.0
 20
228.0
 30
0.0
  9
$LIMMIN
 10
0.0
 20
0.0
  9
$LIMMAX
 10
375.0
 20
270.0
  9
$ORTHOMODE
 70
     1
  9
$REGENMODE
 70
     1
  9
$FILLMODE
 70
     1
  9
$QTEXTMODE
 70
     0
  9
$MIRRTEXT
 70
     0
  9
$DRAGMODE
 70
     2
  9
$LTSCALE
 40
10.0
  9
$OSMODE
 70
  3071
  9
$ATTMODE
 70
     1
  9
$TEXTSIZE
 40
0.06
  9
$TRACEWID
 40
0.05
  9
$TEXTSTYLE
  7
STANDARD
  9
$CLAYER
  8
0
  9
$CELTYPE
  6
BYLAYER
  9
$CECOLOR
 62
   256
  9
$DIMSCALE
 40
1.0
  9
$DIMASZ
 40
3.0
  9
$DIMEXO
 40
2.0
  9
$DIMDLI
 40
10.0
  9
$DIMRND
 40
0.0
  9
$DIMDLE
 40
0.0
  9
$DIMEXE
 40
2.0
  9
$DIMTP
 40
0.0
  9
$DIMTM
 40
0.0
  9
$DIMTXT
 40
3.0
  9
$DIMCEN
 40
0.0
  9
$DIMTSZ
 40
0.0
  9
$DIMTOL
 70
     0
  9
$DIMLIM
 70
     0
  9
$DIMTIH
 70
     0
  9
$DIMTOH
 70
     0
  9
$DIMSE1
 70
     0
  9
$DIMSE2
 70
     0
  9
$DIMTAD
 70
     1
  9
$DIMZIN
 70
     0
  9
$DIMBLK
  1

  9
$DIMASO
 70
     0
  9
$DIMSHO
 70
     0
  9
$DIMPOST
  1

  9
$DIMAPOST
  1

  9
$DIMALT
 70
     0
  9
$DIMALTD
 70
     2
  9
$DIMALTF
 40
25.399999999999999
  9
$DIMLFAC
 40
1.0
  9
$DIMTOFL
 70
     1
  9
$DIMTVP
 40
1.6000000000000001
  9
$DIMTIX
 70
     1
  9
$DIMSOXD
 70
     0
  9
$DIMSAH
 70
     0
  9
$DIMBLK1
  1

  9
$DIMBLK2
  1

  9
$DIMSTYLE
  2
STANDARD
  9
$DIMCLRD
 70
     0
  9
$DIMCLRE
 70
     0
  9
$DIMCLRT
 70
     0
  9
$DIMTFAC
 40
1.0
  9
$DIMGAP
 40
0.09
  9
$LUNITS
 70
     2
  9
$LUPREC
 70
     4
  9
$SKETCHINC
 40
0.1
  9
$FILLETRAD
 40
0.0
  9
$AUNITS
 70
     0
  9
$AUPREC
 70
     4
  9
$MENU
  1
E:\r13\win\SUPPORT\ACAD
  9
$ELEVATION
 40
0.0
  9
$PELEVATION
 40
0.0
  9
$THICKNESS
 40
0.0
  9
$LIMCHECK
 70
     0
  9
$BLIPMODE
 70
     0
  9
$CHAMFERA
 40
0.0
  9
$CHAMFERB
 40
0.0
  9
$SKPOLY
 70
     0
  9
$TDCREATE
 40
2449840.3489467599
  9
$TDUPDATE
 40
2456597.6473406488
  9
$TDINDWG
 40
0.0001051157
  9
$TDUSRTIMER
 40
0.0001051157
  9
$USRTIMER
 70
     1
  9
$ANGBASE
 50
0.0
  9
$ANGDIR
 70
     0
  9
$PDMODE
 70
     1
  9
$PDSIZE
 40
0.0
  9
$PLINEWID
 40
0.0
  9
$COORDS
 70
     1
  9
$SPLFRAME
 70
     0
  9
$SPLINETYPE
 70
     6
  9
$SPLINESEGS
 70
     8
  9
$ATTDIA
 70
     0
  9
$ATTREQ
 70
     1
  9
$HANDLING
 70
     1
  9
$HANDSEED
  5
359
  9
$SURFTAB1
 70
     6
  9
$SURFTAB2
 70
     6
  9
$SURFTYPE
 70
     6
  9
$SURFU
 70
     6
  9
$SURFV
 70
     6
  9
$UCSNAME
  2

  9
$UCSORG
 10
0.0
 20
0.0
 30
0.0
  9
$UCSXDIR
 10
1.0
 20
0.0
 30
0.0
  9
$UCSYDIR
 10
0.0
 20
1.0
 30
0.0
  9
$PUCSNAME
  2

  9
$PUCSORG
 10
0.0
 20
0.0
 30
0.0
  9
$PUCSXDIR
 10
1.0
 20
0.0
 30
0.0
  9
$PUCSYDIR
 10
0.0
 20
1.0
 30
0.0
  9
$USERI1
 70
     3
  9
$USERI2
 70
     1
  9
$USERI3
 70
     0
  9
$USERI4
 70
     0
  9
$USERI5
 70
     0
  9
$USERR1
 40
1.0
  9
$USERR2
 40
3.0
  9
$USERR3
 40
3.0
  9
$USERR4
 40
3.0
  9
$USERR5
 40
10.0
  9
$WORLDVIEW
 70
     1
  9
$SHADEDGE
 70
     3
  9
$SHADEDIF
 70
    70
  9
$TILEMODE
 70
     1
  9
$MAXACTVP
 70
    16
  9
$PLIMCHECK
 70
     0
  9
$PEXTMIN
 10
1.0000000000000000E+020
 20
1.0000000000000000E+020
 30
1.0000000000000000E+020
  9
$PEXTMAX
 10
-1.0000000000000000E+020
 20
-1.0000000000000000E+020
 30
-1.0000000000000000E+020
  9
$PLIMMIN
 10
0.0
 20
0.0
  9
$PLIMMAX
 10
12.0
 20
9.0
  9
$UNITMODE
 70
     0
  9
$VISRETAIN
 70
     0
  9
$PLINEGEN
 70
     0
  9
$PSLTSCALE
 70
     0
  0
ENDSEC
  0
SECTION
  2
TABLES
  0
TABLE
  2
VPORT
 70
     1
  0
VPORT
  2
*ACTIVE
 70
     0
 10
0.0
 20
0.0
 11
1.0
 21
1.0
 12
195.0581083320873
 22
133.5127261426681
 13
0.0
 23
0.0
 14
5.0
 24
5.0
 15
10.0
 25
10.0
 16
0.0
 26
0.0
 36
1.0
 17
0.0
 27
0.0
 37
0.0
 40
275.42274993631997
 41
1.831871345029239
 42
50.0
 43
0.0
 44
0.0
 50
0.0
 51
0.0
 71
     0
 72
   100
 73
     1
 74
     0
 75
     0
 76
     0
 77
     0
 78
     0
  0
ENDTAB
  0
TABLE
  2
LTYPE
 70
     4
  0
LTYPE
  2
CONTINUOUS
 70
     0
  3
Solid Line
 72
    65
 73
     0
 40
0.0
  0
LTYPE
  2
CENTER
 70
     0
  3
____ _ ____ _ ____ _ ____ _ ____ _ ____ _ ____
 72
    65
 73
     4
 40
2.0
 49
1.25
 49
-0.25
 49
0.25
 49
-0.25
  0
LTYPE
  2
HIDDEN
 70
     0
  3
__ __ __ __ __ __ __ __ __ __ __ __ __ __ __ __
 72
    65
 73
     2
 40
0.375
 49
0.25
 49
-0.125
  0
LTYPE
  2
PHANTOM2
 70
     0
  3
___ _ _ ___ _ _ ___ _ _ ___ _ _
 72
    65
 73
     6
 40
1.25
 49
0.625
 49
-0.125
 49
0.125
 49
-0.125
 49
0.125
 49
-0.125
  0
ENDTAB
  0
TABLE
  2
LAYER
 70
     4
  0
LAYER
  2
0
 70
     0
 62
     7
  6
CONTINUOUS
  0
LAYER
  2
1
 70
     0
 62
     1
  6
CENTER
  0
LAYER
  2
2
 70
     0
 62
     2
  6
HIDDEN
  0
LAYER
  2
3
 70
     0
 62
     3
  6
CONTINUOUS
  0
ENDTAB
  0
TABLE
  2
STYLE
 70
     2
  0
STYLE
  2
STANDARD
 70
     0
 40
0.0
 41
1.0
 50
0.0
 71
     0
 42
0.06
  3
TXT
  4
BIGFONT
  0
STYLE
  2
STANDARD1
 70
     0
 40
0.0
 41
1.0
 50
0.0
 71
     0
 42
3.0
  3
txt
  4

  0
ENDTAB
  0
TABLE
  2
VIEW
 70
     0
  0
ENDTAB
  0
TABLE
  2
UCS
 70
     0
  0
ENDTAB
  0
TABLE
  2
APPID
 70
     3
  0
APPID
  2
ACAD
 70
     0
  0
APPID
  2
ACAD_MLEADERVER
 70
     0
  0
APPID
  2
ACAD_NAV_VCDISPLAY
 70
     0
  0
ENDTAB
  0
TABLE
  2
DIMSTYLE
 70
     1
  0
DIMSTYLE
  2
STANDARD
 70
     0
  3

  4

  5

  6

  7

 40
1.0
 41
0.18
 42
0.0625
 43
0.38
 44
0.18
 45
0.0
 46
0.0
 47
0.0
 48
0.0
140
0.18
141
0.09
142
0.0
143
25.399999999999999
144
1.0
145
0.0
146
1.0
147
0.09
 71
     0
 72
     0
 73
     1
 74
     1
 75
     0
 76
     0
 77
     0
 78
     0
170
     0
171
     2
172
     0
173
     0
174
     0
175
     0
176
     0
177
     0
178
     0
  0
ENDTAB
  0
ENDSEC
  0
SECTION
  2
BLOCKS
  0
BLOCK
  8
0
  2
$MODEL_SPACE
 70
     0
 10
0.0
 20
0.0
 30
0.0
  3
$MODEL_SPACE
  1

  0
ENDBLK
  5
211
  8
0
  0
BLOCK
 67
     1
  8
0
  2
$PAPER_SPACE
 70
     0
 10
0.0
 20
0.0
 30
0.0
  3
$PAPER_SPACE
  1

  0
ENDBLK
  5
20F
 67
     1
  8
0
  0
BLOCK
  8
0
  2
STDGX5
 70
     0
 10
0.0
 20
0.0
 30
0.0
  3
STDGX5
  1

  0
ENDBLK
  5
3F
  8
0
  0
BLOCK
  8
0
  2
B740218A
 70
     0
 10
0.0
 20
0.0
 30
0.0
  3
B740218A
  1

  0
CIRCLE
  5
4C
  8
0
 10
0.0
 20
0.0
 30
0.0
 40
5.0999999999999988
  0
CIRCLE
  5
4D
  8
3
 10
0.0
 20
0.0
 30
0.0
 40
6.0
  0
LINE
  5
4E
  8
0
 10
5.7116649999999991
 20
-9.1071059999999981
 30
0.0
 11
10.742818
 21
-0.392894
 31
0.0
  0
ARC
  5
4F
  8
0
 10
0.0
 20
0.0
 30
0.0
 40
10.75
 50
357.90547299999997
 51
2.0945269999999998
  0
LINE
  5
50
  8
0
 10
10.742818
 20
0.392894
 30
0.0
 11
5.7116649999999991
 21
9.1071059999999981
 31
0.0
  0
ARC
  5
51
  8
0
 10
0.0
 20
0.0
 30
0.0
 40
10.75
 50
57.905473000000001
 51
62.094526999999999
  0
LINE
  5
52
  8
0
 10
5.0311529999999989
 20
9.5
 30
0.0
 11
-5.0311529999999989
 21
9.5
 31
0.0
  0
ARC
  5
53
  8
0
 10
0.0
 20
0.0
 30
0.0
 40
10.75
 50
117.905473
 51
122.094527
  0
LINE
  5
54
  8
0
 10
-5.7116649999999991
 20
9.1071059999999981
 30
0.0
 11
-10.742818
 21
0.392894
 31
0.0
  0
ARC
  5
55
  8
0
 10
0.0
 20
0.0
 30
0.0
 40
10.75
 50
177.905473
 51
182.094527
  0
LINE
  5
56
  8
0
 10
-10.742818
 20
-0.392894
 30
0.0
 11
-5.7116649999999991
 21
-9.1071059999999981
 31
0.0
  0
ARC
  5
57
  8
0
 10
0.0
 20
0.0
 30
0.0
 40
10.75
 50
237.905473
 51
242.094527
  0
LINE
  5
58
  8
0
 10
-5.0311529999999989
 20
-9.5
 30
0.0
 11
5.0311529999999989
 21
-9.5
 31
0.0
  0
ARC
  5
59
  8
0
 10
0.0
 20
0.0
 30
0.0
 40
10.75
 50
297.90547299999997
 51
302.09452700000003
  0
CIRCLE
  5
5A
  8
0
 10
0.0
 20
0.0
 30
0.0
 40
13.0
  0
CIRCLE
  5
5B
  8
0
 10
0.0
 20
0.0
 30
0.0
 40
9.0
  0
LINE
  5
5C
  8
1
 10
0.0
 20
18.0
 30
0.0
 11
0.0
 21
-18.0
 31
0.0
  0
LINE
  5
5D
  8
1
 10
18.0
 20
0.0
 30
0.0
 11
-18.0
 21
0.0
 31
0.0
  0
ENDBLK
  5
5E
  8
0
  0
BLOCK
  8
0
  2
B739218B
 70
     0
 10
0.0
 20
0.0
 30
0.0
  3
B739218B
  1

  0
INSERT
  5
60
  8
0
  2
742C01B2
 10
0.0
 20
0.0
 30
0.0
  0
INSERT
  5
61
  8
0
  2
B741218B
 10
0.0
 20
2.5222509999999989
 30
0.0
  0
ENDBLK
  5
62
  8
0
  0
BLOCK
  8
0
  2
742C01B2
 70
     0
 10
115.0
 20
75.0
 30
0.0
  3
742C01B2
  1

  0
LINE
  5
64
  8
2
 10
107.5
 20
77.362133999999998
 30
0.0
 11
122.5
 21
77.362133999999998
 31
0.0
  0
LINE
  5
65
  8
2
 10
107.5
 20
75.5
 30
0.0
 11
122.5
 21
75.5
 31
0.0
  0
LINE
  5
66
  8
2
 10
107.5
 20
75.5
 30
0.0
 11
107.0
 21
75.0
 31
0.0
  0
LINE
  5
67
  8
2
 10
107.5
 20
77.362133999999998
 30
0.0
 11
107.5
 21
75.5
 31
0.0
  0
LINE
  5
68
  8
2
 10
103.0
 20
79.0
 30
0.0
 11
107.5
 21
77.362133999999998
 31
0.0
  0
LINE
  5
69
  8
2
 10
122.5
 20
75.5
 30
0.0
 11
123.0
 21
75.0
 31
0.0
  0
LINE
  5
6A
  8
2
 10
122.5
 20
77.362133999999998
 30
0.0
 11
122.5
 21
75.5
 31
0.0
  0
LINE
  5
6B
  8
2
 10
127.0
 20
79.0
 30
0.0
 11
122.5
 21
77.362133999999998
 31
0.0
  0
LINE
  5
6C
  8
0
 10
128.0
 20
78.5
 30
0.0
 11
127.5
 21
79.0
 31
0.0
  0
LINE
  5
6D
  8
0
 10
127.5
 20
75.0
 30
0.0
 11
128.0
 21
75.5
 31
0.0
  0
LINE
  5
6E
  8
0
 10
102.0
 20
78.5
 30
0.0
 11
102.5
 21
79.0
 31
0.0
  0
LINE
  5
6F
  8
0
 10
102.5
 20
75.0
 30
0.0
 11
102.0
 21
75.5
 31
0.0
  0
LINE
  5
70
  8
0
 10
102.0
 20
75.5
 30
0.0
 11
102.0
 21
78.5
 31
0.0
  0
LINE
  5
71
  8
0
 10
127.5
 20
75.0
 30
0.0
 11
102.5
 21
75.0
 31
0.0
  0
LINE
  5
72
  8
0
 10
128.0
 20
78.5
 30
0.0
 11
128.0
 21
75.5
 31
0.0
  0
LINE
  5
73
  8
0
 10
102.5
 20
79.0
 30
0.0
 11
127.5
 21
79.0
 31
0.0
  0
LINE
  5
74
  8
1
 10
115.0
 20
84.0
 30
0.0
 11
115.0
 21
70.0
 31
0.0
  0
ENDBLK
  5
75
  8
0
  0
BLOCK
  8
0
  2
B741218B
 70
     0
 10
0.0
 20
0.0
 30
0.0
  3
B741218B
  1

  0
ARC
  5
77
  8
0
 10
8.0625
 20
13.920531
 30
0.0
 40
4.0794689999999996
 50
71.207402000000002
 51
131.207402
  0
ARC
  5
78
  8
0
 10
0.0
 20
3.0
 30
0.0
 40
14.98668
 50
68.982577000000006
 51
90.0
  0
LINE
  5
79
  8
0
 10
5.375
 20
16.989636999999998
 30
0.0
 11
5.375
 21
5.0
 31
0.0
  0
LINE
  5
7A
  8
1
 10
0.0
 20
-5.0
 30
0.0
 11
0.0
 21
23.0
 31
0.0
  0
LINE
  5
7B
  8
0
 10
-5.375
 20
16.989636999999998
 30
0.0
 11
-5.375
 21
5.0
 31
0.0
  0
LINE
  5
7C
  8
0
 10
-12.5
 20
5.0
 30
0.0
 11
12.5
 21
5.0
 31
0.0
  0
LINE
  5
7D
  8
0
 10
-7.5400229999999988
 20
0.0
 30
0.0
 11
7.5400229999999988
 21
0.0
 31
0.0
  0
LINE
  5
7E
  8
0
 10
-12.5
 20
5.0
 30
0.0
 11
-13.0
 21
4.5
 31
0.0
  0
LINE
  5
7F
  8
0
 10
-13.0
 20
4.5
 30
0.0
 11
-13.0
 21
2.0
 31
0.0
  0
ARC
  5
80
  8
0
 10
-11.15
 20
5.4000000000000004
 30
0.0
 40
0.4
 50
270.0
 51
360.0
  0
LINE
  5
81
  8
0
 10
-10.75
 20
16.989636999999998
 30
0.0
 11
-10.75
 21
5.4000000000000004
 31
0.0
  0
ARC
  5
82
  8
0
 10
11.15
 20
5.4000000000000004
 30
0.0
 40
0.4
 50
180.0
 51
270.0
  0
LINE
  5
83
  8
0
 10
12.5
 20
5.0
 30
0.0
 11
13.0
 21
4.5
 31
0.0
  0
LINE
  5
84
  8
0
 10
10.75
 20
16.989636999999998
 30
0.0
 11
10.75
 21
5.4000000000000004
 31
0.0
  0
LINE
  5
85
  8
0
 10
9.0
 20
18.0
 30
0.0
 11
-9.0
 21
18.0
 31
0.0
  0
ARC
  5
86
  8
0
 10
0.0
 20
3.0
 30
0.0
 40
14.98668
 50
90.0
 51
111.01742299999999
  0
ARC
  5
87
  8
0
 10
-8.0625
 20
13.920531
 30
0.0
 40
4.0794689999999996
 50
48.792597999999991
 51
108.792598
  0
LINE
  5
88
  8
0
 10
-10.75
 20
16.989636999999998
 30
0.0
 11
-9.0
 21
18.0
 31
0.0
  0
LINE
  5
89
  8
0
 10
10.75
 20
16.989636999999998
 30
0.0
 11
9.0
 21
18.0
 31
0.0
  0
LINE
  5
8A
  8
0
 10
13.0
 20
2.0
 30
0.0
 11
-13.0
 21
2.0
 31
0.0
  0
LINE
  5
8B
  8
0
 10
13.0
 20
4.5
 30
0.0
 11
13.0
 21
2.0
 31
0.0
  0
ARC
  5
8C
  8
0
 10
0.0
 20
29.037012000000001
 30
0.0
 40
30.0
 50
244.32071099999999
 51
255.44352799999999
  0
ARC
  5
8D
  8
0
 10
0.0
 20
29.037012000000001
 30
0.0
 40
30.0
 50
284.55647199999999
 51
295.67928899999998
  0
ENDBLK
  5
8E
  8
0
  0
BLOCK
  8
0
  2
B739218C
 70
     0
 10
0.0
 20
0.0
 30
0.0
  3
B739218C
  1

  0
INSERT
  5
90
  8
0
  2
742C01B2
 10
0.0
 20
0.0
 30
0.0
  0
INSERT
  5
91
  8
0
  2
B741218C
 10
0.0
 20
2.5222509999999989
 30
0.0
  0
ENDBLK
  5
92
  8
0
  0
BLOCK
  8
0
  2
B741218C
 70
     0
 10
0.0
 20
0.0
 30
0.0
  3
B741218C
  1

  0
LINE
  5
94
  8
1
 10
0.0
 20
-5.0
 30
0.0
 11
0.0
 21
23.0
 31
0.0
  0
LINE
  5
95
  8
0
 10
-7.5400229999999988
 20
0.0
 30
0.0
 11
7.5400229999999988
 21
0.0
 31
0.0
  0
ARC
  5
96
  8
0
 10
9.9000000000000004
 20
5.4000000000000004
 30
0.0
 40
0.4
 50
180.0
 51
270.0
  0
ARC
  5
97
  8
0
 10
-4.75
 20
7.5110440000000001
 30
0.0
 40
10.488956
 50
63.072847000000003
 51
116.927153
  0
ARC
  5
98
  8
0
 10
4.75
 20
7.5110440000000001
 30
0.0
 40
10.488956
 50
63.072847000000003
 51
116.927153
  0
LINE
  5
99
  8
0
 10
-9.0
 20
18.0
 30
0.0
 11
-9.5
 21
17.711324999999999
 31
0.0
  0
LINE
  5
9A
  8
0
 10
9.0
 20
18.0
 30
0.0
 11
9.5
 21
17.711324999999999
 31
0.0
  0
LINE
  5
9B
  8
0
 10
9.5
 20
17.711324999999999
 30
0.0
 11
9.5
 21
5.4000000000000004
 31
0.0
  0
LINE
  5
9C
  8
0
 10
-9.0
 20
18.0
 30
0.0
 11
9.0
 21
18.0
 31
0.0
  0
LINE
  5
9D
  8
0
 10
0.0
 20
16.862818999999998
 30
0.0
 11
0.0
 21
5.0
 31
0.0
  0
LINE
  5
9E
  8
0
 10
-9.5
 20
17.711324999999999
 30
0.0
 11
-9.5
 21
5.4000000000000004
 31
0.0
  0
ARC
  5
9F
  8
0
 10
0.0
 20
29.037012000000001
 30
0.0
 40
30.0
 50
284.55647199999999
 51
295.67928899999998
  0
LINE
  5
A0
  8
0
 10
13.0
 20
4.5
 30
0.0
 11
13.0
 21
2.0
 31
0.0
  0
LINE
  5
A1
  8
0
 10
12.5
 20
5.0
 30
0.0
 11
13.0
 21
4.5
 31
0.0
  0
ARC
  5
A2
  8
0
 10
-9.9000000000000004
 20
5.4000000000000004
 30
0.0
 40
0.4
 50
270.0
 51
360.0
  0
ARC
  5
A3
  8
0
 10
0.0
 20
29.037012000000001
 30
0.0
 40
30.0
 50
244.32071099999999
 51
255.44352799999999
  0
LINE
  5
A4
  8
0
 10
13.0
 20
2.0
 30
0.0
 11
-13.0
 21
2.0
 31
0.0
  0
LINE
  5
A5
  8
0
 10
-13.0
 20
4.5
 30
0.0
 11
-13.0
 21
2.0
 31
0.0
  0
LINE
  5
A6
  8
0
 10
-12.5
 20
5.0
 30
0.0
 11
-13.0
 21
4.5
 31
0.0
  0
LINE
  5
A7
  8
0
 10
-12.5
 20
5.0
 30
0.0
 11
12.5
 21
5.0
 31
0.0
  0
ENDBLK
  5
A8
  8
0
  0
BLOCK
  8
0
  2
B746218A
 70
     0
 10
0.0
 20
0.0
 30
0.0
  3
B746218A
  1

  0
LINE
  5
AA
  8
0
 10
-1.7320509999999989
 20
-3.0
 30
0.0
 11
1.7320509999999989
 21
-3.0
 31
0.0
  0
LINE
  5
AB
  8
0
 10
1.7320509999999989
 20
-3.0
 30
0.0
 11
3.4641019999999991
 21
0.0
 31
0.0
  0
LINE
  5
AC
  8
0
 10
3.4641019999999991
 20
0.0
 30
0.0
 11
1.7320509999999989
 21
3.0
 31
0.0
  0
LINE
  5
AD
  8
0
 10
1.7320509999999989
 20
3.0
 30
0.0
 11
-1.7320509999999989
 21
3.0
 31
0.0
  0
LINE
  5
AE
  8
0
 10
-1.7320509999999989
 20
3.0
 30
0.0
 11
-3.4641019999999991
 21
0.0
 31
0.0
  0
LINE
  5
AF
  8
0
 10
-3.4641019999999991
 20
0.0
 30
0.0
 11
-1.7320509999999989
 21
-3.0
 31
0.0
  0
CIRCLE
  5
B0
  8
0
 10
0.0
 20
0.0
 30
0.0
 40
6.0
  0
CIRCLE
  5
B1
  8
3
 10
0.0
 20
0.0
 30
0.0
 40
5.3235000000000001
  0
LINE
  5
B2
  8
1
 10
0.0
 20
15.0
 30
0.0
 11
0.0
 21
-15.0
 31
0.0
  0
LINE
  5
B3
  8
1
 10
15.0
 20
0.0
 30
0.0
 11
-15.0
 21
0.0
 31
0.0
  0
CIRCLE
  5
B4
  8
0
 10
0.0
 20
0.0
 30
0.0
 40
12.5
  0
CIRCLE
  5
B5
  8
0
 10
0.0
 20
0.0
 30
0.0
 40
9.0
  0
ENDBLK
  5
B6
  8
0
  0
BLOCK
  8
0
  2
NM12B
 70
     0
 10
0.0
 20
0.0
 30
0.0
  3
NM12B
  1

  0
LINE
  5
B8
  8
0
 10
-5.862819
 20
5.4848280000000003
 30
0.0
 11
-1.1371809999999991
 21
5.4848280000000003
 31
0.0
  0
LINE
  5
B9
  8
0
 10
-5.862819
 20
10.969654999999999
 30
0.0
 11
-1.1371809999999991
 21
10.969654999999999
 31
0.0
  0
LINE
  5
BA
  8
0
 10
-5.862819
 20
-5.4848280000000003
 30
0.0
 11
-1.1371809999999991
 21
-5.4848280000000003
 31
0.0
  0
LINE
  5
BB
  8
0
 10
-5.862819
 20
-10.969654999999999
 30
0.0
 11
-1.1371809999999991
 21
-10.969654999999999
 31
0.0
  0
LINE
  5
BC
  8
0
 10
-1.1371809999999991
 20
-10.969654999999999
 30
0.0
 11
0.0
 21
-9.0
 31
0.0
  0
ARC
  5
BD
  8
0
 10
-5.1447379999999994
 20
-8.2272410000000011
 30
0.0
 40
4.8560629999999989
 50
334.38424700000002
 51
34.384247000000002
  0
ARC
  5
BE
  8
0
 10
-18.440169000000001
 20
0.0
 30
0.0
 40
18.151494
 50
342.41204599999998
 51
17.587954
  0
ARC
  5
BF
  8
0
 10
-5.1447379999999994
 20
8.2272410000000011
 30
0.0
 40
4.8560629999999989
 50
325.61575299999998
 51
25.615753000000002
  0
LINE
  5
C0
  8
0
 10
-1.1371809999999991
 20
10.969654999999999
 30
0.0
 11
0.0
 21
9.0
 31
0.0
  0
LINE
  5
C1
  8
0
 10
0.0
 20
-9.0
 30
0.0
 11
0.0
 21
9.0
 31
0.0
  0
LINE
  5
C2
  8
0
 10
-7.0
 20
-9.0
 30
0.0
 11
-7.0
 21
9.0
 31
0.0
  0
LINE
  5
C3
  8
0
 10
-5.862819
 20
10.969654999999999
 30
0.0
 11
-7.0
 21
9.0
 31
0.0
  0
ARC
  5
C4
  8
0
 10
-1.8552619999999991
 20
8.2272410000000011
 30
0.0
 40
4.8560629999999989
 50
154.38424699999999
 51
214.38424699999999
  0
ARC
  5
C5
  8
0
 10
11.440168999999999
 20
0.0
 30
0.0
 40
18.151494
 50
162.412046
 51
197.587954
  0
ARC
  5
C6
  8
0
 10
-1.8552619999999991
 20
-8.2272410000000011
 30
0.0
 40
4.8560629999999989
 50
145.61575300000001
 51
205.61575300000001
  0
LINE
  5
C7
  8
0
 10
-5.862819
 20
-10.969654999999999
 30
0.0
 11
-7.0
 21
-9.0
 31
0.0
  0
ENDBLK
  5
C8
  8
0
  0
BLOCK
  8
0
  2
NM12C
 70
     0
 10
0.0
 20
0.0
 30
0.0
  3
NM12C
  1

  0
LINE
  5
CA
  8
0
 10
9.5
 20
6.7113250000000004
 30
0.0
 11
9.0
 21
7.0
 31
0.0
  0
ARC
  5
CB
  8
0
 10
4.75
 20
-7.0083589999999987
 30
0.0
 40
13.719684000000001
 50
69.743842000000001
 51
110.256158
  0
LINE
  5
CC
  8
0
 10
9.0
 20
0.0
 30
0.0
 11
9.5
 21
0.3604719999999999
 31
0.0
  0
LINE
  5
CD
  8
0
 10
9.5
 20
0.3604719999999999
 30
0.0
 11
9.5
 21
6.7113250000000004
 31
0.0
  0
ARC
  5
CE
  8
0
 10
4.75
 20
14.008359
 30
0.0
 40
13.719684000000001
 50
249.743842
 51
290.25615800000003
  0
ARC
  5
CF
  8
0
 10
-4.75
 20
14.008359
 30
0.0
 40
13.719684000000001
 50
249.743842
 51
290.25615800000003
  0
LINE
  5
D0
  8
0
 10
-9.5
 20
0.3604719999999999
 30
0.0
 11
-9.5
 21
6.7113250000000004
 31
0.0
  0
LINE
  5
D1
  8
0
 10
-9.0
 20
0.0
 30
0.0
 11
-9.5
 21
0.3604719999999999
 31
0.0
  0
ARC
  5
D2
  8
0
 10
-4.75
 20
-7.0083589999999987
 30
0.0
 40
13.719684000000001
 50
69.743842000000001
 51
110.256158
  0
LINE
  5
D3
  8
0
 10
-9.5
 20
6.7113250000000004
 30
0.0
 11
-9.0
 21
7.0
 31
0.0
  0
LINE
  5
D4
  8
0
 10
-9.0
 20
7.0
 30
0.0
 11
9.0
 21
7.0
 31
0.0
  0
LINE
  5
D5
  8
0
 10
9.0
 20
0.0
 30
0.0
 11
-9.0
 21
0.0
 31
0.0
  0
LINE
  5
D6
  8
0
 10
0.0
 20
5.862819
 30
0.0
 11
0.0
 21
1.1371809999999991
 31
0.0
  0
ENDBLK
  5
D7
  8
0
  0
BLOCK
  8
0
  2
B746228B
 70
     0
 10
0.0
 20
0.0
 30
0.0
  3
B746228B
  1

  0
LINE
  5
D9
  8
3
 10
5.125
 20
83.875000000000014
 30
0.0
 11
5.125
 21
14.100154
 31
0.0
  0
LINE
  5
DA
  8
0
 10
6.0
 20
83.0
 30
0.0
 11
6.0
 21
14.605335999999999
 31
0.0
  0
LINE
  5
DB
  8
3
 10
-5.125
 20
83.875000000000014
 30
0.0
 11
-5.125
 21
14.100154
 31
0.0
  0
LINE
  5
DC
  8
1
 10
0.0
 20
-4.427738999999999
 30
0.0
 11
0.0
 21
16.442941999999999
 31
0.0
  0
LINE
  5
DD
  8
0
 10
0.0
 20
0.0
 30
0.0
 11
-11.5
 21
0.0
 31
0.0
  0
LINE
  5
DE
  8
0
 10
-11.5
 20
0.0
 30
0.0
 11
-12.5
 21
1.0
 31
0.0
  0
LINE
  5
DF
  8
0
 10
-12.5
 20
1.0
 30
0.0
 11
-12.5
 21
5.0
 31
0.0
  0
LINE
  5
E0
  8
0
 10
-12.5
 20
5.0
 30
0.0
 11
-11.5
 21
6.0
 31
0.0
  0
LINE
  5
E1
  8
0
 10
-8.0
 20
13.0
 30
0.0
 11
0.0
 21
13.0
 31
0.0
  0
LINE
  5
E2
  8
0
 10
-9.0
 20
12.0
 30
0.0
 11
-8.0
 21
13.0
 31
0.0
  0
LINE
  5
E3
  8
0
 10
-9.0
 20
8.0
 30
0.0
 11
-9.0
 21
12.0
 31
0.0
  0
LINE
  5
E4
  8
0
 10
-11.5
 20
6.0
 30
0.0
 11
-11.0
 21
6.0
 31
0.0
  0
ARC
  5
E5
  8
0
 10
-11.0
 20
8.0
 30
0.0
 40
2.0
 50
270.0
 51
360.0
  0
LINE
  5
E6
  8
0
 10
-11.0
 20
6.0
 30
0.0
 11
0.0
 21
6.0
 31
0.0
  0
LINE
  5
E7
  8
0
 10
11.0
 20
6.0
 30
0.0
 11
0.0
 21
6.0
 31
0.0
  0
ARC
  5
E8
  8
0
 10
11.0
 20
8.0
 30
0.0
 40
2.0
 50
180.0
 51
270.0
  0
LINE
  5
E9
  8
0
 10
9.0
 20
12.0
 30
0.0
 11
8.0
 21
13.0
 31
0.0
  0
LINE
  5
EA
  8
0
 10
12.5
 20
5.0
 30
0.0
 11
11.5
 21
6.0
 31
0.0
  0
LINE
  5
EB
  8
0
 10
11.5
 20
0.0
 30
0.0
 11
12.5
 21
1.0
 31
0.0
  0
LINE
  5
EC
  8
0
 10
8.0
 20
13.0
 30
0.0
 11
0.0
 21
13.0
 31
0.0
  0
LINE
  5
ED
  8
0
 10
0.0
 20
0.0
 30
0.0
 11
11.5
 21
0.0
 31
0.0
  0
LINE
  5
EE
  8
0
 10
9.0
 20
8.0
 30
0.0
 11
9.0
 21
12.0
 31
0.0
  0
LINE
  5
EF
  8
0
 10
11.5
 20
6.0
 30
0.0
 11
11.0
 21
6.0
 31
0.0
  0
LINE
  5
F0
  8
0
 10
12.5
 20
1.0
 30
0.0
 11
12.5
 21
5.0
 31
0.0
  0
LINE
  5
F1
  8
0
 10
-3.6000000000000001
 20
13.219695
 30
0.0
 11
0.0
 21
13.219695
 31
0.0
  0
LINE
  5
F2
  8
0
 10
-3.6000000000000001
 20
13.219695
 30
0.0
 11
-3.6000000000000001
 21
13.0
 31
0.0
  0
LINE
  5
F3
  8
0
 10
-6.0
 20
14.605335999999999
 30
0.0
 11
-3.6000000000000001
 21
13.219695
 31
0.0
  0
LINE
  5
F4
  8
0
 10
3.6000000000000001
 20
13.219695
 30
0.0
 11
0.0
 21
13.219695
 31
0.0
  0
LINE
  5
F5
  8
0
 10
6.0
 20
14.605335999999999
 30
0.0
 11
3.6000000000000001
 21
13.219695
 31
0.0
  0
LINE
  5
F6
  8
0
 10
3.6000000000000001
 20
13.219695
 30
0.0
 11
3.6000000000000001
 21
13.0
 31
0.0
  0
LINE
  5
F7
  8
0
 10
6.0
 20
83.0
 30
0.0
 11
-6.0
 21
83.0
 31
0.0
  0
LINE
  5
F8
  8
0
 10
-4.0
 20
85.0
 30
0.0
 11
-6.0
 21
83.0
 31
0.0
  0
LINE
  5
F9
  8
0
 10
6.0
 20
83.0
 30
0.0
 11
4.0
 21
85.0
 31
0.0
  0
LINE
  5
FA
  8
0
 10
-6.0
 20
14.605335999999999
 30
0.0
 11
6.0
 21
14.605335999999999
 31
0.0
  0
LINE
  5
FB
  8
0
 10
-6.0
 20
83.0
 30
0.0
 11
-6.0
 21
14.605335999999999
 31
0.0
  0
LINE
  5
FC
  8
0
 10
4.0
 20
85.0
 30
0.0
 11
-4.0
 21
85.0
 31
0.0
  0
LINE
  5
FD
  8
1
 10
0.0
 20
89.754041000000001
 30
0.0
 11
0.0
 21
-2.1816680000000002
 31
0.0
  0
ENDBLK
  5
FE
  8
0
  0
BLOCK
  8
0
  2
B745258B
 70
     0
 10
0.0
 20
0.0
 30
0.0
  3
B745258B
  1

  0
LINE
  5
100
  8
1
 10
0.0
 20
130.0
 30
0.0
 11
0.0
 21
-5.0
 31
0.0
  0
LINE
  5
101
  8
0
 10
4.0
 20
0.0
 30
0.0
 11
-4.0
 21
0.0
 31
0.0
  0
LINE
  5
102
  8
0
 10
-6.0
 20
2.0
 30
0.0
 11
-6.0
 21
123.0
 31
0.0
  0
LINE
  5
103
  8
0
 10
-4.0
 20
125.0
 30
0.0
 11
4.0
 21
125.0
 31
0.0
  0
LINE
  5
104
  8
0
 10
6.0
 20
123.0
 30
0.0
 11
6.0
 21
2.0
 31
0.0
  0
LINE
  5
105
  8
0
 10
-6.0
 20
123.0
 30
0.0
 11
-4.0
 21
125.0
 31
0.0
  0
LINE
  5
106
  8
0
 10
6.0
 20
123.0
 30
0.0
 11
4.0
 21
125.0
 31
0.0
  0
LINE
  5
107
  8
0
 10
4.0
 20
0.0
 30
0.0
 11
6.0
 21
2.0
 31
0.0
  0
LINE
  5
108
  8
0
 10
-4.0
 20
0.0
 30
0.0
 11
-6.0
 21
2.0
 31
0.0
  0
LINE
  5
109
  8
0
 10
-6.0
 20
2.0
 30
0.0
 11
6.0
 21
2.0
 31
0.0
  0
LINE
  5
10A
  8
3
 10
-6.0
 20
41.558846000000003
 30
0.0
 11
-5.0999999999999988
 21
40.0
 31
0.0
  0
LINE
  5
10B
  8
3
 10
-5.0999999999999988
 20
40.0
 30
0.0
 11
-5.0999999999999988
 21
1.1000000000000001
 31
0.0
  0
LINE
  5
10C
  8
0
 10
-6.0
 20
40.0
 30
0.0
 11
6.0
 21
40.0
 31
0.0
  0
LINE
  5
10D
  8
3
 10
6.0
 20
41.558846000000003
 30
0.0
 11
5.0999999999999988
 21
40.0
 31
0.0
  0
LINE
  5
10E
  8
3
 10
5.0999999999999988
 20
40.0
 30
0.0
 11
5.0999999999999988
 21
1.1000000000000001
 31
0.0
  0
LINE
  5
10F
  8
3
 10
5.0999999999999988
 20
85.0
 30
0.0
 11
5.0999999999999988
 21
123.90000000000001
 31
0.0
  0
LINE
  5
110
  8
3
 10
6.0
 20
83.441153999999983
 30
0.0
 11
5.0999999999999988
 21
85.0
 31
0.0
  0
LINE
  5
111
  8
0
 10
-6.0
 20
85.0
 30
0.0
 11
6.0
 21
85.0
 31
0.0
  0
LINE
  5
112
  8
3
 10
-6.0
 20
83.441153999999983
 30
0.0
 11
-5.0999999999999988
 21
85.0
 31
0.0
  0
LINE
  5
113
  8
3
 10
-5.0999999999999988
 20
85.0
 30
0.0
 11
-5.0999999999999988
 21
123.90000000000001
 31
0.0
  0
LINE
  5
114
  8
0
 10
-6.0
 20
123.0
 30
0.0
 11
6.0
 21
123.0
 31
0.0
  0
ENDBLK
  5
115
  8
0
  0
BLOCK
  8
0
  2
B156218A
 70
     0
 10
0.0
 20
0.0
 30
0.0
  3
B156218A
  1

  0
LINE
  5
117
  8
0
 10
-28.0
 20
-15.5
 30
0.0
 11
-27.5
 21
-16.0
 31
0.0
  0
LINE
  5
118
  8
0
 10
35.0
 20
-15.5
 30
0.0
 11
34.5
 21
-16.0
 31
0.0
  0
LINE
  5
119
  8
0
 10
34.5
 20
16.0
 30
0.0
 11
35.0
 21
15.5
 31
0.0
  0
LINE
  5
11A
  8
0
 10
-27.5
 20
16.0
 30
0.0
 11
-28.0
 21
15.5
 31
0.0
  0
LINE
  5
11B
  8
0
 10
-27.5
 20
-16.0
 30
0.0
 11
34.5
 21
-16.0
 31
0.0
  0
LINE
  5
11C
  8
0
 10
-27.5
 20
16.0
 30
0.0
 11
34.5
 21
16.0
 31
0.0
  0
LINE
  5
11D
  8
1
 10
-33.0
 20
0.0
 30
0.0
 11
40.0
 21
0.0
 31
0.0
  0
LINE
  5
11E
  8
0
 10
35.0
 20
15.5
 30
0.0
 11
35.0
 21
-15.5
 31
0.0
  0
LINE
  5
11F
  8
0
 10
-28.0
 20
15.5
 30
0.0
 11
-28.0
 21
-15.5
 31
0.0
  0
LINE
  5
120
  8
2
 10
-15.36675
 20
-16.0
 30
0.0
 11
-15.36675
 21
-6.3546829999999996
 31
0.0
  0
LINE
  5
121
  8
2
 10
2.633249999999999
 20
-16.0
 30
0.0
 11
2.633249999999999
 21
-6.5
 31
0.0
  0
LINE
  5
122
  8
2
 10
2.633249999999999
 20
6.5
 30
0.0
 11
2.633249999999999
 21
16.0
 31
0.0
  0
LINE
  5
123
  8
2
 10
-15.36675
 20
6.3546829999999996
 30
0.0
 11
-15.36675
 21
16.0
 31
0.0
  0
ARC
  5
124
  8
0
 10
-14.0
 20
0.0
 30
0.0
 40
6.5
 50
90.0
 51
270.0
  0
ARC
  5
125
  8
0
 10
0.0
 20
0.0
 30
0.0
 40
6.5
 50
270.0
 51
90.0
  0
LINE
  5
126
  8
0
 10
-14.0
 20
6.5
 30
0.0
 11
0.0
 21
6.5
 31
0.0
  0
LINE
  5
127
  8
0
 10
-14.0
 20
-6.5
 30
0.0
 11
0.0
 21
-6.5
 31
0.0
  0
LINE
  5
128
  8
1
 10
-14.0
 20
9.5
 30
0.0
 11
-14.0
 21
-9.5
 31
0.0
  0
LINE
  5
129
  8
1
 10
0.0
 20
9.5
 30
0.0
 11
0.0
 21
-9.5
 31
0.0
  0
CIRCLE
  5
12A
  8
0
 10
24.0
 20
0.0
 30
0.0
 40
5.0
  0
CIRCLE
  5
12B
  8
3
 10
24.0
 20
0.0
 30
0.0
 40
6.0
  0
LINE
  5
12C
  8
1
 10
24.0
 20
-10.0
 30
0.0
 11
24.0
 21
10.0
 31
0.0
  0
LINE
  5
12D
  8
2
 10
0.0
 20
6.5
 30
0.0
 11
35.0
 21
6.5
 31
0.0
  0
LINE
  5
12E
  8
2
 10
0.0
 20
-6.5
 30
0.0
 11
35.0
 21
-6.5
 31
0.0
  0
ENDBLK
  5
12F
  8
0
  0
BLOCK
  8
0
  2
B156218B
 70
     0
 10
0.0
 20
0.0
 30
0.0
  3
B156218B
  1

  0
LINE
  5
131
  8
1
 10
-14.0
 20
19.0
 30
0.0
 11
-14.0
 21
-3.0
 31
0.0
  0
LINE
  5
132
  8
1
 10
0.0
 20
19.0
 30
0.0
 11
0.0
 21
-3.0
 31
0.0
  0
LINE
  5
133
  8
0
 10
35.0
 20
0.5
 30
0.0
 11
34.5
 21
0.0
 31
0.0
  0
LINE
  5
134
  8
0
 10
34.5
 20
16.0
 30
0.0
 11
35.0
 21
15.5
 31
0.0
  0
LINE
  5
135
  8
0
 10
-27.5
 20
16.0
 30
0.0
 11
-28.0
 21
15.5
 31
0.0
  0
LINE
  5
136
  8
0
 10
35.0
 20
15.5
 30
0.0
 11
35.0
 21
0.5
 31
0.0
  0
LINE
  5
137
  8
0
 10
-28.0
 20
15.5
 30
0.0
 11
-28.0
 21
1.6076950000000001
 31
0.0
  0
LINE
  5
138
  8
0
 10
2.633249999999999
 20
0.0
 30
0.0
 11
34.5
 21
0.0
 31
0.0
  0
LINE
  5
139
  8
0
 10
-27.5
 20
16.0
 30
0.0
 11
34.5
 21
16.0
 31
0.0
  0
LINE
  5
13A
  8
1
 10
24.0
 20
19.0
 30
0.0
 11
24.0
 21
-3.0
 31
0.0
  0
LINE
  5
13B
  8
2
 10
0.0
 20
5.0
 30
0.0
 11
35.0
 21
5.0
 31
0.0
  0
LINE
  5
13C
  8
2
 10
6.5
 20
16.0
 30
0.0
 11
6.5
 21
5.0
 31
0.0
  0
LINE
  5
13D
  8
2
 10
-20.5
 20
16.0
 30
0.0
 11
-20.5
 21
0.094119
 31
0.0
  0
LINE
  5
13E
  8
2
 10
18.0
 20
15.0
 30
0.0
 11
18.0
 21
5.0
 31
0.0
  0
LINE
  5
13F
  8
2
 10
19.0
 20
14.0
 30
0.0
 11
19.0
 21
5.0
 31
0.0
  0
LINE
  5
140
  8
2
 10
17.0
 20
16.0
 30
0.0
 11
19.0
 21
14.0
 31
0.0
  0
LINE
  5
141
  8
2
 10
31.0
 20
16.0
 30
0.0
 11
29.0
 21
14.0
 31
0.0
  0
LINE
  5
142
  8
2
 10
29.0
 20
14.0
 30
0.0
 11
29.0
 21
5.0
 31
0.0
  0
LINE
  5
143
  8
2
 10
30.0
 20
15.0
 30
0.0
 11
30.0
 21
5.0
 31
0.0
  0
LINE
  5
144
  8
2
 10
19.0
 20
14.0
 30
0.0
 11
29.0
 21
14.0
 31
0.0
  0
ARC
  5
145
  8
0
 10
-22.0
 20
12.0
 30
0.0
 40
12.0
 50
240.0
 51
303.55731000000009
  0
LINE
  5
146
  8
0
 10
2.633249999999999
 20
0.0
 30
0.0
 11
-15.36675
 21
2.0
 31
0.0
  0
ENDBLK
  5
147
  8
0
  0
BLOCK
  8
0
  2
B156218C
 70
     0
 10
0.0
 20
0.0
 30
0.0
  3
B156218C
  1

  0
LINE
  5
149
  8
0
 10
-15.5
 20
16.0
 30
0.0
 11
-16.0
 21
15.5
 31
0.0
  0
LINE
  5
14A
  8
0
 10
15.5
 20
16.0
 30
0.0
 11
-15.5
 21
16.0
 31
0.0
  0
LINE
  5
14B
  8
0
 10
16.0
 20
15.5
 30
0.0
 11
15.5
 21
16.0
 31
0.0
  0
LINE
  5
14C
  8
0
 10
16.0
 20
0.5
 30
0.0
 11
16.0
 21
15.5
 31
0.0
  0
LINE
  5
14D
  8
0
 10
15.5
 20
0.0
 30
0.0
 11
16.0
 21
0.5
 31
0.0
  0
LINE
  5
14E
  8
0
 10
-15.5
 20
0.0
 30
0.0
 11
15.5
 21
0.0
 31
0.0
  0
LINE
  5
14F
  8
0
 10
-16.0
 20
0.5
 30
0.0
 11
-15.5
 21
0.0
 31
0.0
  0
LINE
  5
150
  8
0
 10
-16.0
 20
15.5
 30
0.0
 11
-16.0
 21
0.5
 31
0.0
  0
LINE
  5
151
  8
1
 10
0.0
 20
21.0
 30
0.0
 11
0.0
 21
-5.0
 31
0.0
  0
LINE
  5
152
  8
0
 10
-6.5
 20
0.0
 30
0.0
 11
-6.5
 21
5.0
 31
0.0
  0
LINE
  5
153
  8
0
 10
-6.5
 20
5.0
 30
0.0
 11
6.5
 21
5.0
 31
0.0
  0
LINE
  5
154
  8
0
 10
6.5
 20
5.0
 30
0.0
 11
6.5
 21
0.0
 31
0.0
  0
ENDBLK
  5
155
  8
0
  0
BLOCK
  8
0
  2
B156218D
 70
     0
 10
0.0
 20
0.0
 30
0.0
  3
B156218D
  1

  0
LINE
  5
157
  8
0
 10
15.5
 20
16.0
 30
0.0
 11
16.0
 21
15.5
 31
0.0
  0
LINE
  5
158
  8
0
 10
-15.5
 20
16.0
 30
0.0
 11
15.5
 21
16.0
 31
0.0
  0
LINE
  5
159
  8
0
 10
-16.0
 20
15.5
 30
0.0
 11
-15.5
 21
16.0
 31
0.0
  0
LINE
  5
15A
  8
0
 10
-16.0
 20
0.5
 30
0.0
 11
-16.0
 21
15.5
 31
0.0
  0
LINE
  5
15B
  8
0
 10
-15.5
 20
0.0
 30
0.0
 11
-16.0
 21
0.5
 31
0.0
  0
LINE
  5
15C
  8
0
 10
15.5
 20
0.0
 30
0.0
 11
-15.5
 21
0.0
 31
0.0
  0
LINE
  5
15D
  8
0
 10
16.0
 20
0.5
 30
0.0
 11
15.5
 21
0.0
 31
0.0
  0
LINE
  5
15E
  8
0
 10
16.0
 20
15.5
 30
0.0
 11
16.0
 21
0.5
 31
0.0
  0
LINE
  5
15F
  8
1
 10
0.0
 20
21.0
 30
0.0
 11
0.0
 21
-5.0
 31
0.0
  0
LINE
  5
160
  8
0
 10
16.0
 20
1.6076950000000001
 30
0.0
 11
-16.0
 21
1.6076950000000001
 31
0.0
  0
ENDBLK
  5
161
  8
0
  0
BLOCK
  8
0
  2
156BC02A1
 70
     0
 10
0.0
 20
0.0
 30
0.0
  3
156BC02A1
  1

  0
INSERT
  5
163
  8
0
  2
B156218A
 10
0.0
 20
0.0
 30
0.0
  0
INSERT
  5
164
  8
2
  2
B746218A
 10
24.0
 20
0.0
 30
0.0
  0
ENDBLK
  5
165
  8
0
  0
BLOCK
  8
0
  2
156BC02C1
 70
     0
 10
0.0
 20
0.0
 30
0.0
  3
156BC02C1
  1

  0
INSERT
  5
167
  8
0
  2
B156218C
 10
0.0
 20
0.0
 30
0.0
  0
INSERT
  5
168
  8
0
  2
B739218C
 10
0.0
 20
16.0
 30
0.0
  0
ENDBLK
  5
169
  8
0
  0
BLOCK
  8
0
  2
156BC02D1
 70
     0
 10
0.0
 20
0.0
 30
0.0
  3
156BC02D1
  1

  0
INSERT
  5
16B
  8
0
  2
B156218D
 10
0.0
 20
0.0
 30
0.0
  0
INSERT
  5
16C
  8
0
  2
B739218C
 10
0.0
 20
16.0
 30
0.0
  0
ENDBLK
  5
16D
  8
0
  0
ENDSEC
  0
SECTION
  2
ENTITIES
  0
INSERT
  5
16E
  8
0
  2
STDGX5
 10
0.0
 20
0.0
 30
0.0
  0
INSERT
  5
178
  8
0
  2
STDGX5
 10
0.0
 20
0.0
 30
0.0
  0
INSERT
  5
179
  8
0
  2
STDGX5
 10
0.0
 20
0.0
 30
0.0
  0
INSERT
  5
17A
  8
0
  2
STDGX5
 10
0.0
 20
0.0
 30
0.0
  0
INSERT
  5
17B
  8
0
  2
STDGX5
 10
0.0
 20
0.0
 30
0.0
  0
INSERT
  5
17C
  8
0
  2
STDGX5
 10
0.0
 20
0.0
 30
0.0
  0
INSERT
  5
17D
  8
0
  2
STDGX5
 10
0.0
 20
0.0
 30
0.0
  0
INSERT
  5
17E
  8
0
  2
B740218A
 10
180.0
 20
210.0
 30
0.0
  0
INSERT
  5
17F
  8
0
  2
B739218B
 10
180.0
 20
131.0
 30
0.0
  0
INSERT
  5
180
  8
0
  2
NM12B
 10
180.0
 20
65.0
 30
0.0
 50
270.0
  0
INSERT
  5
181
  8
0
  2
NM12C
 10
95.0
 20
65.0
 30
0.0
  0
INSERT
  5
182
  8
0
  2
B746228B
 10
204.0
 20
65.0
 30
0.0
  0
INSERT
  5
183
  8
0
  2
B745258B
 10
180.0
 20
47.0
 30
0.0
  0
INSERT
  5
184
  8
0
  2
B745258B
 10
275.0
 20
47.0
 30
0.0
  0
INSERT
  5
185
  8
0
  2
B746228B
 10
275.0
 20
65.0
 30
0.0
  0
INSERT
  5
186
  8
0
  2
B745258B
 10
95.0
 20
47.0
 30
0.0
  0
INSERT
  5
187
  8
0
  2
B156218B
 10
180.0
 20
115.0
 30
0.0
  0
INSERT
  5
188
  8
0
  2
156BC02A1
 10
180.0
 20
210.0
 30
0.0
  0
INSERT
  5
189
  8
0
  2
156BC02C1
 10
275.0
 20
115.0
 30
0.0
  0
INSERT
  5
18A
  8
0
  2
156BC02D1
 10
95.0
 20
115.0
 30
0.0
  0
TEXT
  5
2CA
  8
0
 62
     3
 10
0.0
 20
0.0
 30
0.0
 40
10.0
  1
BJ156-12063B2
  7
STANDARD1
  0
ENDSEC
  0
EOF
