  0
SECTION
  2
HEADER
  9
$ACADVER
  1
AC1009
  9
$INSBASE
 10
0.0
 20
0.0
 30
0.0
  9
$EXTMIN
 10
0.0
 20
-2.960436562073669
 30
0.0
  9
$EXTMAX
 10
207.95952785363971
 20
126.8955671709451
 30
0.0
  9
$LIMMIN
 10
0.0
 20
0.0
  9
$LIMMAX
 10
12.0
 20
9.0
  9
$ORTHOMODE
 70
     1
  9
$REGENMODE
 70
     1
  9
$FILLMODE
 70
     1
  9
$QTEXTMODE
 70
     0
  9
$MIRRTEXT
 70
     0
  9
$DRAGMODE
 70
     2
  9
$LTSCALE
 40
5.0
  9
$OSMODE
 70
  3071
  9
$ATTMODE
 70
     1
  9
$TEXTSIZE
 40
0.2
  9
$TRACEWID
 40
0.05
  9
$TEXTSTYLE
  7
STANDARD
  9
$CLAYER
  8
0
  9
$CELTYPE
  6
BYLAYER
  9
$CECOLOR
 62
   256
  9
$DIMSCALE
 40
1.0
  9
$DIMASZ
 40
0.18
  9
$DIMEXO
 40
0.0625
  9
$DIMDLI
 40
0.38
  9
$DIMRND
 40
0.0
  9
$DIMDLE
 40
0.0
  9
$DIMEXE
 40
0.18
  9
$DIMTP
 40
0.0
  9
$DIMTM
 40
0.0
  9
$DIMTXT
 40
0.18
  9
$DIMCEN
 40
0.09
  9
$DIMTSZ
 40
0.0
  9
$DIMTOL
 70
     0
  9
$DIMLIM
 70
     0
  9
$DIMTIH
 70
     1
  9
$DIMTOH
 70
     1
  9
$DIMSE1
 70
     0
  9
$DIMSE2
 70
     0
  9
$DIMTAD
 70
     0
  9
$DIMZIN
 70
     0
  9
$DIMBLK
  1

  9
$DIMASO
 70
     1
  9
$DIMSHO
 70
     1
  9
$DIMPOST
  1

  9
$DIMAPOST
  1

  9
$DIMALT
 70
     0
  9
$DIMALTD
 70
     2
  9
$DIMALTF
 40
25.399999999999999
  9
$DIMLFAC
 40
1.0
  9
$DIMTOFL
 70
     0
  9
$DIMTVP
 40
0.0
  9
$DIMTIX
 70
     0
  9
$DIMSOXD
 70
     0
  9
$DIMSAH
 70
     0
  9
$DIMBLK1
  1

  9
$DIMBLK2
  1

  9
$DIMSTYLE
  2
STANDARD
  9
$DIMCLRD
 70
     0
  9
$DIMCLRE
 70
     0
  9
$DIMCLRT
 70
     0
  9
$DIMTFAC
 40
1.0
  9
$DIMGAP
 40
0.09
  9
$LUNITS
 70
     2
  9
$LUPREC
 70
     4
  9
$SKETCHINC
 40
0.1
  9
$FILLETRAD
 40
0.0
  9
$AUNITS
 70
     0
  9
$AUPREC
 70
     0
  9
$MENU
  1
.
  9
$ELEVATION
 40
0.0
  9
$PELEVATION
 40
0.0
  9
$THICKNESS
 40
0.0
  9
$LIMCHECK
 70
     0
  9
$BLIPMODE
 70
     0
  9
$CHAMFERA
 40
0.0
  9
$CHAMFERB
 40
0.0
  9
$SKPOLY
 70
     0
  9
$TDCREATE
 40
2453083.4120647679
  9
$TDUPDATE
 40
2456597.6494746991
  9
$TDINDWG
 40
0.2193741667
  9
$TDUSRTIMER
 40
0.2193740509
  9
$USRTIMER
 70
     1
  9
$ANGBASE
 50
0.0
  9
$ANGDIR
 70
     0
  9
$PDMODE
 70
     0
  9
$PDSIZE
 40
0.0
  9
$PLINEWID
 40
0.0
  9
$COORDS
 70
     1
  9
$SPLFRAME
 70
     0
  9
$SPLINETYPE
 70
     6
  9
$SPLINESEGS
 70
     8
  9
$ATTDIA
 70
     0
  9
$ATTREQ
 70
     1
  9
$HANDLING
 70
     1
  9
$HANDSEED
  5
8E3
  9
$SURFTAB1
 70
     6
  9
$SURFTAB2
 70
     6
  9
$SURFTYPE
 70
     6
  9
$SURFU
 70
     6
  9
$SURFV
 70
     6
  9
$UCSNAME
  2

  9
$UCSORG
 10
0.0
 20
0.0
 30
0.0
  9
$UCSXDIR
 10
1.0
 20
0.0
 30
0.0
  9
$UCSYDIR
 10
0.0
 20
1.0
 30
0.0
  9
$PUCSNAME
  2

  9
$PUCSORG
 10
0.0
 20
0.0
 30
0.0
  9
$PUCSXDIR
 10
1.0
 20
0.0
 30
0.0
  9
$PUCSYDIR
 10
0.0
 20
1.0
 30
0.0
  9
$USERI1
 70
     0
  9
$USERI2
 70
     1
  9
$USERI3
 70
     0
  9
$USERI4
 70
     0
  9
$USERI5
 70
     0
  9
$USERR1
 40
0.0
  9
$USERR2
 40
0.0
  9
$USERR3
 40
0.0
  9
$USERR4
 40
0.0
  9
$USERR5
 40
0.0
  9
$WORLDVIEW
 70
     1
  9
$SHADEDGE
 70
     3
  9
$SHADEDIF
 70
    70
  9
$TILEMODE
 70
     1
  9
$MAXACTVP
 70
    64
  9
$PLIMCHECK
 70
     0
  9
$PEXTMIN
 10
0.0
 20
0.0
 30
0.0
  9
$PEXTMAX
 10
0.0
 20
0.0
 30
0.0
  9
$PLIMMIN
 10
0.0
 20
0.0
  9
$PLIMMAX
 10
12.0
 20
9.0
  9
$UNITMODE
 70
     0
  9
$VISRETAIN
 70
     1
  9
$PLINEGEN
 70
     0
  9
$PSLTSCALE
 70
     1
  0
ENDSEC
  0
SECTION
  2
TABLES
  0
TABLE
  2
VPORT
 70
     1
  0
VPORT
  2
*ACTIVE
 70
     0
 10
0.0
 20
0.0
 11
1.0
 21
1.0
 12
107.5782057542516
 22
61.966535269492709
 13
0.0
 23
0.0
 14
0.5
 24
0.5
 15
0.5
 25
0.5
 16
0.0
 26
0.0
 36
1.0
 17
0.0
 27
0.0
 37
0.0
 40
131.03052526471791
 41
1.831871345029239
 42
50.0
 43
0.0
 44
0.0
 50
0.0
 51
0.0
 71
     0
 72
  1000
 73
     1
 74
     2
 75
     0
 76
     0
 77
     0
 78
     0
  0
ENDTAB
  0
TABLE
  2
LTYPE
 70
     4
  0
LTYPE
  2
CONTINUOUS
 70
     0
  3
Solid Line
 72
    65
 73
     0
 40
0.0
  0
LTYPE
  2
CENTER
 70
     0
  3
____ _ ____ _ ____ _ ____ _ ____ _ ____ _ ____
 72
    65
 73
     4
 40
2.0
 49
1.25
 49
-0.25
 49
0.25
 49
-0.25
  0
LTYPE
  2
HIDDEN
 70
     0
  3
_ _ _ _ _ _ _ _ _ _ _ _ _ _ _ _ _ _ _ _ _ _ _
 72
    65
 73
     2
 40
0.375
 49
0.25
 49
-0.125
  0
LTYPE
  2
PHANTOM2
 70
     0
  3
___ _ _ ___ _ _ ___ _ _ ___ _ _
 72
    65
 73
     6
 40
1.25
 49
0.625
 49
-0.125
 49
0.125
 49
-0.125
 49
0.125
 49
-0.125
  0
ENDTAB
  0
TABLE
  2
LAYER
 70
     4
  0
LAYER
  2
0
 70
     0
 62
     7
  6
CONTINUOUS
  0
LAYER
  2
1
 70
     0
 62
     1
  6
CENTER
  0
LAYER
  2
2
 70
     0
 62
     2
  6
HIDDEN
  0
LAYER
  2
3
 70
     0
 62
     3
  6
CONTINUOUS
  0
ENDTAB
  0
TABLE
  2
STYLE
 70
     2
  0
STYLE
  2
STANDARD
 70
     0
 40
0.0
 41
1.0
 50
0.0
 71
     0
 42
0.2
  3
simplex.shx
  4
bigfont.shx
  0
STYLE
  2
STANDARD1
 70
     0
 40
0.0
 41
1.0
 50
0.0
 71
     0
 42
3.0
  3
txt
  4

  0
ENDTAB
  0
TABLE
  2
VIEW
 70
     0
  0
ENDTAB
  0
TABLE
  2
UCS
 70
     0
  0
ENDTAB
  0
TABLE
  2
APPID
 70
     3
  0
APPID
  2
ACAD
 70
     0
  0
APPID
  2
ACAD_MLEADERVER
 70
     0
  0
APPID
  2
ACAD_NAV_VCDISPLAY
 70
     0
  0
ENDTAB
  0
TABLE
  2
DIMSTYLE
 70
     1
  0
DIMSTYLE
  2
STANDARD
 70
     0
  3

  4

  5

  6

  7

 40
1.0
 41
0.18
 42
0.0625
 43
0.38
 44
0.18
 45
0.0
 46
0.0
 47
0.0
 48
0.0
140
0.18
141
0.09
142
0.0
143
25.399999999999999
144
1.0
145
0.0
146
1.0
147
0.09
 71
     0
 72
     0
 73
     1
 74
     1
 75
     0
 76
     0
 77
     0
 78
     0
170
     0
171
     2
172
     0
173
     0
174
     0
175
     0
176
     0
177
     0
178
     0
  0
ENDTAB
  0
ENDSEC
  0
SECTION
  2
BLOCKS
  0
BLOCK
  8
0
  2
$MODEL_SPACE
 70
     0
 10
0.0
 20
0.0
 30
0.0
  3
$MODEL_SPACE
  1

  0
ENDBLK
  5
21
  8
0
  0
BLOCK
 67
     1
  8
0
  2
$PAPER_SPACE
 70
     0
 10
0.0
 20
0.0
 30
0.0
  3
$PAPER_SPACE
  1

  0
ENDBLK
  5
5B
 67
     1
  8
0
  0
ENDSEC
  0
SECTION
  2
ENTITIES
  0
LINE
  5
6FA
  8
1
 10
112.9595287477093
 20
106.8955669846806
 30
0.0
 11
112.9595287477093
 21
121.8955669846806
 31
0.0
  0
LINE
  5
700
  8
1
 10
127.9595287477093
 20
122.3955669846806
 30
0.0
 11
127.9595287477093
 21
106.3955669846806
 31
0.0
  0
LINE
  5
708
  8
1
 10
192.9595287477093
 20
122.3955669846806
 30
0.0
 11
192.9595287477093
 21
106.3955669846806
 31
0.0
  0
LINE
  5
70B
  8
0
 10
56.959528881819857
 20
126.8955671709451
 30
0.0
 11
56.959528881819722
 21
101.8955667984161
 31
0.0
  0
LINE
  5
70C
  8
0
 10
72.959529641778943
 20
101.895566798416
 30
0.0
 11
56.959528881819722
 21
101.8955667984161
 31
0.0
  0
LINE
  5
70D
  8
0
 10
72.959529641779085
 20
126.8955671709451
 30
0.0
 11
72.959529641778943
 21
101.895566798416
 31
0.0
  0
LINE
  5
71A
  8
0
 10
72.959529641779028
 20
126.8955671709451
 30
0.0
 11
56.959528881819807
 21
126.8955671709451
 31
0.0
  0
LINE
  5
71B
  8
1
 10
51.959528881819807
 20
114.3955669846807
 30
0.0
 11
77.959529641778985
 21
114.3955669846806
 31
0.0
  0
CIRCLE
  5
71C
  8
3
 10
112.9595287477093
 20
114.3955669846806
 30
0.0
 40
4.9999999999999849
  0
LINE
  5
71D
  8
0
 10
127.9595287477093
 20
108.8955669846806
 30
0.0
 11
192.9595287477093
 21
108.8955669846806
 31
0.0
  0
ARC
  5
71F
  8
0
 10
127.9595287477093
 20
114.3955669846806
 30
0.0
 40
5.5
 50
90.0
 51
270.0
  0
CIRCLE
  5
720
  8
0
 10
112.9595287477093
 20
114.3955669846806
 30
0.0
 40
4.25
  0
LINE
  5
722
  8
0
 10
192.9595287477093
 20
119.8955669846806
 30
0.0
 11
127.9595287477093
 21
119.8955669846806
 31
0.0
  0
ARC
  5
725
  8
0
 10
192.9595287477093
 20
114.3955669846806
 30
0.0
 40
5.5
 50
270.0
 51
90.0
  0
LINE
  5
728
  8
0
 10
202.95952785363971
 20
121.8955683604202
 30
0.0
 11
202.95952785363971
 21
106.8955656089411
 31
0.0
  0
LINE
  5
72A
  8
0
 10
102.959529641779
 20
106.895565608941
 30
0.0
 11
102.959529641779
 21
121.8955683604201
 31
0.0
  0
LINE
  5
731
  8
0
 10
194.2992747162896
 20
101.8955667984161
 30
0.0
 11
202.95952785363971
 21
106.8955656089411
 31
0.0
  0
LINE
  5
733
  8
0
 10
202.95952785363971
 20
121.8955683604202
 30
0.0
 11
194.2992747162896
 21
126.8955671709451
 31
0.0
  0
LINE
  5
734
  8
0
 10
194.2992747162896
 20
126.8955671709451
 30
0.0
 11
111.6197827791291
 21
126.8955671709451
 31
0.0
  0
LINE
  5
735
  8
0
 10
111.6197827791291
 20
126.8955671709451
 30
0.0
 11
102.959529641779
 21
121.8955683604201
 31
0.0
  0
LINE
  5
737
  8
0
 10
102.959529641779
 20
106.895565608941
 30
0.0
 11
111.6197827791291
 21
101.8955667984161
 31
0.0
  0
LINE
  5
738
  8
0
 10
111.6197827791291
 20
101.8955667984161
 30
0.0
 11
194.29927471628949
 21
101.8955667984161
 31
0.0
  0
LINE
  5
739
  8
1
 10
97.959529641778985
 20
114.3955669846806
 30
0.0
 11
207.95952785363971
 21
114.3955669846806
 31
0.0
  0
LINE
  5
73B
  8
1
 10
112.9595287477093
 20
55.895566038456892
 30
0.0
 11
112.9595287477093
 21
76.895566798416098
 31
0.0
  0
LINE
  5
73E
  8
1
 10
127.9595287477093
 20
76.895566798416098
 30
0.0
 11
127.9595287477094
 21
55.895566038456892
 31
0.0
  0
LINE
  5
73F
  8
2
 10
107.9595287477093
 20
59.145566038456892
 30
0.0
 11
107.9595287477093
 21
59.145566038456892
 31
0.0
  0
LINE
  5
740
  8
2
 10
107.9595287477093
 20
59.145566038456892
 30
0.0
 11
107.9595287477093
 21
59.145566038456892
 31
0.0
  0
LINE
  5
741
  8
2
 10
117.9595287477093
 20
59.145566038456892
 30
0.0
 11
117.9595287477093
 21
59.145566038456892
 31
0.0
  0
LINE
  5
742
  8
2
 10
117.9595287477093
 20
73.645566038456877
 30
0.0
 11
117.9595287477093
 21
59.145566038456892
 31
0.0
  0
LINE
  5
743
  8
2
 10
107.9595287477093
 20
59.145566038456892
 30
0.0
 11
107.9595287477093
 21
59.145566038456892
 31
0.0
  0
LINE
  5
744
  8
2
 10
107.9595287477093
 20
73.645566038456877
 30
0.0
 11
107.9595287477093
 21
59.145566038456892
 31
0.0
  0
LINE
  5
745
  8
2
 10
117.2095287477093
 20
59.895566038456877
 30
0.0
 11
117.2095287477093
 21
72.895566038456877
 31
0.0
  0
LINE
  5
746
  8
2
 10
108.7095287477093
 20
72.895566038456877
 30
0.0
 11
108.7095287477093
 21
59.895566038456877
 31
0.0
  0
LINE
  5
747
  8
2
 10
122.4595287477093
 20
73.895566038456863
 30
0.0
 11
122.4595287477093
 21
58.895566038456892
 31
0.0
  0
LINE
  5
748
  8
2
 10
198.4595287477093
 20
58.895566038456892
 30
0.0
 11
198.4595287477093
 21
73.895566038456863
 31
0.0
  0
LINE
  5
749
  8
2
 10
117.2095287477093
 20
72.895566038456877
 30
0.0
 11
118.7095280324536
 21
74.395566798416098
 31
0.0
  0
LINE
  5
74A
  8
2
 10
107.2095270787793
 20
74.395566798416098
 30
0.0
 11
108.7095287477093
 21
72.895566038456877
 31
0.0
  0
LINE
  5
74B
  8
2
 10
108.7095287477093
 20
59.895566038456877
 30
0.0
 11
107.2095270787793
 21
58.395566038456892
 31
0.0
  0
LINE
  5
74C
  8
2
 10
118.7095280324536
 20
58.395566038456892
 30
0.0
 11
117.2095287477093
 21
59.895566038456877
 31
0.0
  0
LINE
  5
74D
  8
2
 10
122.4595287477093
 20
58.895566038456892
 30
0.0
 11
121.9595290308314
 21
58.395566038456892
 31
0.0
  0
LINE
  5
74E
  8
2
 10
198.95952719798851
 20
58.395566038456892
 30
0.0
 11
198.4595287477093
 21
58.895566038456892
 31
0.0
  0
LINE
  5
74F
  8
2
 10
121.9595290308314
 20
74.395566798416098
 30
0.0
 11
122.4595287477093
 21
73.895566038456863
 31
0.0
  0
LINE
  5
750
  8
2
 10
198.4595287477093
 20
73.895566038456863
 30
0.0
 11
198.95952719798851
 21
74.395566798416098
 31
0.0
  0
LINE
  5
755
  8
1
 10
192.9595287477093
 20
76.895566798416098
 30
0.0
 11
192.9595287477093
 21
55.895566038456892
 31
0.0
  0
LINE
  5
757
  8
2
 10
108.7095287477094
 20
72.895566038456877
 30
0.0
 11
117.2095287477093
 21
72.895566038456877
 31
0.0
  0
LINE
  5
759
  8
2
 10
108.7095287477094
 20
59.895566038456877
 30
0.0
 11
117.2095287477093
 21
59.895566038456877
 31
0.0
  0
LINE
  5
75B
  8
2
 10
198.4595287477093
 20
58.895566038456899
 30
0.0
 11
122.4595287477093
 21
58.895566038456892
 31
0.0
  0
LINE
  5
761
  8
2
 10
122.4595287477093
 20
73.895566038456863
 30
0.0
 11
198.4595287477093
 21
73.895566038456892
 31
0.0
  0
LINE
  5
766
  8
0
 10
102.959529641779
 20
73.895565785137137
 30
0.0
 11
102.959529641779
 21
58.895566062205617
 31
0.0
  0
LINE
  5
767
  8
0
 10
102.959529641779
 20
58.895566062205617
 30
0.0
 11
103.45952692976761
 21
58.395566038456892
 31
0.0
  0
LINE
  5
768
  8
0
 10
103.45952692976761
 20
74.395566798416098
 30
0.0
 11
102.959529641779
 21
73.895565785137137
 31
0.0
  0
LINE
  5
76B
  8
0
 10
111.6197827791291
 20
74.395566798416098
 30
0.0
 11
111.6197827791291
 21
58.395566038456892
 31
0.0
  0
LINE
  5
76C
  8
0
 10
103.45952692976761
 20
74.395566798416098
 30
0.0
 11
202.45953056565099
 21
74.395566798416098
 31
0.0
  0
LINE
  5
76D
  8
0
 10
103.45952692976761
 20
58.395566038456892
 30
0.0
 11
202.45953056565099
 21
58.395566038456877
 31
0.0
  0
LINE
  5
76E
  8
0
 10
202.95952785363971
 20
73.895565785137137
 30
0.0
 11
202.95952785363971
 21
58.895566062205617
 31
0.0
  0
LINE
  5
76F
  8
0
 10
202.95952785363971
 20
73.895565785137137
 30
0.0
 11
202.45953056565099
 21
74.395566798416098
 31
0.0
  0
LINE
  5
770
  8
0
 10
194.2992747162896
 20
74.395566798416098
 30
0.0
 11
194.2992747162896
 21
58.395566038456892
 31
0.0
  0
LINE
  5
771
  8
0
 10
202.45953056565099
 20
58.395566038456892
 30
0.0
 11
202.95952785363971
 21
58.895566062205617
 31
0.0
  0
LINE
  5
789
  8
0
 10
72.959529641779071
 20
121.8955683604201
 30
0.0
 11
56.959528881819843
 21
121.8955683604201
 31
0.0
  0
LINE
  5
78A
  8
0
 10
72.959529641778985
 20
106.895565608941
 30
0.0
 11
56.959528881819743
 21
106.895565608941
 31
0.0
  0
TEXT
  5
84F
  8
0
 62
     3
 10
0.0
 20
0.0
 30
0.0
 40
10.0
  1
BJ158-10100
  7
STANDARD1
  0
ENDSEC
  0
EOF
