  0
SECTION
  2
HEADER
  9
$ACADVER
  1
AC1009
  9
$INSBASE
 10
0.0
 20
0.0
 30
0.0
  9
$EXTMIN
 10
0.0
 20
-2.960436562073669
 30
0.0
  9
$EXTMAX
 10
260.06845521177399
 20
138.6840285441946
 30
0.0
  9
$LIMMIN
 10
0.0
 20
0.0
  9
$LIMMAX
 10
12.0
 20
9.0
  9
$ORTHOMODE
 70
     1
  9
$REGENMODE
 70
     1
  9
$FILLMODE
 70
     1
  9
$QTEXTMODE
 70
     0
  9
$MIRRTEXT
 70
     0
  9
$DRAGMODE
 70
     2
  9
$LTSCALE
 40
5.0
  9
$OSMODE
 70
  3071
  9
$ATTMODE
 70
     1
  9
$TEXTSIZE
 40
0.2
  9
$TRACEWID
 40
0.05
  9
$TEXTSTYLE
  7
STANDARD
  9
$CLAYER
  8
0
  9
$CELTYPE
  6
BYLAYER
  9
$CECOLOR
 62
   256
  9
$DIMSCALE
 40
1.0
  9
$DIMASZ
 40
0.18
  9
$DIMEXO
 40
0.0625
  9
$DIMDLI
 40
0.38
  9
$DIMRND
 40
0.0
  9
$DIMDLE
 40
0.0
  9
$DIMEXE
 40
0.18
  9
$DIMTP
 40
0.0
  9
$DIMTM
 40
0.0
  9
$DIMTXT
 40
0.18
  9
$DIMCEN
 40
0.09
  9
$DIMTSZ
 40
0.0
  9
$DIMTOL
 70
     0
  9
$DIMLIM
 70
     0
  9
$DIMTIH
 70
     1
  9
$DIMTOH
 70
     1
  9
$DIMSE1
 70
     0
  9
$DIMSE2
 70
     0
  9
$DIMTAD
 70
     0
  9
$DIMZIN
 70
     0
  9
$DIMBLK
  1

  9
$DIMASO
 70
     1
  9
$DIMSHO
 70
     1
  9
$DIMPOST
  1

  9
$DIMAPOST
  1

  9
$DIMALT
 70
     0
  9
$DIMALTD
 70
     2
  9
$DIMALTF
 40
25.399999999999999
  9
$DIMLFAC
 40
1.0
  9
$DIMTOFL
 70
     0
  9
$DIMTVP
 40
0.0
  9
$DIMTIX
 70
     0
  9
$DIMSOXD
 70
     0
  9
$DIMSAH
 70
     0
  9
$DIMBLK1
  1

  9
$DIMBLK2
  1

  9
$DIMSTYLE
  2
STANDARD
  9
$DIMCLRD
 70
     0
  9
$DIMCLRE
 70
     0
  9
$DIMCLRT
 70
     0
  9
$DIMTFAC
 40
1.0
  9
$DIMGAP
 40
0.09
  9
$LUNITS
 70
     2
  9
$LUPREC
 70
     4
  9
$SKETCHINC
 40
0.1
  9
$FILLETRAD
 40
0.0
  9
$AUNITS
 70
     0
  9
$AUPREC
 70
     0
  9
$MENU
  1
.
  9
$ELEVATION
 40
0.0
  9
$PELEVATION
 40
0.0
  9
$THICKNESS
 40
0.0
  9
$LIMCHECK
 70
     0
  9
$BLIPMODE
 70
     0
  9
$CHAMFERA
 40
0.0
  9
$CHAMFERB
 40
0.0
  9
$SKPOLY
 70
     0
  9
$TDCREATE
 40
2453083.4120647679
  9
$TDUPDATE
 40
2456597.6495765862
  9
$TDINDWG
 40
0.2236610069
  9
$TDUSRTIMER
 40
0.2236608912
  9
$USRTIMER
 70
     1
  9
$ANGBASE
 50
0.0
  9
$ANGDIR
 70
     0
  9
$PDMODE
 70
     0
  9
$PDSIZE
 40
0.0
  9
$PLINEWID
 40
0.0
  9
$COORDS
 70
     1
  9
$SPLFRAME
 70
     0
  9
$SPLINETYPE
 70
     6
  9
$SPLINESEGS
 70
     8
  9
$ATTDIA
 70
     0
  9
$ATTREQ
 70
     1
  9
$HANDLING
 70
     1
  9
$HANDSEED
  5
96F
  9
$SURFTAB1
 70
     6
  9
$SURFTAB2
 70
     6
  9
$SURFTYPE
 70
     6
  9
$SURFU
 70
     6
  9
$SURFV
 70
     6
  9
$UCSNAME
  2

  9
$UCSORG
 10
0.0
 20
0.0
 30
0.0
  9
$UCSXDIR
 10
1.0
 20
0.0
 30
0.0
  9
$UCSYDIR
 10
0.0
 20
1.0
 30
0.0
  9
$PUCSNAME
  2

  9
$PUCSORG
 10
0.0
 20
0.0
 30
0.0
  9
$PUCSXDIR
 10
1.0
 20
0.0
 30
0.0
  9
$PUCSYDIR
 10
0.0
 20
1.0
 30
0.0
  9
$USERI1
 70
     0
  9
$USERI2
 70
     1
  9
$USERI3
 70
     0
  9
$USERI4
 70
     0
  9
$USERI5
 70
     0
  9
$USERR1
 40
0.0
  9
$USERR2
 40
0.0
  9
$USERR3
 40
0.0
  9
$USERR4
 40
0.0
  9
$USERR5
 40
0.0
  9
$WORLDVIEW
 70
     1
  9
$SHADEDGE
 70
     3
  9
$SHADEDIF
 70
    70
  9
$TILEMODE
 70
     1
  9
$MAXACTVP
 70
    64
  9
$PLIMCHECK
 70
     0
  9
$PEXTMIN
 10
0.0
 20
0.0
 30
0.0
  9
$PEXTMAX
 10
0.0
 20
0.0
 30
0.0
  9
$PLIMMIN
 10
0.0
 20
0.0
  9
$PLIMMAX
 10
12.0
 20
9.0
  9
$UNITMODE
 70
     0
  9
$VISRETAIN
 70
     1
  9
$PLINEGEN
 70
     0
  9
$PSLTSCALE
 70
     1
  0
ENDSEC
  0
SECTION
  2
TABLES
  0
TABLE
  2
VPORT
 70
     1
  0
VPORT
  2
*ACTIVE
 70
     0
 10
0.0
 20
0.0
 11
1.0
 21
1.0
 12
134.07410698818211
 22
67.860709356746213
 13
0.0
 23
0.0
 14
0.5
 24
0.5
 15
0.5
 25
0.5
 16
0.0
 26
0.0
 36
1.0
 17
0.0
 27
0.0
 37
0.0
 40
147.10464549364619
 41
1.831871345029239
 42
50.0
 43
0.0
 44
0.0
 50
0.0
 51
0.0
 71
     0
 72
  1000
 73
     1
 74
     2
 75
     0
 76
     0
 77
     0
 78
     0
  0
ENDTAB
  0
TABLE
  2
LTYPE
 70
     4
  0
LTYPE
  2
CONTINUOUS
 70
     0
  3
Solid Line
 72
    65
 73
     0
 40
0.0
  0
LTYPE
  2
CENTER
 70
     0
  3
____ _ ____ _ ____ _ ____ _ ____ _ ____ _ ____
 72
    65
 73
     4
 40
2.0
 49
1.25
 49
-0.25
 49
0.25
 49
-0.25
  0
LTYPE
  2
HIDDEN
 70
     0
  3
_ _ _ _ _ _ _ _ _ _ _ _ _ _ _ _ _ _ _ _ _ _ _
 72
    65
 73
     2
 40
0.375
 49
0.25
 49
-0.125
  0
LTYPE
  2
PHANTOM2
 70
     0
  3
___ _ _ ___ _ _ ___ _ _ ___ _ _
 72
    65
 73
     6
 40
1.25
 49
0.625
 49
-0.125
 49
0.125
 49
-0.125
 49
0.125
 49
-0.125
  0
ENDTAB
  0
TABLE
  2
LAYER
 70
     4
  0
LAYER
  2
0
 70
     0
 62
     7
  6
CONTINUOUS
  0
LAYER
  2
1
 70
     0
 62
     1
  6
CENTER
  0
LAYER
  2
2
 70
     0
 62
     2
  6
HIDDEN
  0
LAYER
  2
3
 70
     0
 62
     3
  6
CONTINUOUS
  0
ENDTAB
  0
TABLE
  2
STYLE
 70
     2
  0
STYLE
  2
STANDARD
 70
     0
 40
0.0
 41
1.0
 50
0.0
 71
     0
 42
0.2
  3
simplex.shx
  4
bigfont.shx
  0
STYLE
  2
STANDARD1
 70
     0
 40
0.0
 41
1.0
 50
0.0
 71
     0
 42
3.0
  3
txt
  4

  0
ENDTAB
  0
TABLE
  2
VIEW
 70
     0
  0
ENDTAB
  0
TABLE
  2
UCS
 70
     0
  0
ENDTAB
  0
TABLE
  2
APPID
 70
     3
  0
APPID
  2
ACAD
 70
     0
  0
APPID
  2
ACAD_MLEADERVER
 70
     0
  0
APPID
  2
ACAD_NAV_VCDISPLAY
 70
     0
  0
ENDTAB
  0
TABLE
  2
DIMSTYLE
 70
     1
  0
DIMSTYLE
  2
STANDARD
 70
     0
  3

  4

  5

  6

  7

 40
1.0
 41
0.18
 42
0.0625
 43
0.38
 44
0.18
 45
0.0
 46
0.0
 47
0.0
 48
0.0
140
0.18
141
0.09
142
0.0
143
25.399999999999999
144
1.0
145
0.0
146
1.0
147
0.09
 71
     0
 72
     0
 73
     1
 74
     1
 75
     0
 76
     0
 77
     0
 78
     0
170
     0
171
     2
172
     0
173
     0
174
     0
175
     0
176
     0
177
     0
178
     0
  0
ENDTAB
  0
ENDSEC
  0
SECTION
  2
BLOCKS
  0
BLOCK
  8
0
  2
$MODEL_SPACE
 70
     0
 10
0.0
 20
0.0
 30
0.0
  3
$MODEL_SPACE
  1

  0
ENDBLK
  5
21
  8
0
  0
BLOCK
 67
     1
  8
0
  2
$PAPER_SPACE
 70
     0
 10
0.0
 20
0.0
 30
0.0
  3
$PAPER_SPACE
  1

  0
ENDBLK
  5
5B
 67
     1
  8
0
  0
ENDSEC
  0
SECTION
  2
ENTITIES
  0
LINE
  5
78B
  8
1
 10
105.06845446671591
 20
131.18402778423521
 30
0.0
 11
105.06845446671591
 21
114.1840277842352
 31
0.0
  0
LINE
  5
793
  8
1
 10
123.06845446671591
 20
131.68402778423521
 30
0.0
 11
123.06845446671591
 21
113.6840277842352
 31
0.0
  0
LINE
  5
79B
  8
1
 10
243.06845446671591
 20
131.68402778423521
 30
0.0
 11
243.06845446671591
 21
113.6840277842352
 31
0.0
  0
LINE
  5
79E
  8
0
 10
46.06845433260542
 20
138.68402854419449
 30
0.0
 11
46.068454332605249
 21
106.68402702427611
 31
0.0
  0
LINE
  5
79F
  8
0
 10
65.068453721657647
 20
106.68402702427611
 30
0.0
 11
46.068454332605249
 21
106.68402702427611
 31
0.0
  0
LINE
  5
7A0
  8
0
 10
65.068453721657932
 20
138.6840285441946
 30
0.0
 11
65.068453721657647
 21
106.68402702427611
 31
0.0
  0
LINE
  5
7AD
  8
0
 10
65.068453721657761
 20
138.68402854419449
 30
0.0
 11
46.06845433260537
 21
138.6840285441946
 31
0.0
  0
LINE
  5
7AE
  8
1
 10
41.06845433260537
 20
122.6840277842354
 30
0.0
 11
70.068453721657761
 21
122.6840277842352
 31
0.0
  0
CIRCLE
  5
7AF
  8
3
 10
105.06845446671591
 20
122.6840277842352
 30
0.0
 40
6.0
  0
LINE
  5
7B0
  8
0
 10
123.06845446671591
 20
116.1840277842352
 30
0.0
 11
243.06845446671591
 21
116.1840277842352
 31
0.0
  0
CIRCLE
  5
7B1
  8
0
 10
105.06845446671591
 20
122.6840277842352
 30
0.0
 40
5.1000000000000218
  0
ARC
  5
7B3
  8
0
 10
243.06845446671591
 20
122.6840277842352
 30
0.0
 40
6.5000000000000284
 50
270.0
 51
90.0
  0
ARC
  5
7B5
  8
0
 10
123.06845446671591
 20
122.6840277842352
 30
0.0
 40
6.5000000000000284
 50
90.0
 51
270.0
  0
LINE
  5
7B7
  8
0
 10
243.06845446671591
 20
129.18402778423521
 30
0.0
 11
123.06845446671591
 21
129.18402778423521
 31
0.0
  0
LINE
  5
7BB
  8
0
 10
255.06845521177399
 20
131.68402739680499
 30
0.0
 11
255.06845521177399
 21
113.6840281716654
 31
0.0
  0
LINE
  5
7BD
  8
0
 10
95.068453721657818
 20
113.6840281716654
 30
0.0
 11
95.068453721657818
 21
131.68402739680499
 31
0.0
  0
LINE
  5
7C4
  8
0
 10
242.94409932936779
 20
106.68402702427601
 30
0.0
 11
255.06845521177399
 21
113.68402840349729
 31
0.0
  0
LINE
  5
7C6
  8
0
 10
255.06845521177399
 20
131.68402716497309
 30
0.0
 11
242.94409932936779
 21
138.6840285441944
 31
0.0
  0
LINE
  5
7C7
  8
0
 10
242.94409932936779
 20
138.6840285441944
 30
0.0
 11
107.192809604064
 21
138.6840285441944
 31
0.0
  0
LINE
  5
7C8
  8
0
 10
107.192809604064
 20
138.6840285441944
 30
0.0
 11
95.068453721657818
 21
131.68402716497309
 31
0.0
  0
LINE
  5
7CA
  8
0
 10
95.068453721657818
 20
113.68402840349729
 30
0.0
 11
107.192809604064
 21
106.68402702427601
 31
0.0
  0
LINE
  5
7CB
  8
0
 10
107.192809604064
 20
106.68402702427601
 30
0.0
 11
242.94409932936779
 21
106.68402702427601
 31
0.0
  0
LINE
  5
7CC
  8
1
 10
90.068453721657747
 20
122.6840277842352
 30
0.0
 11
260.06845521177399
 21
122.6840277842353
 31
0.0
  0
LINE
  5
7CE
  8
1
 10
105.06845446671591
 20
57.684027635223543
 30
0.0
 11
105.06845446671601
 21
81.684027024275991
 31
0.0
  0
LINE
  5
7D0
  8
1
 10
243.06845446671591
 20
81.684027024275963
 30
0.0
 11
243.06845446671591
 21
57.684027635223572
 31
0.0
  0
LINE
  5
7D2
  8
0
 10
99.068454466715934
 20
61.184027635223543
 30
0.0
 11
99.068454466715934
 21
61.184027635223543
 31
0.0
  0
LINE
  5
7D3
  8
0
 10
99.068454466715934
 20
61.184027635223543
 30
0.0
 11
99.068454466715934
 21
61.184027635223543
 31
0.0
  0
LINE
  5
7D4
  8
0
 10
111.06845446671581
 20
61.184027635223543
 30
0.0
 11
111.06845446671581
 21
61.184027635223543
 31
0.0
  0
LINE
  5
7D5
  8
2
 10
111.06845446671581
 20
78.184027635223572
 30
0.0
 11
111.06845446671581
 21
61.184027635223543
 31
0.0
  0
LINE
  5
7D6
  8
0
 10
99.068454466715934
 20
61.184027635223543
 30
0.0
 11
99.068454466715934
 21
61.184027635223543
 31
0.0
  0
LINE
  5
7D7
  8
2
 10
99.068454466715934
 20
78.184027635223572
 30
0.0
 11
99.068454466715934
 21
61.184027635223543
 31
0.0
  0
LINE
  5
7D8
  8
2
 10
110.1684544667159
 20
62.084027635223549
 30
0.0
 11
110.1684544667159
 21
77.284027635223566
 31
0.0
  0
LINE
  5
7D9
  8
2
 10
99.968454466715926
 20
77.284027635223566
 30
0.0
 11
99.968454466715968
 21
62.084027635223549
 31
0.0
  0
LINE
  5
7DA
  8
2
 10
116.56845446671591
 20
78.684027635223572
 30
0.0
 11
116.56845446671591
 21
60.684027635223572
 31
0.0
  0
LINE
  5
7DB
  8
2
 10
249.56845446671591
 20
60.684027635223572
 30
0.0
 11
249.56845446671591
 21
78.684027635223572
 31
0.0
  0
LINE
  5
7DC
  8
2
 10
99.968454466715968
 20
62.084027635223549
 30
0.0
 11
98.068456076041286
 21
60.184027635223572
 31
0.0
  0
LINE
  5
7DD
  8
2
 10
112.0684546455298
 20
60.184027635223572
 30
0.0
 11
110.1684544667159
 21
62.084027635223549
 31
0.0
  0
LINE
  5
7DE
  8
2
 10
110.1684544667159
 20
77.284027635223566
 30
0.0
 11
112.0684546455298
 21
79.184027024275963
 31
0.0
  0
LINE
  5
7DF
  8
2
 10
98.068456076041286
 20
79.184027024275963
 30
0.0
 11
99.968454466715926
 21
77.284027635223566
 31
0.0
  0
LINE
  5
7E0
  8
2
 10
116.56845446671591
 20
60.684027635223572
 30
0.0
 11
116.0684553011809
 21
60.184027635223572
 31
0.0
  0
LINE
  5
7E1
  8
2
 10
250.06845625485531
 20
60.184027635223572
 30
0.0
 11
249.56845446671591
 21
60.684027635223572
 31
0.0
  0
LINE
  5
7E2
  8
2
 10
116.0684553011809
 20
79.184027024275963
 30
0.0
 11
116.56845446671591
 21
78.684027635223572
 31
0.0
  0
LINE
  5
7E3
  8
2
 10
249.56845446671591
 20
78.684027635223572
 30
0.0
 11
250.06845625485531
 21
79.184027024275963
 31
0.0
  0
LINE
  5
7E4
  8
1
 10
123.06845446671591
 20
81.684027024275991
 30
0.0
 11
123.06845446671591
 21
57.684027635223572
 31
0.0
  0
LINE
  5
7E9
  8
2
 10
99.968454466715968
 20
62.084027635223549
 30
0.0
 11
110.1684544667158
 21
62.084027635223549
 31
0.0
  0
LINE
  5
7EB
  8
2
 10
99.968454466715926
 20
77.284027635223566
 30
0.0
 11
110.1684544667159
 21
77.284027635223566
 31
0.0
  0
LINE
  5
7EE
  8
2
 10
249.56845446671599
 20
60.684027635223643
 30
0.0
 11
116.56845446671591
 21
60.684027635223572
 31
0.0
  0
LINE
  5
7F4
  8
2
 10
116.56845446671591
 20
78.684027635223572
 30
0.0
 11
249.56845446671599
 21
78.684027635223643
 31
0.0
  0
LINE
  5
7F9
  8
0
 10
95.068453721657818
 20
78.684027873642151
 30
0.0
 11
95.068453721657818
 21
60.68402765897229
 31
0.0
  0
LINE
  5
7FA
  8
0
 10
95.068453721657818
 20
60.68402765897229
 30
0.0
 11
95.568454734936779
 21
60.184027635223572
 31
0.0
  0
LINE
  5
7FB
  8
0
 10
95.568454734936779
 20
79.184027024275963
 30
0.0
 11
95.068453721657818
 21
78.684027873642151
 31
0.0
  0
LINE
  5
7FE
  8
0
 10
107.192809604064
 20
79.184027024275963
 30
0.0
 11
107.192809604064
 21
60.184027635223572
 31
0.0
  0
LINE
  5
7FF
  8
0
 10
95.568454734936779
 20
79.184027024275963
 30
0.0
 11
254.568454198495
 21
79.184027024275963
 31
0.0
  0
LINE
  5
800
  8
0
 10
95.568454734936779
 20
60.184027635223522
 30
0.0
 11
254.56845419849509
 21
60.184027635223622
 31
0.0
  0
LINE
  5
801
  8
0
 10
254.568454198495
 20
60.184027635223572
 30
0.0
 11
255.06845521177399
 21
60.68402765897229
 31
0.0
  0
LINE
  5
802
  8
0
 10
255.06845521177399
 20
78.684027873642151
 30
0.0
 11
255.06845521177399
 21
60.68402765897229
 31
0.0
  0
LINE
  5
803
  8
0
 10
255.06845521177399
 20
78.684027873642151
 30
0.0
 11
254.568454198495
 21
79.184027024275963
 31
0.0
  0
LINE
  5
804
  8
0
 10
242.94409932936779
 20
79.184027024275963
 30
0.0
 11
242.94409932936779
 21
60.184027635223572
 31
0.0
  0
LINE
  5
823
  8
0
 10
65.068453721657846
 20
131.68402716497309
 30
0.0
 11
46.068454332605391
 21
131.68402716497309
 31
0.0
  0
LINE
  5
824
  8
0
 10
65.06845372165769
 20
113.6840281716654
 30
0.0
 11
46.068454332605292
 21
113.6840281716654
 31
0.0
  0
TEXT
  5
8DB
  8
0
 62
     3
 10
0.0
 20
0.0
 30
0.0
 40
10.0
  1
BJ158-12160
  7
STANDARD1
  0
ENDSEC
  0
EOF
