  0
SECTION
  2
HEADER
  9
$ACADVER
  1
AC1009
  9
$INSBASE
 10
0.0
 20
0.0
 30
0.0
  9
$EXTMIN
 10
0.0
 20
-2.960436562073669
 30
0.0
  9
$EXTMAX
 10
343.38133018803961
 20
202.4752491614378
 30
0.0
  9
$LIMMIN
 10
0.0
 20
0.0
  9
$LIMMAX
 10
12.0
 20
9.0
  9
$ORTHOMODE
 70
     1
  9
$REGENMODE
 70
     1
  9
$FILLMODE
 70
     1
  9
$QTEXTMODE
 70
     0
  9
$MIRRTEXT
 70
     0
  9
$DRAGMODE
 70
     2
  9
$LTSCALE
 40
5.0
  9
$OSMODE
 70
  3071
  9
$ATTMODE
 70
     1
  9
$TEXTSIZE
 40
0.2
  9
$TRACEWID
 40
0.05
  9
$TEXTSTYLE
  7
STANDARD
  9
$CLAYER
  8
0
  9
$CELTYPE
  6
BYLAYER
  9
$CECOLOR
 62
   256
  9
$DIMSCALE
 40
1.0
  9
$DIMASZ
 40
0.18
  9
$DIMEXO
 40
0.0625
  9
$DIMDLI
 40
0.38
  9
$DIMRND
 40
0.0
  9
$DIMDLE
 40
0.0
  9
$DIMEXE
 40
0.18
  9
$DIMTP
 40
0.0
  9
$DIMTM
 40
0.0
  9
$DIMTXT
 40
0.18
  9
$DIMCEN
 40
0.09
  9
$DIMTSZ
 40
0.0
  9
$DIMTOL
 70
     0
  9
$DIMLIM
 70
     0
  9
$DIMTIH
 70
     1
  9
$DIMTOH
 70
     1
  9
$DIMSE1
 70
     0
  9
$DIMSE2
 70
     0
  9
$DIMTAD
 70
     0
  9
$DIMZIN
 70
     0
  9
$DIMBLK
  1

  9
$DIMASO
 70
     1
  9
$DIMSHO
 70
     1
  9
$DIMPOST
  1

  9
$DIMAPOST
  1

  9
$DIMALT
 70
     0
  9
$DIMALTD
 70
     2
  9
$DIMALTF
 40
25.399999999999999
  9
$DIMLFAC
 40
1.0
  9
$DIMTOFL
 70
     0
  9
$DIMTVP
 40
0.0
  9
$DIMTIX
 70
     0
  9
$DIMSOXD
 70
     0
  9
$DIMSAH
 70
     0
  9
$DIMBLK1
  1

  9
$DIMBLK2
  1

  9
$DIMSTYLE
  2
STANDARD
  9
$DIMCLRD
 70
     0
  9
$DIMCLRE
 70
     0
  9
$DIMCLRT
 70
     0
  9
$DIMTFAC
 40
1.0
  9
$DIMGAP
 40
0.09
  9
$LUNITS
 70
     2
  9
$LUPREC
 70
     4
  9
$SKETCHINC
 40
0.1
  9
$FILLETRAD
 40
0.0
  9
$AUNITS
 70
     0
  9
$AUPREC
 70
     0
  9
$MENU
  1
.
  9
$ELEVATION
 40
0.0
  9
$PELEVATION
 40
0.0
  9
$THICKNESS
 40
0.0
  9
$LIMCHECK
 70
     0
  9
$BLIPMODE
 70
     0
  9
$CHAMFERA
 40
0.0
  9
$CHAMFERB
 40
0.0
  9
$SKPOLY
 70
     0
  9
$TDCREATE
 40
2453083.4120647679
  9
$TDUPDATE
 40
2456597.6496622232
  9
$TDINDWG
 40
0.2147860648
  9
$TDUSRTIMER
 40
0.2147859491
  9
$USRTIMER
 70
     1
  9
$ANGBASE
 50
0.0
  9
$ANGDIR
 70
     0
  9
$PDMODE
 70
     0
  9
$PDSIZE
 40
0.0
  9
$PLINEWID
 40
0.0
  9
$COORDS
 70
     1
  9
$SPLFRAME
 70
     0
  9
$SPLINETYPE
 70
     6
  9
$SPLINESEGS
 70
     8
  9
$ATTDIA
 70
     0
  9
$ATTREQ
 70
     1
  9
$HANDLING
 70
     1
  9
$HANDSEED
  5
887
  9
$SURFTAB1
 70
     6
  9
$SURFTAB2
 70
     6
  9
$SURFTYPE
 70
     6
  9
$SURFU
 70
     6
  9
$SURFV
 70
     6
  9
$UCSNAME
  2

  9
$UCSORG
 10
0.0
 20
0.0
 30
0.0
  9
$UCSXDIR
 10
1.0
 20
0.0
 30
0.0
  9
$UCSYDIR
 10
0.0
 20
1.0
 30
0.0
  9
$PUCSNAME
  2

  9
$PUCSORG
 10
0.0
 20
0.0
 30
0.0
  9
$PUCSXDIR
 10
1.0
 20
0.0
 30
0.0
  9
$PUCSYDIR
 10
0.0
 20
1.0
 30
0.0
  9
$USERI1
 70
     0
  9
$USERI2
 70
     1
  9
$USERI3
 70
     0
  9
$USERI4
 70
     0
  9
$USERI5
 70
     0
  9
$USERR1
 40
0.0
  9
$USERR2
 40
0.0
  9
$USERR3
 40
0.0
  9
$USERR4
 40
0.0
  9
$USERR5
 40
0.0
  9
$WORLDVIEW
 70
     1
  9
$SHADEDGE
 70
     3
  9
$SHADEDIF
 70
    70
  9
$TILEMODE
 70
     1
  9
$MAXACTVP
 70
    64
  9
$PLIMCHECK
 70
     0
  9
$PEXTMIN
 10
0.0
 20
0.0
 30
0.0
  9
$PEXTMAX
 10
0.0
 20
0.0
 30
0.0
  9
$PLIMMIN
 10
0.0
 20
0.0
  9
$PLIMMAX
 10
12.0
 20
9.0
  9
$UNITMODE
 70
     0
  9
$VISRETAIN
 70
     1
  9
$PLINEGEN
 70
     0
  9
$PSLTSCALE
 70
     1
  0
ENDSEC
  0
SECTION
  2
TABLES
  0
TABLE
  2
VPORT
 70
     1
  0
VPORT
  2
*ACTIVE
 70
     0
 10
0.0
 20
0.0
 11
1.0
 21
1.0
 12
177.38356199346609
 22
99.754652034097774
 13
0.0
 23
0.0
 14
0.5
 24
0.5
 15
0.5
 25
0.5
 16
0.0
 26
0.0
 36
1.0
 17
0.0
 27
0.0
 37
0.0
 40
207.29618607108901
 41
1.831871345029239
 42
50.0
 43
0.0
 44
0.0
 50
0.0
 51
0.0
 71
     0
 72
  1000
 73
     1
 74
     2
 75
     0
 76
     0
 77
     0
 78
     0
  0
ENDTAB
  0
TABLE
  2
LTYPE
 70
     4
  0
LTYPE
  2
CONTINUOUS
 70
     0
  3
Solid Line
 72
    65
 73
     0
 40
0.0
  0
LTYPE
  2
CENTER
 70
     0
  3
____ _ ____ _ ____ _ ____ _ ____ _ ____ _ ____
 72
    65
 73
     4
 40
2.0
 49
1.25
 49
-0.25
 49
0.25
 49
-0.25
  0
LTYPE
  2
HIDDEN
 70
     0
  3
_ _ _ _ _ _ _ _ _ _ _ _ _ _ _ _ _ _ _ _ _ _ _
 72
    65
 73
     2
 40
0.375
 49
0.25
 49
-0.125
  0
LTYPE
  2
PHANTOM2
 70
     0
  3
___ _ _ ___ _ _ ___ _ _ ___ _ _
 72
    65
 73
     6
 40
1.25
 49
0.625
 49
-0.125
 49
0.125
 49
-0.125
 49
0.125
 49
-0.125
  0
ENDTAB
  0
TABLE
  2
LAYER
 70
     4
  0
LAYER
  2
0
 70
     0
 62
     7
  6
CONTINUOUS
  0
LAYER
  2
1
 70
     0
 62
     1
  6
CENTER
  0
LAYER
  2
2
 70
     0
 62
     2
  6
HIDDEN
  0
LAYER
  2
3
 70
     0
 62
     3
  6
CONTINUOUS
  0
ENDTAB
  0
TABLE
  2
STYLE
 70
     2
  0
STYLE
  2
STANDARD
 70
     0
 40
0.0
 41
1.0
 50
0.0
 71
     0
 42
0.2
  3
simplex.shx
  4
bigfont.shx
  0
STYLE
  2
STANDARD1
 70
     0
 40
0.0
 41
1.0
 50
0.0
 71
     0
 42
3.0
  3
txt
  4

  0
ENDTAB
  0
TABLE
  2
VIEW
 70
     0
  0
ENDTAB
  0
TABLE
  2
UCS
 70
     0
  0
ENDTAB
  0
TABLE
  2
APPID
 70
     3
  0
APPID
  2
ACAD
 70
     0
  0
APPID
  2
ACAD_MLEADERVER
 70
     0
  0
APPID
  2
ACAD_NAV_VCDISPLAY
 70
     0
  0
ENDTAB
  0
TABLE
  2
DIMSTYLE
 70
     1
  0
DIMSTYLE
  2
STANDARD
 70
     0
  3

  4

  5

  6

  7

 40
1.0
 41
0.18
 42
0.0625
 43
0.38
 44
0.18
 45
0.0
 46
0.0
 47
0.0
 48
0.0
140
0.18
141
0.09
142
0.0
143
25.399999999999999
144
1.0
145
0.0
146
1.0
147
0.09
 71
     0
 72
     0
 73
     1
 74
     1
 75
     0
 76
     0
 77
     0
 78
     0
170
     0
171
     2
172
     0
173
     0
174
     0
175
     0
176
     0
177
     0
178
     0
  0
ENDTAB
  0
ENDSEC
  0
SECTION
  2
BLOCKS
  0
BLOCK
  8
0
  2
$MODEL_SPACE
 70
     0
 10
0.0
 20
0.0
 30
0.0
  3
$MODEL_SPACE
  1

  0
ENDBLK
  5
21
  8
0
  0
BLOCK
 67
     1
  8
0
  2
$PAPER_SPACE
 70
     0
 10
0.0
 20
0.0
 30
0.0
  3
$PAPER_SPACE
  1

  0
ENDBLK
  5
5B
 67
     1
  8
0
  0
ENDSEC
  0
SECTION
  2
ENTITIES
  0
LINE
  5
6F1
  8
2
 10
160.8813301880395
 20
128.97525001080371
 30
0.0
 11
325.88133018803961
 21
128.97525001080379
 31
0.0
  0
LINE
  5
6F2
  8
0
 10
145.50568607044579
 20
129.47525038333279
 30
0.0
 11
145.50568607044579
 21
104.47525001080371
 31
0.0
  0
LINE
  5
6F3
  8
1
 10
145.3813301880395
 20
170.47524977238521
 30
0.0
 11
145.3813301880395
 21
196.47524977238521
 31
0.0
  0
LINE
  5
6F4
  8
1
 10
343.38133018803961
 20
183.47524977238521
 30
0.0
 11
123.3813301880395
 21
183.47524977238521
 31
0.0
  0
LINE
  5
6F5
  8
1
 10
169.3813301880395
 20
169.97524977238521
 30
0.0
 11
169.3813301880395
 21
196.97524977238521
 31
0.0
  0
LINE
  5
6F6
  8
1
 10
317.38133018803961
 20
169.97524977238521
 30
0.0
 11
317.38133018803961
 21
196.97524977238521
 31
0.0
  0
LINE
  5
6F7
  8
0
 10
63.381329815510469
 20
202.47524916143769
 30
0.0
 11
63.381329815510519
 21
164.47525038333299
 31
0.0
  0
LINE
  5
6F8
  8
0
 10
88.381330188039556
 20
164.47525038333291
 30
0.0
 11
63.381329815510519
 21
164.47525038333299
 31
0.0
  0
LINE
  5
6F9
  8
0
 10
88.381330188039556
 20
202.47524916143769
 30
0.0
 11
88.381330188039556
 21
164.47525038333291
 31
0.0
  0
LINE
  5
6FA
  8
0
 10
88.381330188039669
 20
202.47524916143769
 30
0.0
 11
63.381329815510639
 21
202.4752491614378
 31
0.0
  0
LINE
  5
6FB
  8
1
 10
53.381329815510519
 20
183.4752497723855
 30
0.0
 11
98.381330188039556
 21
183.47524977238521
 31
0.0
  0
CIRCLE
  5
6FC
  8
3
 10
145.3813301880395
 20
183.47524977238521
 30
0.0
 40
8.0
  0
LINE
  5
6FD
  8
0
 10
169.3813301880395
 20
174.97524977238521
 30
0.0
 11
317.38133018803961
 21
174.97524977238521
 31
0.0
  0
CIRCLE
  5
6FE
  8
0
 10
145.3813301880395
 20
183.47524977238521
 30
0.0
 40
7.0
  0
ARC
  5
6FF
  8
0
 10
317.38133018803961
 20
183.47524977238521
 30
0.0
 40
8.5
 50
270.0
 51
90.0
  0
ARC
  5
700
  8
0
 10
169.3813301880395
 20
183.47524977238521
 30
0.0
 40
8.5
 50
90.0
 51
270.0
  0
LINE
  5
701
  8
0
 10
317.38133018803961
 20
191.9752497723851
 30
0.0
 11
169.3813301880395
 21
191.97524977238521
 31
0.0
  0
LINE
  5
704
  8
0
 10
333.38133018803961
 20
195.47524987669331
 30
0.0
 11
333.38133018803961
 21
171.475249668077
 31
0.0
  0
LINE
  5
706
  8
0
 10
133.3813301880395
 20
171.475249668077
 30
0.0
 11
133.3813301880395
 21
195.47524987669331
 31
0.0
  0
LINE
  5
708
  8
0
 10
321.25697430563338
 20
164.47525038333279
 30
0.0
 11
333.38133018803961
 21
171.4752507911723
 31
0.0
  0
LINE
  5
709
  8
0
 10
333.38133018803961
 20
195.47524875359801
 30
0.0
 11
321.25697430563338
 21
202.4752491614376
 31
0.0
  0
LINE
  5
70A
  8
0
 10
321.25697430563338
 20
202.4752491614376
 30
0.0
 11
145.50568607044579
 21
202.4752491614376
 31
0.0
  0
LINE
  5
70B
  8
0
 10
145.50568607044579
 20
202.4752491614376
 30
0.0
 11
133.3813301880395
 21
195.47524875359801
 31
0.0
  0
LINE
  5
70C
  8
0
 10
133.3813301880395
 20
171.4752507911723
 30
0.0
 11
145.50568607044579
 21
164.47525038333279
 31
0.0
  0
LINE
  5
70D
  8
0
 10
145.50568607044579
 20
164.47525038333279
 30
0.0
 11
321.25697430563338
 21
164.47525038333279
 31
0.0
  0
LINE
  5
70E
  8
1
 10
145.3813301880395
 20
99.475250010803776
 30
0.0
 11
145.3813301880395
 21
134.47525038333279
 31
0.0
  0
LINE
  5
70F
  8
1
 10
317.38133018803961
 20
134.47525038333279
 30
0.0
 11
317.38133018803939
 21
99.475250010803776
 31
0.0
  0
LINE
  5
710
  8
1
 10
169.38133018803961
 20
134.47525038333279
 30
0.0
 11
169.3813301880395
 21
99.475250010803776
 31
0.0
  0
LINE
  5
711
  8
2
 10
137.3813301880395
 20
105.47525001080371
 30
0.0
 11
137.3813301880395
 21
105.47525001080371
 31
0.0
  0
LINE
  5
712
  8
2
 10
137.3813301880395
 20
105.47525001080371
 30
0.0
 11
137.3813301880395
 21
105.47525001080371
 31
0.0
  0
LINE
  5
713
  8
2
 10
153.38133018803961
 20
105.47525001080371
 30
0.0
 11
153.38133018803961
 21
105.47525001080371
 31
0.0
  0
LINE
  5
714
  8
2
 10
153.38133018803961
 20
128.47525001080371
 30
0.0
 11
153.38133018803961
 21
105.47525001080371
 31
0.0
  0
LINE
  5
715
  8
2
 10
137.3813301880395
 20
105.47525001080371
 30
0.0
 11
137.3813301880395
 21
105.47525001080371
 31
0.0
  0
LINE
  5
716
  8
2
 10
137.3813301880395
 20
128.47525001080371
 30
0.0
 11
137.3813301880395
 21
105.47525001080371
 31
0.0
  0
LINE
  5
717
  8
2
 10
152.3813301880395
 20
106.47525001080371
 30
0.0
 11
152.38133018803961
 21
127.47525001080371
 31
0.0
  0
LINE
  5
718
  8
2
 10
138.3813301880395
 20
127.47525001080371
 30
0.0
 11
138.3813301880395
 21
106.47525001080371
 31
0.0
  0
LINE
  5
719
  8
2
 10
160.8813301880395
 20
128.97525001080371
 30
0.0
 11
160.8813301880395
 21
104.97525001080371
 31
0.0
  0
LINE
  5
71A
  8
2
 10
325.88133018803961
 20
104.97525001080371
 30
0.0
 11
325.88133018803961
 21
128.97525001080371
 31
0.0
  0
LINE
  5
71B
  8
2
 10
138.3813301880395
 20
106.47525001080371
 30
0.0
 11
136.3813288171327
 21
104.47525001080371
 31
0.0
  0
LINE
  5
71C
  8
2
 10
154.38133176756261
 20
104.47525001080371
 30
0.0
 11
152.3813301880395
 21
106.47525001080371
 31
0.0
  0
LINE
  5
71D
  8
2
 10
160.8813301880395
 20
104.97525001080371
 30
0.0
 11
160.3813290257489
 21
104.47525001080371
 31
0.0
  0
LINE
  5
71E
  8
2
 10
152.38133018803961
 20
127.47525001080371
 30
0.0
 11
154.38133176756261
 21
129.47525038333279
 31
0.0
  0
LINE
  5
71F
  8
2
 10
136.3813288171327
 20
129.47525038333279
 30
0.0
 11
138.3813301880395
 21
127.47525001080371
 31
0.0
  0
LINE
  5
720
  8
2
 10
326.38133090329541
 20
104.47525001080371
 30
0.0
 11
325.88133018803961
 21
104.97525001080371
 31
0.0
  0
LINE
  5
721
  8
2
 10
160.3813290257489
 20
129.47525038333279
 30
0.0
 11
160.8813301880395
 21
128.97525001080371
 31
0.0
  0
LINE
  5
722
  8
2
 10
325.88133018803961
 20
128.97525001080371
 30
0.0
 11
326.38133090329541
 21
129.47525038333279
 31
0.0
  0
LINE
  5
723
  8
2
 10
138.3813301880395
 20
106.47525001080371
 30
0.0
 11
152.3813301880395
 21
106.4752500108038
 31
0.0
  0
LINE
  5
724
  8
2
 10
325.88133018803961
 20
104.9752500108038
 30
0.0
 11
160.8813301880395
 21
104.97525001080371
 31
0.0
  0
LINE
  5
725
  8
2
 10
138.3813301880395
 20
127.47525001080371
 30
0.0
 11
152.3813301880395
 21
127.4752500108038
 31
0.0
  0
LINE
  5
726
  8
0
 10
133.3813301880395
 20
128.9752493700538
 30
0.0
 11
133.3813301880395
 21
104.9752500345525
 31
0.0
  0
LINE
  5
727
  8
0
 10
133.3813301880395
 20
104.9752500345525
 30
0.0
 11
133.88133120131849
 21
104.47525001080371
 31
0.0
  0
LINE
  5
728
  8
0
 10
133.88133120131849
 20
129.47525038333279
 30
0.0
 11
133.3813301880395
 21
128.9752493700538
 31
0.0
  0
LINE
  5
729
  8
0
 10
133.8813312013184
 20
129.47525038333279
 30
0.0
 11
332.88132917476071
 21
129.47525038333279
 31
0.0
  0
LINE
  5
72A
  8
0
 10
133.8813312013184
 20
104.47525001080371
 30
0.0
 11
332.88132917476071
 21
104.4752500108038
 31
0.0
  0
LINE
  5
72B
  8
0
 10
332.88132917476071
 20
104.47525001080371
 30
0.0
 11
333.38133018803961
 21
104.9752500345525
 31
0.0
  0
LINE
  5
72C
  8
0
 10
333.38133018803961
 20
128.9752493700538
 30
0.0
 11
333.38133018803961
 21
104.9752500345525
 31
0.0
  0
LINE
  5
72D
  8
0
 10
333.38133018803961
 20
128.9752493700538
 30
0.0
 11
332.88132917476071
 21
129.47525038333279
 31
0.0
  0
LINE
  5
72E
  8
0
 10
321.25697430563338
 20
129.47525038333279
 30
0.0
 11
321.25697430563338
 21
104.47525001080371
 31
0.0
  0
LINE
  5
735
  8
0
 10
88.381330188039556
 20
195.47524875359801
 30
0.0
 11
63.381329815510483
 21
195.47524875359801
 31
0.0
  0
LINE
  5
736
  8
0
 10
88.381330188039556
 20
171.4752507911723
 30
0.0
 11
63.381329815510512
 21
171.4752507911723
 31
0.0
  0
TEXT
  5
7F3
  8
0
 62
     3
 10
0.0
 20
0.0
 30
0.0
 40
10.0
  1
BJ158-16200
  7
STANDARD1
  0
ENDSEC
  0
EOF
