  0
SECTION
  2
HEADER
  9
$ACADVER
  1
AC1009
  9
$INSBASE
 10
0.0
 20
0.0
 30
0.0
  9
$EXTMIN
 10
0.0
 20
-2.960436562073669
 30
0.0
  9
$EXTMAX
 10
314.77118981282842
 20
170.70517144764801
 30
0.0
  9
$LIMMIN
 10
0.0
 20
0.0
  9
$LIMMAX
 10
12.0
 20
9.0
  9
$ORTHOMODE
 70
     1
  9
$REGENMODE
 70
     1
  9
$FILLMODE
 70
     1
  9
$QTEXTMODE
 70
     0
  9
$MIRRTEXT
 70
     0
  9
$DRAGMODE
 70
     2
  9
$LTSCALE
 40
5.0
  9
$OSMODE
 70
  3071
  9
$ATTMODE
 70
     1
  9
$TEXTSIZE
 40
0.2
  9
$TRACEWID
 40
0.05
  9
$TEXTSTYLE
  7
STANDARD
  9
$CLAYER
  8
0
  9
$CELTYPE
  6
BYLAYER
  9
$CECOLOR
 62
   256
  9
$DIMSCALE
 40
1.0
  9
$DIMASZ
 40
0.18
  9
$DIMEXO
 40
0.0625
  9
$DIMDLI
 40
0.38
  9
$DIMRND
 40
0.0
  9
$DIMDLE
 40
0.0
  9
$DIMEXE
 40
0.18
  9
$DIMTP
 40
0.0
  9
$DIMTM
 40
0.0
  9
$DIMTXT
 40
2.5
  9
$DIMCEN
 40
0.09
  9
$DIMTSZ
 40
0.0
  9
$DIMTOL
 70
     0
  9
$DIMLIM
 70
     0
  9
$DIMTIH
 70
     0
  9
$DIMTOH
 70
     0
  9
$DIMSE1
 70
     0
  9
$DIMSE2
 70
     0
  9
$DIMTAD
 70
     1
  9
$DIMZIN
 70
     8
  9
$DIMBLK
  1

  9
$DIMASO
 70
     1
  9
$DIMSHO
 70
     1
  9
$DIMPOST
  1

  9
$DIMAPOST
  1

  9
$DIMALT
 70
     0
  9
$DIMALTD
 70
     2
  9
$DIMALTF
 40
25.399999999999999
  9
$DIMLFAC
 40
1.0
  9
$DIMTOFL
 70
     0
  9
$DIMTVP
 40
0.0
  9
$DIMTIX
 70
     0
  9
$DIMSOXD
 70
     0
  9
$DIMSAH
 70
     0
  9
$DIMBLK1
  1

  9
$DIMBLK2
  1

  9
$DIMSTYLE
  2
STANDARD
  9
$DIMCLRD
 70
     0
  9
$DIMCLRE
 70
     0
  9
$DIMCLRT
 70
     0
  9
$DIMTFAC
 40
1.0
  9
$DIMGAP
 40
0.09
  9
$LUNITS
 70
     2
  9
$LUPREC
 70
     4
  9
$SKETCHINC
 40
0.1
  9
$FILLETRAD
 40
0.0
  9
$AUNITS
 70
     0
  9
$AUPREC
 70
     0
  9
$MENU
  1
.
  9
$ELEVATION
 40
0.0
  9
$PELEVATION
 40
0.0
  9
$THICKNESS
 40
0.0
  9
$LIMCHECK
 70
     0
  9
$BLIPMODE
 70
     0
  9
$CHAMFERA
 40
0.0
  9
$CHAMFERB
 40
0.0
  9
$SKPOLY
 70
     0
  9
$TDCREATE
 40
2453083.4120647679
  9
$TDUPDATE
 40
2456597.6497110762
  9
$TDINDWG
 40
0.2448768056
  9
$TDUSRTIMER
 40
0.2448766898
  9
$USRTIMER
 70
     1
  9
$ANGBASE
 50
0.0
  9
$ANGDIR
 70
     0
  9
$PDMODE
 70
     0
  9
$PDSIZE
 40
0.0
  9
$PLINEWID
 40
0.0
  9
$COORDS
 70
     1
  9
$SPLFRAME
 70
     0
  9
$SPLINETYPE
 70
     6
  9
$SPLINESEGS
 70
     8
  9
$ATTDIA
 70
     0
  9
$ATTREQ
 70
     1
  9
$HANDLING
 70
     1
  9
$HANDSEED
  5
CE7
  9
$SURFTAB1
 70
     6
  9
$SURFTAB2
 70
     6
  9
$SURFTYPE
 70
     6
  9
$SURFU
 70
     6
  9
$SURFV
 70
     6
  9
$UCSNAME
  2

  9
$UCSORG
 10
0.0
 20
0.0
 30
0.0
  9
$UCSXDIR
 10
1.0
 20
0.0
 30
0.0
  9
$UCSYDIR
 10
0.0
 20
1.0
 30
0.0
  9
$PUCSNAME
  2

  9
$PUCSORG
 10
0.0
 20
0.0
 30
0.0
  9
$PUCSXDIR
 10
1.0
 20
0.0
 30
0.0
  9
$PUCSYDIR
 10
0.0
 20
1.0
 30
0.0
  9
$USERI1
 70
     0
  9
$USERI2
 70
     1
  9
$USERI3
 70
     0
  9
$USERI4
 70
     0
  9
$USERI5
 70
     0
  9
$USERR1
 40
0.0
  9
$USERR2
 40
0.0
  9
$USERR3
 40
0.0
  9
$USERR4
 40
0.0
  9
$USERR5
 40
0.0
  9
$WORLDVIEW
 70
     1
  9
$SHADEDGE
 70
     3
  9
$SHADEDIF
 70
    70
  9
$TILEMODE
 70
     1
  9
$MAXACTVP
 70
    64
  9
$PLIMCHECK
 70
     0
  9
$PEXTMIN
 10
0.0
 20
0.0
 30
0.0
  9
$PEXTMAX
 10
0.0
 20
0.0
 30
0.0
  9
$PLIMMIN
 10
0.0
 20
0.0
  9
$PLIMMAX
 10
12.0
 20
9.0
  9
$UNITMODE
 70
     0
  9
$VISRETAIN
 70
     1
  9
$PLINEGEN
 70
     0
  9
$PSLTSCALE
 70
     1
  0
ENDSEC
  0
SECTION
  2
TABLES
  0
TABLE
  2
VPORT
 70
     1
  0
VPORT
  2
*ACTIVE
 70
     0
 10
0.0
 20
0.0
 11
1.0
 21
1.0
 12
162.2752215196451
 22
83.874388109356033
 13
0.0
 23
0.0
 14
0.5
 24
0.5
 15
0.5
 25
0.5
 16
0.0
 26
0.0
 36
1.0
 17
0.0
 27
0.0
 37
0.0
 40
178.04660027423819
 41
1.8318713450292401
 42
50.0
 43
0.0
 44
0.0
 50
0.0
 51
0.0
 71
     0
 72
  1000
 73
     1
 74
     2
 75
     0
 76
     0
 77
     0
 78
     0
  0
ENDTAB
  0
TABLE
  2
LTYPE
 70
     4
  0
LTYPE
  2
CONTINUOUS
 70
     0
  3
Solid Line
 72
    65
 73
     0
 40
0.0
  0
LTYPE
  2
CENTER
 70
     0
  3
____ _ ____ _ ____ _ ____ _ ____ _ ____ _ ____
 72
    65
 73
     4
 40
2.0
 49
1.25
 49
-0.25
 49
0.25
 49
-0.25
  0
LTYPE
  2
HIDDEN
 70
     0
  3
Hidden __ __ __ __ __ __ __ __ __ __ __ __ __ __
 72
    65
 73
     2
 40
1.905
 49
1.27
 49
-0.635
  0
LTYPE
  2
PHANTOM2
 70
     0
  3
___ _ _ ___ _ _ ___ _ _ ___ _ _
 72
    65
 73
     6
 40
1.25
 49
0.625
 49
-0.125
 49
0.125
 49
-0.125
 49
0.125
 49
-0.125
  0
ENDTAB
  0
TABLE
  2
LAYER
 70
     5
  0
LAYER
  2
0
 70
     0
 62
     7
  6
CONTINUOUS
  0
LAYER
  2
1
 70
     0
 62
     1
  6
CENTER
  0
LAYER
  2
3
 70
     0
 62
     3
  6
CONTINUOUS
  0
LAYER
  2
DEFPOINTS
 70
     0
 62
     7
  6
CONTINUOUS
  0
LAYER
  2
2
 70
     0
 62
     2
  6
HIDDEN
  0
ENDTAB
  0
TABLE
  2
STYLE
 70
     2
  0
STYLE
  2
STANDARD
 70
     0
 40
0.0
 41
1.0
 50
0.0
 71
     0
 42
0.2
  3
simplex.shx
  4
bigfont.shx
  0
STYLE
  2
STANDARD1
 70
     0
 40
0.0
 41
1.0
 50
0.0
 71
     0
 42
3.0
  3
txt
  4

  0
ENDTAB
  0
TABLE
  2
VIEW
 70
     0
  0
ENDTAB
  0
TABLE
  2
UCS
 70
     0
  0
ENDTAB
  0
TABLE
  2
APPID
 70
     3
  0
APPID
  2
ACAD
 70
     0
  0
APPID
  2
ACAD_MLEADERVER
 70
     0
  0
APPID
  2
ACAD_NAV_VCDISPLAY
 70
     0
  0
ENDTAB
  0
TABLE
  2
DIMSTYLE
 70
     1
  0
DIMSTYLE
  2
STANDARD
 70
     0
  3

  4

  5

  6

  7

 40
1.0
 41
0.18
 42
0.0625
 43
0.38
 44
0.18
 45
0.0
 46
0.0
 47
0.0
 48
0.0
140
2.5
141
0.09
142
0.0
143
25.399999999999999
144
1.0
145
0.0
146
1.0
147
0.09
 71
     0
 72
     0
 73
     0
 74
     0
 75
     0
 76
     0
 77
     1
 78
     8
170
     0
171
     2
172
     0
173
     0
174
     0
175
     0
176
     0
177
     0
178
     0
  0
ENDTAB
  0
ENDSEC
  0
SECTION
  2
BLOCKS
  0
BLOCK
  8
0
  2
$MODEL_SPACE
 70
     0
 10
0.0
 20
0.0
 30
0.0
  3
$MODEL_SPACE
  1

  0
ENDBLK
  5
21
  8
0
  0
BLOCK
 67
     1
  8
0
  2
$PAPER_SPACE
 70
     0
 10
0.0
 20
0.0
 30
0.0
  3
$PAPER_SPACE
  1

  0
ENDBLK
  5
5B
 67
     1
  8
0
  0
ENDSEC
  0
SECTION
  2
ENTITIES
  0
LINE
  5
ABA
  8
1
 10
14.45463506489339
 20
145.7051710751191
 30
0.0
 11
59.729376085314023
 21
145.70517107511881
 31
0.0
  0
LINE
  5
ABD
  8
0
 10
21.092005388839361
 20
170.70517144764801
 30
0.0
 11
53.092005388839368
 21
170.70517144764781
 31
0.0
  0
LINE
  5
AC0
  8
0
 10
21.092005388839301
 20
161.7051718350782
 30
0.0
 11
53.092005388839311
 21
161.705171835078
 31
0.0
  0
LINE
  5
AC3
  8
0
 10
21.09200538883907
 20
129.70517031515979
 30
0.0
 11
53.092005388839077
 21
129.70517031515959
 31
0.0
  0
LINE
  5
AC4
  8
0
 10
21.092005388838999
 20
120.7051707025899
 30
0.0
 11
53.092005388839013
 21
120.7051707025897
 31
0.0
  0
LINE
  5
AC5
  8
1
 10
119.8239415484222
 20
29.649183867846361
 30
0.0
 11
119.8239415484222
 21
68.446601572861198
 31
0.0
  0
LINE
  5
AC6
  8
2
 10
129.8239415484222
 20
34.68307735399992
 30
0.0
 11
129.8239415484222
 21
64.18307698147089
 31
0.0
  0
LINE
  5
AC7
  8
2
 10
109.8239415484222
 20
34.683077353999941
 30
0.0
 11
109.8239415484222
 21
64.18307698147089
 31
0.0
  0
LINE
  5
AC8
  8
1
 10
279.82394512470091
 20
68.743106046913127
 30
0.0
 11
279.82394512470091
 21
29.239292134644881
 31
0.0
  0
LINE
  5
AC9
  8
1
 10
149.8239415484222
 20
68.743106046913084
 30
0.0
 11
149.8239415484222
 21
29.23929213464486
 31
0.0
  0
LINE
  5
ACA
  8
2
 10
111.0739448266777
 20
62.933077037350238
 30
0.0
 11
111.0739448266777
 21
35.933076459930248
 31
0.0
  0
LINE
  5
ACB
  8
2
 10
128.57394303853829
 20
35.933076459930248
 30
0.0
 11
128.57394303853829
 21
62.933077037350238
 31
0.0
  0
LINE
  5
ACC
  8
2
 10
290.32394375379408
 20
33.433076981470919
 30
0.0
 11
290.32394375379408
 21
65.433076981470919
 31
0.0
  0
LINE
  5
ACD
  8
2
 10
139.32394247229419
 20
65.43307698147089
 30
0.0
 11
139.32394247229419
 21
33.43307698147089
 31
0.0
  0
LINE
  5
ACE
  8
2
 10
128.57394303853829
 20
62.933077037350238
 30
0.0
 11
131.07394065435261
 21
65.43307698147089
 31
0.0
  0
LINE
  5
ACF
  8
2
 10
108.5739397602829
 20
65.43307698147089
 30
0.0
 11
111.0739448266777
 21
62.933077037350238
 31
0.0
  0
LINE
  5
AD0
  8
2
 10
111.0739448266777
 20
35.933076459930248
 30
0.0
 11
108.5739397602829
 21
33.43307698147089
 31
0.0
  0
LINE
  5
AD1
  8
2
 10
131.07394065435261
 20
33.43307698147089
 30
0.0
 11
128.57394303853829
 21
35.933076459930248
 31
0.0
  0
LINE
  5
AD6
  8
2
 10
128.57394303853829
 20
62.933077037350238
 30
0.0
 11
111.0739448266777
 21
62.933077037350238
 31
0.0
  0
LINE
  5
AD7
  8
2
 10
128.57394303853829
 20
35.933076459930248
 30
0.0
 11
111.0739448266777
 21
35.933076459930248
 31
0.0
  0
LINE
  5
ADA
  8
0
 10
304.82394333656163
 20
33.433076981471032
 30
0.0
 11
304.82394333656163
 21
65.433076981471032
 31
0.0
  0
LINE
  5
ADD
  8
0
 10
104.8239433365615
 20
33.433076981470997
 30
0.0
 11
104.8239433365615
 21
65.433076981471004
 31
0.0
  0
LINE
  5
AE0
  8
0
 10
120.4123982387336
 20
33.433076981471061
 30
0.0
 11
120.4123982387336
 21
65.433076981471061
 31
0.0
  0
LINE
  5
AE1
  8
0
 10
289.23548843438948
 20
33.433076981471089
 30
0.0
 11
289.23548843438948
 21
65.433076981471089
 31
0.0
  0
LINE
  5
AE2
  8
1
 10
314.77118981282842
 20
145.70517107511881
 30
0.0
 11
96.943756704407974
 21
145.70517107511881
 31
0.0
  0
CIRCLE
  5
AE3
  8
3
 10
119.8239415484222
 20
145.7051710751187
 30
0.0
 40
10.0
  0
CIRCLE
  5
AEB
  8
0
 10
119.8239415484222
 20
145.70517107511881
 30
0.0
 40
8.75
  0
LINE
  5
AEC
  8
0
 10
304.82394333656163
 20
129.70517031515959
 30
0.0
 11
289.23548843438948
 21
120.7051707025898
 31
0.0
  0
LINE
  5
AEE
  8
0
 10
289.23548843438948
 20
170.70517144764781
 30
0.0
 11
304.82394333656163
 21
161.705171835078
 31
0.0
  0
LINE
  5
AEF
  8
0
 10
120.4123982387336
 20
170.70517144764781
 30
0.0
 11
289.23548843438948
 21
170.70517144764781
 31
0.0
  0
LINE
  5
AF0
  8
0
 10
104.8239433365615
 20
161.705171835078
 30
0.0
 11
120.4123982387336
 21
170.70517144764781
 31
0.0
  0
LINE
  5
AF1
  8
0
 10
104.8239433365615
 20
129.70517031515959
 30
0.0
 11
104.8239433365615
 21
161.705171835078
 31
0.0
  0
LINE
  5
AF2
  8
0
 10
120.4123982387336
 20
120.7051707025898
 30
0.0
 11
104.8239433365615
 21
129.70517031515959
 31
0.0
  0
LINE
  5
AF3
  8
0
 10
289.23548843438948
 20
120.7051707025898
 30
0.0
 11
120.4123982387336
 21
120.7051707025898
 31
0.0
  0
LINE
  5
AF4
  8
0
 10
304.82394333656163
 20
161.705171835078
 30
0.0
 11
304.82394333656163
 21
129.70517031515959
 31
0.0
  0
ARC
  5
AF5
  8
0
 10
149.8239415484222
 20
145.70517107511881
 30
0.0
 40
10.5
 50
90.0
 51
270.0
  0
LINE
  5
AF6
  8
0
 10
149.82394139941059
 20
156.20517093355781
 30
0.0
 11
279.82394482667769
 21
156.20517093355781
 31
0.0
  0
ARC
  5
AF7
  8
0
 10
279.82394512470091
 20
145.70517107511881
 30
0.0
 40
10.5
 50
270.0
 51
90.0
  0
LINE
  5
AF8
  8
0
 10
279.82394482667769
 20
135.20517121667979
 30
0.0
 11
149.82394139941059
 21
135.20517121667979
 31
0.0
  0
LINE
  5
B23
  8
0
 10
104.8239433365615
 20
65.433076981471004
 30
0.0
 11
304.82394333656163
 21
65.433076981471032
 31
0.0
  0
LINE
  5
B24
  8
0
 10
104.8239433365615
 20
33.433076981470997
 30
0.0
 11
304.82394333656163
 21
33.433076981471032
 31
0.0
  0
LINE
  5
B25
  8
0
 10
53.092005388839368
 20
170.70517144764781
 30
0.0
 11
53.092005388839013
 21
120.7051707025897
 31
0.0
  0
LINE
  5
B26
  8
0
 10
21.092005388838999
 20
120.7051707025899
 30
0.0
 11
21.092005388839372
 21
170.70517144764801
 31
0.0
  0
LINE
  5
B27
  8
1
 10
119.8239415484222
 20
158.95517107511881
 30
0.0
 11
119.8239415484222
 21
132.45517107511881
 31
0.0
  0
LINE
  5
B28
  8
1
 10
149.8239415484222
 20
158.95517107511881
 30
0.0
 11
149.8239415484222
 21
132.45517107511881
 31
0.0
  0
LINE
  5
B29
  8
1
 10
279.82394512470091
 20
158.95517107511881
 30
0.0
 11
279.82394512470091
 21
132.45517107511881
 31
0.0
  0
TEXT
  5
C53
  8
0
 62
     3
 10
0.0
 20
0.0
 30
0.0
 40
10.0
  1
BJ158-20200
  7
STANDARD1
  0
ENDSEC
  0
EOF
