  0
SECTION
  2
HEADER
  9
$ACADVER
  1
AC1009
  9
$INSBASE
 10
0.0
 20
0.0
 30
0.0
  9
$EXTMIN
 10
0.0
 20
-2.960436562073669
 30
0.0
  9
$EXTMAX
 10
354.99999999999989
 20
180.0
 30
0.0
  9
$LIMMIN
 10
0.0
 20
0.0
  9
$LIMMAX
 10
375.0
 20
270.0
  9
$ORTHOMODE
 70
     1
  9
$REGENMODE
 70
     1
  9
$FILLMODE
 70
     1
  9
$QTEXTMODE
 70
     0
  9
$MIRRTEXT
 70
     0
  9
$DRAGMODE
 70
     2
  9
$LTSCALE
 40
10.0
  9
$OSMODE
 70
    37
  9
$ATTMODE
 70
     1
  9
$TEXTSIZE
 40
4.000000000000048
  9
$TRACEWID
 40
0.05
  9
$TEXTSTYLE
  7
STANDARD
  9
$CLAYER
  8
4
  9
$CELTYPE
  6
BYLAYER
  9
$CECOLOR
 62
   256
  9
$DIMSCALE
 40
1.0
  9
$DIMASZ
 40
3.0
  9
$DIMEXO
 40
2.0
  9
$DIMDLI
 40
0.38
  9
$DIMRND
 40
0.0
  9
$DIMDLE
 40
0.0
  9
$DIMEXE
 40
2.0
  9
$DIMTP
 40
0.0
  9
$DIMTM
 40
0.0
  9
$DIMTXT
 40
3.2000000000000002
  9
$DIMCEN
 40
0.0
  9
$DIMTSZ
 40
0.0
  9
$DIMTOL
 70
     0
  9
$DIMLIM
 70
     0
  9
$DIMTIH
 70
     0
  9
$DIMTOH
 70
     0
  9
$DIMSE1
 70
     0
  9
$DIMSE2
 70
     0
  9
$DIMTAD
 70
     1
  9
$DIMZIN
 70
     0
  9
$DIMBLK
  1

  9
$DIMASO
 70
     0
  9
$DIMSHO
 70
     0
  9
$DIMPOST
  1

  9
$DIMAPOST
  1

  9
$DIMALT
 70
     0
  9
$DIMALTD
 70
     2
  9
$DIMALTF
 40
25.399999999999999
  9
$DIMLFAC
 40
1.0
  9
$DIMTOFL
 70
     0
  9
$DIMTVP
 40
1.6000000000000001
  9
$DIMTIX
 70
     1
  9
$DIMSOXD
 70
     0
  9
$DIMSAH
 70
     0
  9
$DIMBLK1
  1

  9
$DIMBLK2
  1

  9
$DIMSTYLE
  2
STANDARD
  9
$DIMCLRD
 70
     4
  9
$DIMCLRE
 70
     4
  9
$DIMCLRT
 70
     4
  9
$DIMTFAC
 40
1.0
  9
$DIMGAP
 40
0.09
  9
$LUNITS
 70
     2
  9
$LUPREC
 70
     1
  9
$SKETCHINC
 40
0.1
  9
$FILLETRAD
 40
0.0
  9
$AUNITS
 70
     0
  9
$AUPREC
 70
     0
  9
$MENU
  1
E:\r13\win\SUPPORT\ACAD
  9
$ELEVATION
 40
0.0
  9
$PELEVATION
 40
0.0
  9
$THICKNESS
 40
0.0
  9
$LIMCHECK
 70
     0
  9
$BLIPMODE
 70
     0
  9
$CHAMFERA
 40
1.1999999999999991
  9
$CHAMFERB
 40
1.1999999999999991
  9
$SKPOLY
 70
     0
  9
$TDCREATE
 40
2450136.5896181711
  9
$TDUPDATE
 40
2456969.4034752902
  9
$TDINDWG
 40
0.0060658565
  9
$TDUSRTIMER
 40
0.0060658565
  9
$USRTIMER
 70
     1
  9
$ANGBASE
 50
0.0
  9
$ANGDIR
 70
     0
  9
$PDMODE
 70
     0
  9
$PDSIZE
 40
0.0
  9
$PLINEWID
 40
0.0
  9
$COORDS
 70
     1
  9
$SPLFRAME
 70
     0
  9
$SPLINETYPE
 70
     6
  9
$SPLINESEGS
 70
     8
  9
$ATTDIA
 70
     0
  9
$ATTREQ
 70
     1
  9
$HANDLING
 70
     1
  9
$HANDSEED
  5
A18
  9
$SURFTAB1
 70
     6
  9
$SURFTAB2
 70
     6
  9
$SURFTYPE
 70
     6
  9
$SURFU
 70
     6
  9
$SURFV
 70
     6
  9
$UCSNAME
  2

  9
$UCSORG
 10
0.0
 20
0.0
 30
0.0
  9
$UCSXDIR
 10
1.0
 20
0.0
 30
0.0
  9
$UCSYDIR
 10
0.0
 20
1.0
 30
0.0
  9
$PUCSNAME
  2

  9
$PUCSORG
 10
0.0
 20
0.0
 30
0.0
  9
$PUCSXDIR
 10
1.0
 20
0.0
 30
0.0
  9
$PUCSYDIR
 10
0.0
 20
1.0
 30
0.0
  9
$USERI1
 70
     0
  9
$USERI2
 70
     1
  9
$USERI3
 70
     0
  9
$USERI4
 70
     0
  9
$USERI5
 70
     0
  9
$USERR1
 40
0.0
  9
$USERR2
 40
0.0
  9
$USERR3
 40
0.0
  9
$USERR4
 40
0.0
  9
$USERR5
 40
0.0
  9
$WORLDVIEW
 70
     1
  9
$SHADEDGE
 70
     3
  9
$SHADEDIF
 70
    70
  9
$TILEMODE
 70
     1
  9
$MAXACTVP
 70
    16
  9
$PLIMCHECK
 70
     0
  9
$PEXTMIN
 10
1.0000000000000000E+020
 20
1.0000000000000000E+020
 30
1.0000000000000000E+020
  9
$PEXTMAX
 10
-1.0000000000000000E+020
 20
-1.0000000000000000E+020
 30
-1.0000000000000000E+020
  9
$PLIMMIN
 10
0.0
 20
0.0
  9
$PLIMMAX
 10
12.0
 20
9.0
  9
$UNITMODE
 70
     0
  9
$VISRETAIN
 70
     0
  9
$PLINEGEN
 70
     0
  9
$PSLTSCALE
 70
     0
  0
ENDSEC
  0
SECTION
  2
TABLES
  0
TABLE
  2
VPORT
 70
     1
  0
VPORT
  2
*ACTIVE
 70
     0
 10
0.0
 20
0.0
 11
1.0
 21
1.0
 12
235.63977746870651
 22
135.0
 13
0.0
 23
0.0
 14
10.0
 24
10.0
 15
10.0
 25
10.0
 16
0.0
 26
0.0
 36
1.0
 17
0.0
 27
0.0
 37
0.0
 40
270.0
 41
1.7454798331015291
 42
50.0
 43
0.0
 44
0.0
 50
0.0
 51
0.0
 71
     0
 72
   500
 73
     1
 74
     0
 75
     0
 76
     0
 77
     0
 78
     2
  0
ENDTAB
  0
TABLE
  2
LTYPE
 70
     4
  0
LTYPE
  2
CONTINUOUS
 70
     0
  3
Solid Line
 72
    65
 73
     0
 40
0.0
  0
LTYPE
  2
CENTER
 70
     0
  3
____ _ ____ _ ____ _ ____ _ ____ _ ____ _ ____
 72
    65
 73
     4
 40
2.0
 49
1.25
 49
-0.25
 49
0.25
 49
-0.25
  0
LTYPE
  2
PHANTOM2
 70
     0
  3
___ _ _ ___ _ _ ___ _ _ ___ _ _
 72
    65
 73
     6
 40
1.25
 49
0.625
 49
-0.125
 49
0.125
 49
-0.125
 49
0.125
 49
-0.125
  0
LTYPE
  2
HIDDEN
 70
     0
  3
_ _ _ _ _ _ _ _ _ _ _ _ _ _ _ _ _ _ _ _ _ _ _
 72
    65
 73
     2
 40
0.375
 49
0.25
 49
-0.125
  0
ENDTAB
  0
TABLE
  2
LAYER
 70
     6
  0
LAYER
  2
0
 70
     0
 62
     7
  6
CONTINUOUS
  0
LAYER
  2
1
 70
     0
 62
     1
  6
CENTER
  0
LAYER
  2
3
 70
     0
 62
     3
  6
CONTINUOUS
  0
LAYER
  2
4
 70
     0
 62
     4
  6
CONTINUOUS
  0
LAYER
  2
DEFPOINTS
 70
     0
 62
     7
  6
CONTINUOUS
  0
LAYER
  2
2
 70
     0
 62
     2
  6
HIDDEN
  0
ENDTAB
  0
TABLE
  2
STYLE
 70
     2
  0
STYLE
  2
STANDARD
 70
     0
 40
0.0
 41
1.0
 50
0.0
 71
     0
 42
4.000000000000048
  3
SIMPLEX
  4
BIGFONT
  0
STYLE
  2
STANDARD1
 70
     0
 40
0.0
 41
1.0
 50
0.0
 71
     0
 42
3.0
  3
txt
  4

  0
ENDTAB
  0
TABLE
  2
VIEW
 70
     1
  0
VIEW
  2
ALL
 70
     0
 40
270.33333333333331
 10
220.8717648550103
 20
134.83333333333329
 41
441.74352971002048
 11
0.0
 21
0.0
 31
1.0
 12
0.0
 22
0.0
 32
0.0
 42
50.0
 43
0.0
 44
0.0
 50
0.0
 71
     0
  0
ENDTAB
  0
TABLE
  2
UCS
 70
     0
  0
ENDTAB
  0
TABLE
  2
APPID
 70
    40
  0
APPID
  2
ACAD
 70
     0
  0
APPID
  2
ACAD_MLEADERVER
 70
     0
  0
APPID
  2
GENIUS_GENODEF_13
 70
     0
  0
APPID
  2
GENIUS_GENOBJ-N-FIL_13
 70
     0
  0
APPID
  2
ASM_BASE
 70
     0
  0
APPID
  2
ASM_EXPLO_VER_2_00
 70
     0
  0
APPID
  2
ASM_CADM_VER_12_00
 70
     0
  0
APPID
  2
ASM_BASEFORO
 70
     0
  0
APPID
  2
ASM_BASETRAVI
 70
     0
  0
APPID
  2
ASM_BASETRAVI1
 70
     0
  0
APPID
  2
ASM_GRUPPI
 70
     0
  0
APPID
  2
ASM_CADM_ALBERO
 70
     0
  0
APPID
  2
ASM_GOLE
 70
     0
  0
APPID
  2
_CALL_MAC$
 70
     0
  0
APPID
  2
CONTENTBLOCKICON
 70
     0
  0
APPID
  2
DCO15
 70
     0
  0
APPID
  2
GENIUS_GENOREF_13
 70
     0
  0
APPID
  2
GENIUS_GENOENT_13
 70
     0
  0
APPID
  2
GENIUS_GENBH_13
 70
     0
  0
APPID
  2
GENIUS_GENOBJ_13
 70
     0
  0
APPID
  2
GENIUS_GENOLIS_13
 70
     0
  0
APPID
  2
GENIUS_GENOBJ-NBEHI-BHF_13
 70
     0
  0
APPID
  2
GENIUS_GENOBJ-NBEHI-BHB_13
 70
     0
  0
APPID
  2
GENIUS_GENOBJ-F-PART_13
 70
     0
  0
APPID
  2
GENIUS_GEFSTDP_13
 70
     0
  0
APPID
  2
GENIUS_GENOBJ-N-RSSYM_13
 70
     0
  0
APPID
  2
GENIUS_GENSYMENT_13
 70
     0
  0
APPID
  2
GENIUS_GENOBJ-N-TIT_13
 70
     0
  0
APPID
  2
GENIUS_GENTITLE_13
 70
     0
  0
APPID
  2
GENIUS_GENZVEED_13
 70
     0
  0
APPID
  2
GENIUS_GENOBJ-N-LEADER_13
 70
     0
  0
APPID
  2
GENIUS_GENOBJ-N-SEC_13
 70
     0
  0
APPID
  2
GENIUS_GENOBJ-N-CRS_13
 70
     0
  0
APPID
  2
GENIUS_GENOBJ-N-ZOO_13
 70
     0
  0
APPID
  2
GENIUS_GENZOO_13
 70
     0
  0
APPID
  2
GENIUS_GENOBJ-F-TOL_13
 70
     0
  0
APPID
  2
GENIUS_GENFIL_13
 70
     0
  0
APPID
  2
GENIUS_GENOBJ-N-CHA_13
 70
     0
  0
APPID
  2
ACAD_NAV_VCDISPLAY
 70
     0
  0
APPID
  2
ACAD_EXEMPT_FROM_CAD_STANDARDS
 70
     0
  0
ENDTAB
  0
TABLE
  2
DIMSTYLE
 70
     1
  0
DIMSTYLE
  2
STANDARD
 70
     0
  3

  4

  5

  6

  7

 40
1.0
 41
0.18
 42
0.0625
 43
0.38
 44
0.18
 45
0.0
 46
0.0
 47
0.0
 48
0.0
140
0.18
141
0.09
142
0.0
143
25.399999999999999
144
1.0
145
0.0
146
1.0
147
0.09
 71
     0
 72
     0
 73
     1
 74
     1
 75
     0
 76
     0
 77
     0
 78
     0
170
     0
171
     2
172
     0
173
     0
174
     0
175
     0
176
     0
177
     0
178
     0
  0
ENDTAB
  0
ENDSEC
  0
SECTION
  2
BLOCKS
  0
BLOCK
  8
0
  2
$MODEL_SPACE
 70
     0
 10
0.0
 20
0.0
 30
0.0
  3
$MODEL_SPACE
  1

  0
ENDBLK
  5
1C7
  8
0
  0
BLOCK
 67
     1
  8
0
  2
$PAPER_SPACE
 70
     0
 10
0.0
 20
0.0
 30
0.0
  3
$PAPER_SPACE
  1

  0
ENDBLK
  5
1C5
 67
     1
  8
0
  0
ENDSEC
  0
SECTION
  2
ENTITIES
  0
LINE
  5
DC
  8
1
 10
334.99999999999989
 20
55.000000000000028
 30
0.0
 11
334.99999999999989
 21
95.0
 31
0.0
  0
LINE
  5
DD
  8
0
 10
316.15470099999982
 20
60.000000000000028
 30
0.0
 11
353.84529900000001
 21
60.000000000000028
 31
0.0
  0
LINE
  5
DE
  8
0
 10
354.99999999999989
 20
62.000000000000021
 30
0.0
 11
354.99999999999989
 21
86.000000000000028
 31
0.0
  0
LINE
  5
DF
  8
0
 10
350.99999999999989
 20
90.000000000000028
 30
0.0
 11
318.99999999999989
 21
90.000000000000028
 31
0.0
  0
ARC
  5
E0
  8
0
 10
350.99999999999989
 20
86.000000000000028
 30
0.0
 40
4.0
 50
0.0
 51
90.0
  0
LINE
  5
E1
  8
0
 10
314.99999999999989
 20
62.000000000000021
 30
0.0
 11
354.99999999999989
 21
62.000000000000021
 31
0.0
  0
LINE
  5
E2
  8
0
 10
354.99999999999989
 20
62.000000000000021
 30
0.0
 11
353.84529900000001
 21
60.000000000000028
 31
0.0
  0
LINE
  5
E3
  8
0
 10
314.99999999999989
 20
62.000000000000021
 30
0.0
 11
314.99999999999989
 21
86.000000000000028
 31
0.0
  0
LINE
  5
E4
  8
0
 10
314.99999999999989
 20
62.000000000000021
 30
0.0
 11
316.15470099999982
 21
60.000000000000028
 31
0.0
  0
ARC
  5
E5
  8
0
 10
318.99999999999989
 20
86.000000000000028
 30
0.0
 40
4.0
 50
90.0
 51
180.0
  0
TEXT
  5
27C
  8
0
 62
     3
 10
0.0
 20
0.0
 30
0.0
 40
10.0
  1
BJ201-16130
  7
STANDARD1
  0
LINE
  5
5FF
  8
0
 10
150.49999999999989
 20
62.0
 30
0.0
 11
184.49999999999989
 21
62.0
 31
0.0
  0
ARC
  5
600
  8
0
 10
150.0
 20
104.0
 30
0.0
 40
30.000000000000021
 50
270.95497387378413
 51
328.0342812492047
  0
LINE
  5
601
  8
0
 10
150.5
 20
74.004166956058697
 30
0.0
 11
150.0
 21
73.504166956058725
 31
0.0
  0
LINE
  5
602
  8
0
 10
150.5
 20
62.0
 30
0.0
 11
150.0
 21
62.5
 31
0.0
  0
LINE
  5
604
  8
0
 10
150.0
 20
62.5
 30
0.0
 11
150.0
 21
73.504166956058725
 31
0.0
  0
ARC
  5
605
  8
0
 10
64.0
 20
70.0
 30
0.0
 40
4.0
 50
90.0
 51
180.0
  0
ARC
  5
606
  8
0
 10
96.0
 20
70.0
 30
0.0
 40
4.0
 50
0.0
 51
90.0
  0
LINE
  5
607
  8
0
 10
96.0
 20
74.0
 30
0.0
 11
64.0
 21
74.0
 31
0.0
  0
LINE
  5
608
  8
0
 10
76.0
 20
62.0
 30
0.0
 11
76.0
 21
74.0
 31
0.0
  0
LINE
  5
609
  8
0
 10
84.0
 20
62.0
 30
0.0
 11
84.0
 21
74.0
 31
0.0
  0
LINE
  5
60A
  8
0
 10
80.0
 20
74.0
 30
0.0
 11
80.0
 21
62.0
 31
0.0
  0
LINE
  5
656
  8
1
 10
190.99999999999989
 20
92.5
 30
0.0
 11
190.99999999999989
 21
57.500000000000028
 31
0.0
  0
LINE
  5
657
  8
0
 10
199.49999999999989
 20
90.0
 30
0.0
 11
199.99999999999989
 21
89.500000000000014
 31
0.0
  0
LINE
  5
658
  8
0
 10
199.99999999999989
 20
75.0
 30
0.0
 11
198.99999999999989
 21
74.0
 31
0.0
  0
LINE
  5
659
  8
0
 10
199.49999999999989
 20
90.0
 30
0.0
 11
178.8444102037119
 21
90.0
 31
0.0
  0
ARC
  5
65A
  8
0
 10
178.8444102037119
 20
86.0
 30
0.0
 40
4.0
 50
90.0
 51
148.0342812492047
  0
LINE
  5
65B
  8
0
 10
184.49999999999989
 20
62.0
 30
0.0
 11
184.99999999999989
 21
62.5
 31
0.0
  0
LINE
  5
65C
  8
0
 10
184.99999999999989
 20
72.232233047033645
 30
0.0
 11
183.2322330470335
 21
74.0
 31
0.0
  0
LINE
  5
65D
  8
0
 10
184.99999999999989
 20
75.767766952966383
 30
0.0
 11
186.76776695296621
 21
74.0
 31
0.0
  0
LINE
  5
65E
  8
0
 10
183.2322330470335
 20
74.0
 30
0.0
 11
184.99999999999989
 21
75.767766952966383
 31
0.0
  0
CIRCLE
  5
65F
  8
0
 10
191.0
 20
172.0
 30
0.0
 40
5.0
  0
LINE
  5
660
  8
0
 10
193.16506350946099
 20
170.74999999999989
 30
0.0
 11
190.99999999999989
 21
169.5
 31
0.0
  0
LINE
  5
661
  8
0
 10
193.16506350946111
 20
173.25
 30
0.0
 11
193.16506350946099
 21
170.75
 31
0.0
  0
LINE
  5
662
  8
0
 10
191.0
 20
174.5
 30
0.0
 11
193.16506350946111
 21
173.25
 31
0.0
  0
LINE
  5
663
  8
0
 10
188.83493649053889
 20
173.25
 30
0.0
 11
191.00000000000011
 21
174.5
 31
0.0
  0
LINE
  5
664
  8
0
 10
188.83493649053889
 20
170.75
 30
0.0
 11
188.83493649053889
 21
173.25
 31
0.0
  0
LINE
  5
665
  8
0
 10
191.0
 20
169.5
 30
0.0
 11
188.83493649053889
 21
170.75
 31
0.0
  0
LINE
  5
666
  8
0
 10
193.16506350946099
 20
149.25000000000011
 30
0.0
 11
190.99999999999989
 21
150.5
 31
0.0
  0
LINE
  5
667
  8
0
 10
193.16506350946111
 20
146.75
 30
0.0
 11
193.16506350946099
 21
149.25
 31
0.0
  0
LINE
  5
668
  8
0
 10
191.0
 20
145.5
 30
0.0
 11
193.16506350946111
 21
146.75
 31
0.0
  0
LINE
  5
669
  8
0
 10
188.83493649053889
 20
146.74999999999989
 30
0.0
 11
191.00000000000011
 21
145.5
 31
0.0
  0
LINE
  5
66A
  8
0
 10
188.83493649053889
 20
149.24999999999989
 30
0.0
 11
188.83493649053889
 21
146.75
 31
0.0
  0
LINE
  5
66B
  8
0
 10
191.0
 20
150.5
 30
0.0
 11
188.83493649053889
 21
149.25
 31
0.0
  0
CIRCLE
  5
66C
  8
0
 10
191.0
 20
148.0
 30
0.0
 40
5.0
  0
ARC
  5
66D
  8
0
 10
152.0
 20
141.99999999999989
 30
0.0
 40
2.0
 50
180.0
 51
270.0
  0
LINE
  5
66E
  8
0
 10
150.0
 20
141.99999999999989
 30
0.0
 11
150.0
 21
155.99999999999989
 31
0.0
  0
ARC
  5
66F
  8
0
 10
152.0
 20
177.99999999999989
 30
0.0
 40
2.0
 50
90.0
 51
180.0
  0
LINE
  5
670
  8
0
 10
150.0
 20
163.99999999999989
 30
0.0
 11
153.99999999999989
 21
159.99999999999989
 31
0.0
  0
LINE
  5
671
  8
0
 10
153.99999999999989
 20
159.99999999999989
 30
0.0
 11
150.0
 21
155.99999999999989
 31
0.0
  0
LINE
  5
672
  8
0
 10
150.0
 20
163.99999999999989
 30
0.0
 11
150.0
 21
177.99999999999989
 31
0.0
  0
LINE
  5
673
  8
0
 10
175.4509501797458
 20
141.99999999999989
 30
0.0
 11
175.4509501797458
 21
177.99999999999989
 31
0.0
  0
LINE
  5
674
  8
0
 10
178.84441038918331
 20
141.99999999999989
 30
0.0
 11
178.84441038918331
 21
177.99999999999989
 31
0.0
  0
LINE
  5
675
  8
0
 10
200.0
 20
179.5
 30
0.0
 11
200.0
 21
140.5
 31
0.0
  0
LINE
  5
676
  8
0
 10
199.5
 20
140.0
 30
0.0
 11
200.0
 21
140.5
 31
0.0
  0
LINE
  5
677
  8
0
 10
199.5
 20
180.0
 30
0.0
 11
200.0
 21
179.5
 31
0.0
  0
CIRCLE
  5
678
  8
0
 10
191.0
 20
148.0
 30
0.0
 40
5.5
  0
LINE
  5
679
  8
1
 10
183.0
 20
148.0
 30
0.0
 11
199.0
 21
148.0
 31
0.0
  0
LINE
  5
67A
  8
1
 10
183.0
 20
172.0
 30
0.0
 11
199.0
 21
172.0
 31
0.0
  0
CIRCLE
  5
67B
  8
0
 10
191.0
 20
172.0
 30
0.0
 40
5.5
  0
LINE
  5
67C
  8
1
 10
191.0
 20
140.0
 30
0.0
 11
191.0
 21
156.0
 31
0.0
  0
LINE
  5
67D
  8
1
 10
191.0
 20
180.0
 30
0.0
 11
191.0
 21
164.0
 31
0.0
  0
ARC
  5
67E
  8
0
 10
215.0
 20
74.0
 30
0.0
 40
7.0
 50
90.0
 51
270.0
  0
LINE
  5
67F
  8
0
 10
215.0
 20
67.0
 30
0.0
 11
244.99999999999989
 21
67.0
 31
0.0
  0
ARC
  5
680
  8
0
 10
244.99999999999989
 20
74.0
 30
0.0
 40
7.0
 50
270.0
 51
90.0
  0
LINE
  5
686
  8
0
 10
186.0
 20
74.0
 30
0.0
 11
198.99999999999989
 21
74.0
 31
0.0
  0
LINE
  5
687
  8
0
 10
184.99999999999989
 20
61.999999999999943
 30
0.0
 11
265.0
 21
62.0
 31
0.0
  0
LINE
  5
688
  8
0
 10
187.0
 20
60.000000000000028
 30
0.0
 11
188.92320508075679
 21
60.000000000000028
 31
0.0
  0
LINE
  5
68C
  8
0
 10
200.49999999999989
 20
90.0
 30
0.0
 11
199.99999999999989
 21
89.500000000000014
 31
0.0
  0
LINE
  5
68D
  8
0
 10
199.99999999999989
 20
75.999999999999943
 30
0.0
 11
201.99999999999989
 21
73.999999999999943
 31
0.0
  0
LINE
  5
68E
  8
0
 10
201.9999999999998
 20
74.000000000000057
 30
0.0
 11
199.9999999999998
 21
72.000000000000057
 31
0.0
  0
LINE
  5
68F
  8
0
 10
199.99999999999989
 20
72.000000000000085
 30
0.0
 11
197.99999999999989
 21
74.000000000000085
 31
0.0
  0
LINE
  5
690
  8
0
 10
186.0
 20
74.0
 30
0.0
 11
185.0
 21
73.0
 31
0.0
  0
LINE
  5
691
  8
0
 10
214.99999999999989
 20
65.0
 30
0.0
 11
244.99999999999989
 21
65.0
 31
0.0
  0
LINE
  5
692
  8
0
 10
214.99999999999989
 20
81.0
 30
0.0
 11
244.99999999999989
 21
81.0
 31
0.0
  0
LINE
  5
693
  8
0
 10
214.99999999999989
 20
83.0
 30
0.0
 11
244.99999999999989
 21
83.0
 31
0.0
  0
LINE
  5
694
  8
0
 10
185.0
 20
62.0
 30
0.0
 11
187.0
 21
60.000000000000028
 31
0.0
  0
ARC
  5
695
  8
0
 10
214.99999999999989
 20
74.0
 30
0.0
 40
9.0
 50
90.0
 51
270.0
  0
ARC
  5
696
  8
0
 10
244.99999999999989
 20
74.0
 30
0.0
 40
9.0
 50
270.0
 51
90.0
  0
LINE
  5
697
  8
0
 10
199.99999999999989
 20
75.0
 30
0.0
 11
199.99999999999989
 21
89.500000000000014
 31
0.0
  0
LINE
  5
698
  8
0
 10
185.0
 20
62.0
 30
0.0
 11
185.0
 21
73.0
 31
0.0
  0
LINE
  5
699
  8
1
 10
145.0
 20
160.0
 30
0.0
 11
270.0
 21
160.0
 31
0.0
  0
LINE
  5
69A
  8
1
 10
191.0
 20
164.0
 30
0.0
 11
191.0
 21
180.0
 31
0.0
  0
LINE
  5
69B
  8
1
 10
199.0
 20
172.0
 30
0.0
 11
183.0
 21
172.0
 31
0.0
  0
LINE
  5
69C
  8
1
 10
191.0
 20
156.0
 30
0.0
 11
191.0
 21
140.0
 31
0.0
  0
LINE
  5
69D
  8
1
 10
199.0
 20
148.0
 30
0.0
 11
183.0
 21
148.0
 31
0.0
  0
LINE
  5
69E
  8
0
 10
200.0
 20
140.5
 30
0.0
 11
200.5
 21
139.99999999999989
 31
0.0
  0
LINE
  5
69F
  8
0
 10
200.0
 20
179.49999999999989
 30
0.0
 11
200.0
 21
140.5
 31
0.0
  0
LINE
  5
6A0
  8
0
 10
200.0
 20
179.49999999999989
 30
0.0
 11
200.5
 21
180.0
 31
0.0
  0
LINE
  5
6A4
  8
1
 10
80.0
 20
55.0
 30
0.0
 11
80.0
 21
95.0
 31
0.0
  0
LINE
  5
6A5
  8
0
 10
61.154700538379302
 20
60.0
 30
0.0
 11
98.845299461620826
 21
60.0
 31
0.0
  0
LINE
  5
6A6
  8
0
 10
100.0
 20
62.0
 30
0.0
 11
100.0
 21
86.0
 31
0.0
  0
LINE
  5
6A7
  8
0
 10
96.0
 20
90.0
 30
0.0
 11
64.0
 21
90.0
 31
0.0
  0
LINE
  5
6A8
  8
0
 10
152.0
 20
179.99999999999989
 30
0.0
 11
257.0
 21
180.0
 31
0.0
  0
LINE
  5
6A9
  8
0
 10
265.0
 20
172.0
 30
0.0
 11
265.0
 21
148.0
 31
0.0
  0
LINE
  5
6AA
  8
0
 10
257.0
 20
140.0
 30
0.0
 11
152.0
 21
139.99999999999989
 31
0.0
  0
LINE
  5
6AB
  8
0
 10
265.0
 20
62.0
 30
0.0
 11
264.99999999999989
 21
86.0
 31
0.0
  0
LINE
  5
6AC
  8
0
 10
260.99999999999989
 20
90.0
 30
0.0
 11
200.49999999999989
 21
90.0
 31
0.0
  0
ARC
  5
6AD
  8
0
 10
96.0
 20
86.0
 30
0.0
 40
4.0
 50
0.0
 51
90.0
  0
LINE
  5
6AE
  8
0
 10
61.0
 20
62.0
 30
0.0
 11
99.0
 21
62.0
 31
0.0
  0
LINE
  5
6AF
  8
0
 10
100.0
 20
62.0
 30
0.0
 11
98.845299461620826
 21
60.0
 31
0.0
  0
LINE
  5
6B0
  8
0
 10
99.0
 20
62.0
 30
0.0
 11
100.0
 21
63.0
 31
0.0
  0
LINE
  5
6B1
  8
0
 10
61.0
 20
62.0
 30
0.0
 11
60.0
 21
63.0
 31
0.0
  0
LINE
  5
6B2
  8
0
 10
60.0
 20
62.0
 30
0.0
 11
60.0
 21
86.0
 31
0.0
  0
LINE
  5
6B3
  8
0
 10
60.0
 20
62.0
 30
0.0
 11
61.154700538379302
 21
60.0
 31
0.0
  0
ARC
  5
6B4
  8
0
 10
64.0
 20
86.0
 30
0.0
 40
4.0
 50
90.0
 51
180.0
  0
ARC
  5
6B5
  8
0
 10
260.99999999999989
 20
86.0
 30
0.0
 40
4.0
 50
0.0
 51
90.0
  0
LINE
  5
6B6
  8
1
 10
247.5
 20
175.5
 30
0.0
 11
247.5
 21
144.5
 31
0.0
  0
ARC
  5
6B7
  8
0
 10
247.5
 20
160.0
 30
0.0
 40
13.0
 50
270.0
 51
90.0
  0
LINE
  5
6B8
  8
1
 10
217.5
 20
175.5
 30
0.0
 11
217.5
 21
144.5
 31
0.0
  0
ARC
  5
6B9
  8
0
 10
217.5
 20
160.0
 30
0.0
 40
13.0
 50
90.0
 51
270.0
  0
LINE
  5
6BA
  8
0
 10
217.5
 20
173.0
 30
0.0
 11
247.5
 21
173.0
 31
0.0
  0
LINE
  5
6BB
  8
0
 10
247.5
 20
147.0
 30
0.0
 11
217.5
 21
147.0
 31
0.0
  0
ARC
  5
6BC
  8
0
 10
257.0
 20
172.0
 30
0.0
 40
8.0
 50
0.0
 51
90.0
  0
ARC
  5
6BD
  8
0
 10
257.0
 20
148.0
 30
0.0
 40
8.0
 50
270.0
 51
0.0
  0
LINE
  5
6BE
  8
1
 10
247.5
 20
92.5
 30
0.0
 11
247.5
 21
57.500000000000028
 31
0.0
  0
LINE
  5
6BF
  8
1
 10
217.5
 20
92.5
 30
0.0
 11
217.5
 21
57.500000000000028
 31
0.0
  0
LINE
  5
6D8
  8
0
 10
189.6535898329507
 20
61.265063509461051
 30
0.0
 11
188.92320508075679
 21
60.000000000000028
 31
0.0
  0
LINE
  5
6D9
  8
0
 10
191.0767949192429
 20
60.000000000000028
 30
0.0
 11
190.3464101559783
 21
61.265063509461051
 31
0.0
  0
ARC
  5
6DA
  8
0
 10
189.99999999446459
 20
61.065063509461048
 30
0.0
 40
0.4
 50
30.000000000000671
 51
149.99999999999889
  0
LINE
  5
6DB
  8
0
 10
191.0767949192429
 20
60.000000000000028
 30
0.0
 11
193.92320508075679
 21
60.000000000000028
 31
0.0
  0
LINE
  5
6DC
  8
0
 10
194.6535898329507
 20
61.265063509461051
 30
0.0
 11
193.92320508075679
 21
60.000000000000028
 31
0.0
  0
LINE
  5
6DD
  8
0
 10
196.0767949192429
 20
60.000000000000028
 30
0.0
 11
195.3464101559783
 21
61.265063509461051
 31
0.0
  0
ARC
  5
6DE
  8
0
 10
194.99999999446459
 20
61.065063509461048
 30
0.0
 40
0.4
 50
30.000000000000671
 51
149.99999999999889
  0
LINE
  5
6DF
  8
0
 10
196.0767949192429
 20
60.000000000000028
 30
0.0
 11
198.92320508075679
 21
60.000000000000028
 31
0.0
  0
LINE
  5
6E0
  8
0
 10
199.6535898329507
 20
61.265063509461051
 30
0.0
 11
198.92320508075679
 21
60.000000000000028
 31
0.0
  0
LINE
  5
6E1
  8
0
 10
201.0767949192429
 20
60.000000000000028
 30
0.0
 11
200.3464101559783
 21
61.265063509461051
 31
0.0
  0
ARC
  5
6E2
  8
0
 10
199.99999999446459
 20
61.065063509461048
 30
0.0
 40
0.4
 50
30.000000000000671
 51
149.99999999999889
  0
LINE
  5
6E3
  8
0
 10
201.0767949192429
 20
60.000000000000028
 30
0.0
 11
203.92320508075679
 21
60.000000000000028
 31
0.0
  0
LINE
  5
6E4
  8
0
 10
204.6535898329507
 20
61.265063509461051
 30
0.0
 11
203.92320508075679
 21
60.000000000000028
 31
0.0
  0
LINE
  5
6E5
  8
0
 10
206.07679491924301
 20
60.000000000000028
 30
0.0
 11
205.3464101559783
 21
61.265063509461051
 31
0.0
  0
ARC
  5
6E6
  8
0
 10
204.99999999446459
 20
61.065063509461048
 30
0.0
 40
0.4
 50
30.000000000000671
 51
149.99999999999889
  0
LINE
  5
6E7
  8
0
 10
206.07679491924301
 20
60.000000000000028
 30
0.0
 11
208.92320508075679
 21
60.000000000000028
 31
0.0
  0
LINE
  5
6E8
  8
0
 10
209.6535898329507
 20
61.265063509461051
 30
0.0
 11
208.92320508075679
 21
60.000000000000028
 31
0.0
  0
LINE
  5
6E9
  8
0
 10
211.07679491924301
 20
60.000000000000028
 30
0.0
 11
210.3464101559783
 21
61.265063509461051
 31
0.0
  0
ARC
  5
6EA
  8
0
 10
209.99999999446459
 20
61.065063509461048
 30
0.0
 40
0.4
 50
30.000000000000671
 51
149.99999999999889
  0
LINE
  5
6EB
  8
0
 10
211.07679491924301
 20
60.000000000000028
 30
0.0
 11
213.92320508075679
 21
60.000000000000028
 31
0.0
  0
LINE
  5
6EC
  8
0
 10
214.6535898329507
 20
61.265063509461051
 30
0.0
 11
213.92320508075679
 21
60.000000000000028
 31
0.0
  0
LINE
  5
6ED
  8
0
 10
216.0767949192429
 20
60.000000000000028
 30
0.0
 11
215.3464101559783
 21
61.265063509461051
 31
0.0
  0
ARC
  5
6EE
  8
0
 10
214.99999999446459
 20
61.065063509461048
 30
0.0
 40
0.4
 50
30.000000000000671
 51
149.99999999999889
  0
LINE
  5
6EF
  8
0
 10
216.0767949192429
 20
60.000000000000028
 30
0.0
 11
218.92320508075679
 21
60.000000000000028
 31
0.0
  0
LINE
  5
6F0
  8
0
 10
219.6535898329507
 20
61.265063509461051
 30
0.0
 11
218.92320508075679
 21
60.000000000000028
 31
0.0
  0
LINE
  5
6F1
  8
0
 10
221.07679491924301
 20
60.000000000000028
 30
0.0
 11
220.34641015597839
 21
61.265063509461051
 31
0.0
  0
ARC
  5
6F2
  8
0
 10
219.99999999446459
 20
61.065063509461048
 30
0.0
 40
0.4
 50
30.000000000000671
 51
149.99999999999889
  0
LINE
  5
6F3
  8
0
 10
221.07679491924301
 20
60.000000000000028
 30
0.0
 11
223.92320508075679
 21
60.000000000000028
 31
0.0
  0
LINE
  5
6F4
  8
0
 10
224.6535898329507
 20
61.265063509461051
 30
0.0
 11
223.92320508075679
 21
60.000000000000028
 31
0.0
  0
LINE
  5
6F5
  8
0
 10
226.0767949192429
 20
60.000000000000028
 30
0.0
 11
225.3464101559783
 21
61.265063509461051
 31
0.0
  0
ARC
  5
6F6
  8
0
 10
224.99999999446459
 20
61.065063509461048
 30
0.0
 40
0.4
 50
30.000000000000671
 51
149.99999999999889
  0
LINE
  5
6F7
  8
0
 10
226.0767949192429
 20
60.000000000000028
 30
0.0
 11
228.92320508075679
 21
60.000000000000028
 31
0.0
  0
LINE
  5
6F8
  8
0
 10
229.6535898329507
 20
61.265063509461051
 30
0.0
 11
228.92320508075679
 21
60.000000000000028
 31
0.0
  0
LINE
  5
6F9
  8
0
 10
231.07679491924301
 20
60.000000000000028
 30
0.0
 11
230.3464101559783
 21
61.265063509461051
 31
0.0
  0
ARC
  5
6FA
  8
0
 10
229.99999999446459
 20
61.065063509461048
 30
0.0
 40
0.4
 50
30.000000000000671
 51
149.99999999999889
  0
LINE
  5
6FB
  8
0
 10
231.07679491924301
 20
60.000000000000028
 30
0.0
 11
233.92320508075679
 21
60.000000000000028
 31
0.0
  0
LINE
  5
6FC
  8
0
 10
234.6535898329507
 20
61.265063509461051
 30
0.0
 11
233.92320508075679
 21
60.000000000000028
 31
0.0
  0
LINE
  5
6FD
  8
0
 10
236.07679491924301
 20
60.000000000000028
 30
0.0
 11
235.3464101559783
 21
61.265063509461051
 31
0.0
  0
ARC
  5
6FE
  8
0
 10
234.99999999446459
 20
61.065063509461048
 30
0.0
 40
0.4
 50
30.000000000000671
 51
149.99999999999889
  0
LINE
  5
6FF
  8
0
 10
236.07679491924301
 20
60.000000000000028
 30
0.0
 11
238.92320508075679
 21
60.000000000000028
 31
0.0
  0
LINE
  5
700
  8
0
 10
239.6535898329507
 20
61.265063509461051
 30
0.0
 11
238.92320508075679
 21
60.000000000000028
 31
0.0
  0
LINE
  5
701
  8
0
 10
241.0767949192429
 20
60.000000000000028
 30
0.0
 11
240.3464101559783
 21
61.265063509461051
 31
0.0
  0
ARC
  5
702
  8
0
 10
239.99999999446459
 20
61.065063509461048
 30
0.0
 40
0.4
 50
30.000000000000671
 51
149.99999999999889
  0
LINE
  5
703
  8
0
 10
241.0767949192429
 20
60.000000000000028
 30
0.0
 11
243.92320508075679
 21
60.000000000000028
 31
0.0
  0
LINE
  5
704
  8
0
 10
244.6535898329507
 20
61.265063509461051
 30
0.0
 11
243.92320508075679
 21
60.000000000000028
 31
0.0
  0
LINE
  5
705
  8
0
 10
246.07679491924301
 20
60.000000000000028
 30
0.0
 11
245.34641015597839
 21
61.265063509461051
 31
0.0
  0
ARC
  5
706
  8
0
 10
244.99999999446459
 20
61.065063509461048
 30
0.0
 40
0.4
 50
30.000000000000671
 51
149.99999999999889
  0
LINE
  5
707
  8
0
 10
246.07679491924301
 20
60.000000000000028
 30
0.0
 11
248.92320508075679
 21
60.000000000000028
 31
0.0
  0
LINE
  5
708
  8
0
 10
249.6535898329507
 20
61.265063509461051
 30
0.0
 11
248.92320508075679
 21
60.000000000000028
 31
0.0
  0
LINE
  5
709
  8
0
 10
251.0767949192429
 20
60.000000000000028
 30
0.0
 11
250.3464101559783
 21
61.265063509461051
 31
0.0
  0
ARC
  5
70A
  8
0
 10
249.99999999446459
 20
61.065063509461048
 30
0.0
 40
0.4
 50
30.000000000000671
 51
149.99999999999889
  0
LINE
  5
70B
  8
0
 10
251.0767949192429
 20
60.000000000000028
 30
0.0
 11
253.92320508075679
 21
60.000000000000028
 31
0.0
  0
LINE
  5
70C
  8
0
 10
254.6535898329507
 20
61.265063509461051
 30
0.0
 11
253.92320508075679
 21
60.000000000000028
 31
0.0
  0
LINE
  5
70D
  8
0
 10
256.07679491924301
 20
60.000000000000028
 30
0.0
 11
255.3464101559783
 21
61.265063509461051
 31
0.0
  0
ARC
  5
70E
  8
0
 10
254.99999999446459
 20
61.065063509461048
 30
0.0
 40
0.4
 50
30.000000000000671
 51
149.99999999999889
  0
ARC
  5
70F
  8
0
 10
259.99999999446459
 20
61.065063509461048
 30
0.0
 40
0.4
 50
30.000000000000671
 51
149.99999999999889
  0
LINE
  5
710
  8
0
 10
261.07679491924301
 20
60.000000000000028
 30
0.0
 11
263.0
 21
60.000000000000028
 31
0.0
  0
LINE
  5
711
  8
0
 10
259.65358983295067
 20
61.265063509461051
 30
0.0
 11
258.92320508075682
 21
60.000000000000028
 31
0.0
  0
LINE
  5
712
  8
0
 10
261.07679491924301
 20
60.000000000000028
 30
0.0
 11
260.34641015597828
 21
61.265063509461051
 31
0.0
  0
LINE
  5
713
  8
0
 10
265.0
 20
62.0
 30
0.0
 11
263.0
 21
60.000000000000028
 31
0.0
  0
LINE
  5
714
  8
0
 10
256.07679491924301
 20
60.000000000000028
 30
0.0
 11
258.92320508075682
 21
60.000000000000028
 31
0.0
  0
LINE
  5
715
  8
0
 10
226.6651513899117
 20
168.5
 30
0.0
 11
247.5
 21
168.5
 31
0.0
  0
ARC
  5
716
  8
0
 10
247.5
 20
160.0
 30
0.0
 40
8.5
 50
270.0
 51
90.0
  0
LINE
  5
717
  8
0
 10
226.6651513899117
 20
151.49999999999989
 30
0.0
 11
247.5
 21
151.5
 31
0.0
  0
CIRCLE
  5
718
  8
0
 10
217.5
 20
160.0
 30
0.0
 40
8.5
  0
CIRCLE
  5
728
  8
0
 10
217.5
 20
160.0
 30
0.0
 40
12.5
  0
POLYLINE
  5
79B
  8
3
 66
     1
 10
0.0
 20
0.0
 30
0.0
 70
     1
1001
ACAD
1000
ASC_BOUNDS
1002
{
1070
    19
1005
79A
1002
}
  0
VERTEX
  5
9B4
  8
3
 10
246.08333333333221
 20
74.000000000000043
 30
0.0
 42
1.0
  0
VERTEX
  5
9B5
  8
3
 10
248.70833333333221
 20
74.000000000000043
 30
0.0
 42
1.0
  0
SEQEND
  5
9B6
  8
3
  0
POLYLINE
  5
79C
  8
3
 66
     1
 10
0.0
 20
0.0
 30
0.0
 70
     1
1001
ACAD
1000
ASC_BOUNDS
1002
{
1070
    19
1005
79A
1002
}
  0
VERTEX
  5
9B7
  8
3
 10
250.89583333333209
 20
74.000000000000043
 30
0.0
 42
1.0
  0
VERTEX
  5
9B8
  8
3
 10
243.89583333333221
 20
74.000000000000043
 30
0.0
 42
1.0
  0
SEQEND
  5
9B9
  8
3
  0
POLYLINE
  5
79D
  8
3
 66
     1
 10
0.0
 20
0.0
 30
0.0
 70
     1
1001
ACAD
1000
ASC_BOUNDS
1002
{
1070
    19
1005
79A
1002
}
  0
VERTEX
  5
9BA
  8
3
 10
217.9249999999987
 20
76.352655075262774
 30
0.0
  0
VERTEX
  5
9BB
  8
3
 10
217.9249999999987
 20
77.647344924736331
 30
0.0
 42
0.1238822414942591
  0
VERTEX
  5
9BC
  8
3
 10
216.25235424528569
 20
76.999999999999559
 30
0.0
 42
0.1238822414942589
  0
SEQEND
  5
9BD
  8
3
  0
POLYLINE
  5
79E
  8
3
 66
     1
 10
0.0
 20
0.0
 30
0.0
 70
     1
1001
ACAD
1000
ASC_BOUNDS
1002
{
1070
    19
1005
79A
1002
}
  0
VERTEX
  5
9BE
  8
3
 10
220.49764575471241
 20
76.999999999999559
 30
0.0
 42
0.1238822414942568
  0
VERTEX
  5
9BF
  8
3
 10
218.82499999999939
 20
77.647344924736331
 30
0.0
  0
VERTEX
  5
9C0
  8
3
 10
218.82499999999939
 20
76.352655075262845
 30
0.0
 42
0.1238822414942573
  0
SEQEND
  5
9C1
  8
3
  0
POLYLINE
  5
79F
  8
3
 66
     1
 10
0.0
 20
0.0
 30
0.0
 70
     1
1001
ACAD
1000
ASC_BOUNDS
1002
{
1070
    19
1005
79A
1002
}
  0
VERTEX
  5
9C2
  8
3
 10
217.9249999999987
 20
73.181846591395313
 30
0.0
 42
-0.0420571628960909
  0
VERTEX
  5
9C3
  8
3
 10
217.72569659400889
 20
72.452909732633032
 30
0.0
 42
-0.0111573747896638
  0
VERTEX
  5
9C4
  8
3
 10
217.9249999999987
 20
72.47744346698066
 30
0.0
  0
SEQEND
  5
9C5
  8
3
  0
POLYLINE
  5
7A0
  8
3
 66
     1
 10
0.0
 20
0.0
 30
0.0
 70
     1
1001
ACAD
1000
ASC_BOUNDS
1002
{
1070
    19
1005
79A
1002
}
  0
VERTEX
  5
9C6
  8
3
 10
218.82499999999939
 20
73.549999999999685
 30
0.0
  0
VERTEX
  5
9C7
  8
3
 10
218.82499999999939
 20
72.47744346698066
 30
0.0
 42
-0.1402251973297237
  0
VERTEX
  5
9C8
  8
3
 10
221.1248969751648
 20
71.562031250000544
 30
0.0
 42
0.1517967807321737
  0
VERTEX
  5
9C9
  8
3
 10
222.02234492473531
 20
73.549999999999685
 30
0.0
  0
SEQEND
  5
9CA
  8
3
  0
POLYLINE
  5
7A1
  8
3
 66
     1
 10
0.0
 20
0.0
 30
0.0
 70
     1
1001
ACAD
1000
ASC_BOUNDS
1002
{
1070
    19
1005
79A
1002
}
  0
VERTEX
  5
9CB
  8
3
 10
222.02234492473531
 20
74.450000000000387
 30
0.0
 42
0.1517967807321736
  0
VERTEX
  5
9CC
  8
3
 10
221.1248969751648
 20
76.437968749999541
 30
0.0
 42
-0.1402251973297237
  0
VERTEX
  5
9CD
  8
3
 10
218.82499999999939
 20
75.52255653301934
 30
0.0
  0
VERTEX
  5
9CE
  8
3
 10
218.82499999999939
 20
74.450000000000387
 30
0.0
  0
SEQEND
  5
9CF
  8
3
  0
POLYLINE
  5
7A2
  8
3
 66
     1
 10
0.0
 20
0.0
 30
0.0
 70
     1
1001
ACAD
1000
ASC_BOUNDS
1002
{
1070
    19
1005
79A
1002
}
  0
VERTEX
  5
9D0
  8
3
 10
229.45833333333221
 20
70.500000000000043
 30
0.0
  0
VERTEX
  5
9D1
  8
3
 10
229.45833333333221
 20
74.656250000000043
 30
0.0
 42
-1.0
  0
VERTEX
  5
9D2
  8
3
 10
230.77083333333229
 20
74.656250000000043
 30
0.0
  0
VERTEX
  5
9D3
  8
3
 10
230.77083333333229
 20
70.500000000000043
 30
0.0
  0
VERTEX
  5
9D4
  8
3
 10
232.95833333333221
 20
70.500000000000043
 30
0.0
  0
VERTEX
  5
9D5
  8
3
 10
232.95833333333221
 20
74.656250000000043
 30
0.0
 42
-1.0
  0
VERTEX
  5
9D6
  8
3
 10
234.27083333333221
 20
74.656250000000043
 30
0.0
  0
VERTEX
  5
9D7
  8
3
 10
234.27083333333221
 20
70.500000000000043
 30
0.0
  0
VERTEX
  5
9D8
  8
3
 10
236.45833333333221
 20
70.500000000000043
 30
0.0
  0
VERTEX
  5
9D9
  8
3
 10
236.45833333333221
 20
74.656250000000043
 30
0.0
 42
0.6247472440541069
  0
VERTEX
  5
9DA
  8
3
 10
231.86458333333221
 20
76.897770480053666
 30
0.0
 42
0.6247472440541069
  0
VERTEX
  5
9DB
  8
3
 10
227.27083333333221
 20
74.656250000000043
 30
0.0
  0
VERTEX
  5
9DC
  8
3
 10
227.27083333333221
 20
70.500000000000043
 30
0.0
  0
SEQEND
  5
9DD
  8
3
  0
POLYLINE
  5
7A3
  8
3
 66
     1
 10
0.0
 20
0.0
 30
0.0
 70
     1
1001
ACAD
1000
ASC_BOUNDS
1002
{
1070
    19
1005
79A
1002
}
  0
VERTEX
  5
9DE
  8
3
 10
217.9249999999987
 20
71.647344924737226
 30
0.0
 42
0.0479752760773671
  0
VERTEX
  5
9DF
  8
3
 10
217.2381327786284
 20
71.494732882636342
 30
0.0
 42
-0.0528997705207019
  0
VERTEX
  5
9E0
  8
3
 10
216.62923076923039
 20
70.766130059371406
 30
0.0
 42
0.0933324906988985
  0
VERTEX
  5
9E1
  8
3
 10
217.9249999999987
 20
70.352655075263741
 30
0.0
  0
SEQEND
  5
9E2
  8
3
  0
POLYLINE
  5
7A4
  8
3
 66
     1
 10
0.0
 20
0.0
 30
0.0
 70
     1
1001
ACAD
1000
ASC_BOUNDS
1002
{
1070
    19
1005
79A
1002
}
  0
VERTEX
  5
9E3
  8
3
 10
218.82499999999939
 20
71.647344924737226
 30
0.0
  0
VERTEX
  5
9E4
  8
3
 10
218.82499999999939
 20
70.352655075263741
 30
0.0
 42
0.1238822414942567
  0
VERTEX
  5
9E5
  8
3
 10
220.49764575471241
 20
71.000000000000455
 30
0.0
 42
0.1238822414942571
  0
SEQEND
  5
9E6
  8
3
  0
POLYLINE
  5
7A5
  8
3
 66
     1
 10
0.0
 20
0.0
 30
0.0
 70
     1
1001
ACAD
1000
ASC_BOUNDS
1002
{
1070
    19
1005
79A
1002
}
  0
VERTEX
  5
9E7
  8
3
 10
226.39583333333221
 20
77.500000000000043
 30
0.0
  0
VERTEX
  5
9E8
  8
3
 10
224.20833333333221
 20
77.500000000000043
 30
0.0
  0
VERTEX
  5
9E9
  8
3
 10
224.20833333333221
 20
70.500000000000043
 30
0.0
  0
VERTEX
  5
9EA
  8
3
 10
226.39583333333221
 20
70.500000000000043
 30
0.0
  0
SEQEND
  5
9EB
  8
3
  0
POLYLINE
  5
7A6
  8
3
 66
     1
 10
0.0
 20
0.0
 30
0.0
 70
     1
1001
ACAD
1000
ASC_BOUNDS
1002
{
1070
    19
1005
79A
1002
}
  0
VERTEX
  5
9EC
  8
3
 10
239.52083333333221
 20
72.031249999999972
 30
0.0
  0
VERTEX
  5
9ED
  8
3
 10
240.83333333333229
 20
72.031250000000043
 30
0.0
  0
VERTEX
  5
9EE
  8
3
 10
240.83333333333229
 20
70.500000000000043
 30
0.0
  0
VERTEX
  5
9EF
  8
3
 10
243.02083333333221
 20
70.500000000000043
 30
0.0
  0
VERTEX
  5
9F0
  8
3
 10
243.02083333333221
 20
74.656250000000043
 30
0.0
 42
1.000000215936474
  0
VERTEX
  5
9F1
  8
3
 10
237.33333333333221
 20
74.656250000000043
 30
0.0
  0
VERTEX
  5
9F2
  8
3
 10
237.33333333333221
 20
70.500000000000043
 30
0.0
  0
VERTEX
  5
9F3
  8
3
 10
239.52083333333221
 20
70.499999999999972
 30
0.0
  0
SEQEND
  5
9F4
  8
3
  0
POLYLINE
  5
7A7
  8
3
 66
     1
 10
0.0
 20
0.0
 30
0.0
 70
     1
1001
ACAD
1000
ASC_BOUNDS
1002
{
1070
    19
1005
79A
1002
}
  0
VERTEX
  5
9F5
  8
3
 10
240.83333333333229
 20
73.781250000000043
 30
0.0
  0
VERTEX
  5
9F6
  8
3
 10
240.83333333333229
 20
74.656250000000043
 30
0.0
 42
1.0000004495664849
  0
VERTEX
  5
9F7
  8
3
 10
239.52083333333221
 20
74.656250000000043
 30
0.0
  0
VERTEX
  5
9F8
  8
3
 10
239.52083333333221
 20
73.781250000000043
 30
0.0
  0
SEQEND
  5
9F9
  8
3
  0
POLYLINE
  5
7A8
  8
3
 66
     1
 10
0.0
 20
0.0
 30
0.0
 70
     1
1001
ACAD
1000
ASC_BOUNDS
1002
{
1070
    19
1005
79A
1002
}
  0
VERTEX
  5
9FA
  8
3
 10
215.62510302483329
 20
76.43796874999947
 30
0.0
 42
0.1402251973297244
  0
VERTEX
  5
9FB
  8
3
 10
217.9249999999987
 20
75.52255653301934
 30
0.0
  0
VERTEX
  5
9FC
  8
3
 10
217.9249999999987
 20
74.450000000000387
 30
0.0
  0
VERTEX
  5
9FD
  8
3
 10
217.1749999999995
 20
74.450000000000387
 30
0.0
  0
VERTEX
  5
9FE
  8
3
 10
217.1749999999995
 20
74.000000000000043
 30
0.0
 42
-0.378699158263169
  0
VERTEX
  5
9FF
  8
3
 10
213.9500000000003
 20
70.352655075263741
 30
0.0
  0
VERTEX
  5
A00
  8
3
 10
213.9500000000003
 20
69.522556533020236
 30
0.0
 42
0.1186144156091118
  0
VERTEX
  5
A01
  8
3
 10
215.93749999999949
 20
70.217329812156237
 30
0.0
 42
1.834021909257185
  0
VERTEX
  5
A02
  8
3
 10
215.93749999999949
 20
77.782670187843834
 30
0.0
 42
1.26915442618927
  0
VERTEX
  5
A03
  8
3
 10
213.04999999999961
 20
69.522556533020236
 30
0.0
  0
VERTEX
  5
A04
  8
3
 10
213.04999999999961
 20
70.352655075263741
 30
0.0
 42
-0.3786991582631508
  0
VERTEX
  5
A05
  8
3
 10
209.82500000000039
 20
73.999999999999773
 30
0.0
  0
VERTEX
  5
A06
  8
3
 10
209.82500000000039
 20
74.450000000000387
 30
0.0
  0
VERTEX
  5
A07
  8
3
 10
210.64999999999969
 20
74.450000000000387
 30
0.0
  0
VERTEX
  5
A08
  8
3
 10
210.64999999999969
 20
74.000000000000242
 30
0.0
 42
0.3684995607863874
  0
VERTEX
  5
A09
  8
3
 10
213.04999999999961
 20
71.185750544106
 30
0.0
  0
VERTEX
  5
A0A
  8
3
 10
213.04999999999961
 20
72.025633012836849
 30
0.0
 42
-0.3500011104183812
  0
VERTEX
  5
A0B
  8
3
 10
211.47500000000079
 20
74.000000000000043
 30
0.0
  0
VERTEX
  5
A0C
  8
3
 10
211.47500000000079
 20
74.450000000000387
 30
0.0
  0
VERTEX
  5
A0D
  8
3
 10
212.30000000000041
 20
74.450000000000387
 30
0.0
  0
VERTEX
  5
A0E
  8
3
 10
212.30000000000041
 20
73.999999999999972
 30
0.0
 42
0.9999989916437579
  0
VERTEX
  5
A0F
  8
3
 10
214.69999999999911
 20
73.99999916505395
 30
0.0
 42
-0.1833501526628178
  0
SEQEND
  5
A10
  8
3
  0
POLYLINE
  5
7A9
  8
3
 66
     1
 10
0.0
 20
0.0
 30
0.0
 70
     1
1001
ACAD
1000
ASC_BOUNDS
1002
{
1070
    19
1005
79A
1002
}
  0
VERTEX
  5
A11
  8
3
 10
216.35000000000031
 20
74.000000000000043
 30
0.0
  0
VERTEX
  5
A12
  8
3
 10
216.35000000000031
 20
74.450000000000387
 30
0.0
  0
VERTEX
  5
A13
  8
3
 10
215.5249999999991
 20
74.450000000000387
 30
0.0
  0
VERTEX
  5
A14
  8
3
 10
215.5249999999991
 20
74.000000000000043
 30
0.0
 42
-0.3500011104183828
  0
VERTEX
  5
A15
  8
3
 10
213.9500000000003
 20
72.025633012836849
 30
0.0
  0
VERTEX
  5
A16
  8
3
 10
213.9500000000003
 20
71.185750544106
 30
0.0
 42
0.3684995607863695
  0
SEQEND
  5
A17
  8
3
  0
LINE
  5
90E
  8
2
 10
260.5
 20
90.0
 30
0.0
 11
260.5
 21
74.500000000000014
 31
0.0
  0
LINE
  5
90F
  8
2
 10
256.0
 20
60.133012701892341
 30
0.0
 11
256.0
 21
74.500000000000014
 31
0.0
  0
LINE
  5
910
  8
2
 10
230.0
 20
75.000000000000028
 30
0.0
 11
230.0
 21
78.000000000000028
 31
0.0
  0
LINE
  5
911
  8
2
 10
229.5
 20
78.500000000000028
 30
0.0
 11
230.0
 21
78.000000000000028
 31
0.0
  0
LINE
  5
912
  8
2
 10
205.0
 20
75.000000000000057
 30
0.0
 11
205.0
 21
78.000000000000028
 31
0.0
  0
LINE
  5
913
  8
2
 10
204.5
 20
90.0
 30
0.0
 11
204.5
 21
74.500000000000014
 31
0.0
  0
LINE
  5
914
  8
2
 10
209.0
 20
60.133012701892149
 30
0.0
 11
209.0
 21
74.500000000000014
 31
0.0
  0
LINE
  5
915
  8
2
 10
260.5
 20
74.500000000000014
 30
0.0
 11
204.5
 21
74.500000000000014
 31
0.0
  0
LINE
  5
916
  8
2
 10
229.5
 20
78.500000000000028
 30
0.0
 11
205.5
 21
78.500000000000028
 31
0.0
  0
LINE
  5
917
  8
2
 10
205.0
 20
78.000000000000028
 30
0.0
 11
205.5
 21
78.500000000000028
 31
0.0
  0
LINE
  5
918
  8
2
 10
229.5
 20
74.500000000000014
 30
0.0
 11
230.0
 21
75.000000000000028
 31
0.0
  0
LINE
  5
919
  8
2
 10
205.0
 20
75.000000000000028
 30
0.0
 11
205.5
 21
74.500000000000014
 31
0.0
  0
ENDSEC
  0
EOF
