  0
SECTION
  2
HEADER
  9
$ACADVER
  1
AC1009
  9
$INSBASE
 10
0.0
 20
0.0
 30
0.0
  9
$EXTMIN
 10
0.0
 20
-2.960436562073669
 30
0.0
  9
$EXTMAX
 10
220.0
 20
135.25003564943501
 30
0.0
  9
$LIMMIN
 10
0.0
 20
0.0
  9
$LIMMAX
 10
375.0
 20
270.0
  9
$ORTHOMODE
 70
     1
  9
$REGENMODE
 70
     1
  9
$FILLMODE
 70
     1
  9
$QTEXTMODE
 70
     0
  9
$MIRRTEXT
 70
     0
  9
$DRAGMODE
 70
     2
  9
$LTSCALE
 40
5.0
  9
$OSMODE
 70
    37
  9
$ATTMODE
 70
     1
  9
$TEXTSIZE
 40
4.000000000000048
  9
$TRACEWID
 40
0.05
  9
$TEXTSTYLE
  7
STANDARD
  9
$CLAYER
  8
4
  9
$CELTYPE
  6
BYLAYER
  9
$CECOLOR
 62
   256
  9
$DIMSCALE
 40
1.0
  9
$DIMASZ
 40
3.0
  9
$DIMEXO
 40
2.0
  9
$DIMDLI
 40
0.38
  9
$DIMRND
 40
0.0
  9
$DIMDLE
 40
0.0
  9
$DIMEXE
 40
2.0
  9
$DIMTP
 40
0.0
  9
$DIMTM
 40
0.0
  9
$DIMTXT
 40
3.2000000000000002
  9
$DIMCEN
 40
0.0
  9
$DIMTSZ
 40
0.0
  9
$DIMTOL
 70
     0
  9
$DIMLIM
 70
     0
  9
$DIMTIH
 70
     0
  9
$DIMTOH
 70
     0
  9
$DIMSE1
 70
     0
  9
$DIMSE2
 70
     0
  9
$DIMTAD
 70
     1
  9
$DIMZIN
 70
     0
  9
$DIMBLK
  1

  9
$DIMASO
 70
     0
  9
$DIMSHO
 70
     0
  9
$DIMPOST
  1

  9
$DIMAPOST
  1

  9
$DIMALT
 70
     0
  9
$DIMALTD
 70
     2
  9
$DIMALTF
 40
25.399999999999999
  9
$DIMLFAC
 40
1.0
  9
$DIMTOFL
 70
     0
  9
$DIMTVP
 40
1.6000000000000001
  9
$DIMTIX
 70
     1
  9
$DIMSOXD
 70
     0
  9
$DIMSAH
 70
     0
  9
$DIMBLK1
  1

  9
$DIMBLK2
  1

  9
$DIMSTYLE
  2
STANDARD
  9
$DIMCLRD
 70
     4
  9
$DIMCLRE
 70
     4
  9
$DIMCLRT
 70
     4
  9
$DIMTFAC
 40
1.0
  9
$DIMGAP
 40
0.09
  9
$LUNITS
 70
     2
  9
$LUPREC
 70
     1
  9
$SKETCHINC
 40
0.1
  9
$FILLETRAD
 40
0.0
  9
$AUNITS
 70
     0
  9
$AUPREC
 70
     0
  9
$MENU
  1
E:\r13\win\SUPPORT\ACAD
  9
$ELEVATION
 40
0.0
  9
$PELEVATION
 40
0.0
  9
$THICKNESS
 40
0.0
  9
$LIMCHECK
 70
     0
  9
$BLIPMODE
 70
     0
  9
$CHAMFERA
 40
1.1999999999999991
  9
$CHAMFERB
 40
1.1999999999999991
  9
$SKPOLY
 70
     0
  9
$TDCREATE
 40
2450136.5925465282
  9
$TDUPDATE
 40
2456969.4034835999
  9
$TDINDWG
 40
0.0123384606
  9
$TDUSRTIMER
 40
0.0123384606
  9
$USRTIMER
 70
     1
  9
$ANGBASE
 50
0.0
  9
$ANGDIR
 70
     0
  9
$PDMODE
 70
     0
  9
$PDSIZE
 40
0.0
  9
$PLINEWID
 40
0.0
  9
$COORDS
 70
     1
  9
$SPLFRAME
 70
     0
  9
$SPLINETYPE
 70
     6
  9
$SPLINESEGS
 70
     8
  9
$ATTDIA
 70
     0
  9
$ATTREQ
 70
     1
  9
$HANDLING
 70
     1
  9
$HANDSEED
  5
E5D
  9
$SURFTAB1
 70
     6
  9
$SURFTAB2
 70
     6
  9
$SURFTYPE
 70
     6
  9
$SURFU
 70
     6
  9
$SURFV
 70
     6
  9
$UCSNAME
  2

  9
$UCSORG
 10
0.0
 20
0.0
 30
0.0
  9
$UCSXDIR
 10
1.0
 20
0.0
 30
0.0
  9
$UCSYDIR
 10
0.0
 20
1.0
 30
0.0
  9
$PUCSNAME
  2

  9
$PUCSORG
 10
0.0
 20
0.0
 30
0.0
  9
$PUCSXDIR
 10
1.0
 20
0.0
 30
0.0
  9
$PUCSYDIR
 10
0.0
 20
1.0
 30
0.0
  9
$USERI1
 70
     0
  9
$USERI2
 70
     1
  9
$USERI3
 70
     0
  9
$USERI4
 70
     0
  9
$USERI5
 70
     0
  9
$USERR1
 40
0.0
  9
$USERR2
 40
0.0
  9
$USERR3
 40
0.0
  9
$USERR4
 40
0.0
  9
$USERR5
 40
0.0
  9
$WORLDVIEW
 70
     1
  9
$SHADEDGE
 70
     3
  9
$SHADEDIF
 70
    70
  9
$TILEMODE
 70
     1
  9
$MAXACTVP
 70
    16
  9
$PLIMCHECK
 70
     0
  9
$PEXTMIN
 10
1.0000000000000000E+020
 20
1.0000000000000000E+020
 30
1.0000000000000000E+020
  9
$PEXTMAX
 10
-1.0000000000000000E+020
 20
-1.0000000000000000E+020
 30
-1.0000000000000000E+020
  9
$PLIMMIN
 10
0.0
 20
0.0
  9
$PLIMMAX
 10
12.0
 20
9.0
  9
$UNITMODE
 70
     0
  9
$VISRETAIN
 70
     0
  9
$PLINEGEN
 70
     0
  9
$PSLTSCALE
 70
     0
  0
ENDSEC
  0
SECTION
  2
TABLES
  0
TABLE
  2
VPORT
 70
     1
  0
VPORT
  2
*ACTIVE
 70
     0
 10
0.0
 20
0.0
 11
1.0
 21
1.0
 12
235.63977746870651
 22
135.0
 13
0.0
 23
0.0
 14
10.0
 24
10.0
 15
10.0
 25
10.0
 16
0.0
 26
0.0
 36
1.0
 17
0.0
 27
0.0
 37
0.0
 40
270.0
 41
1.7454798331015291
 42
50.0
 43
0.0
 44
0.0
 50
0.0
 51
0.0
 71
     0
 72
   500
 73
     1
 74
     0
 75
     0
 76
     0
 77
     0
 78
     2
  0
ENDTAB
  0
TABLE
  2
LTYPE
 70
     4
  0
LTYPE
  2
CONTINUOUS
 70
     0
  3
Solid Line
 72
    65
 73
     0
 40
0.0
  0
LTYPE
  2
CENTER
 70
     0
  3
____ _ ____ _ ____ _ ____ _ ____ _ ____ _ ____
 72
    65
 73
     4
 40
2.0
 49
1.25
 49
-0.25
 49
0.25
 49
-0.25
  0
LTYPE
  2
PHANTOM2
 70
     0
  3
___ _ _ ___ _ _ ___ _ _ ___ _ _
 72
    65
 73
     6
 40
1.25
 49
0.625
 49
-0.125
 49
0.125
 49
-0.125
 49
0.125
 49
-0.125
  0
LTYPE
  2
HIDDEN
 70
     0
  3
_ _ _ _ _ _ _ _ _ _ _ _ _ _ _ _ _ _ _ _ _ _ _
 72
    65
 73
     2
 40
0.375
 49
0.25
 49
-0.125
  0
ENDTAB
  0
TABLE
  2
LAYER
 70
     6
  0
LAYER
  2
0
 70
     0
 62
     7
  6
CONTINUOUS
  0
LAYER
  2
1
 70
     0
 62
     1
  6
CENTER
  0
LAYER
  2
4
 70
     0
 62
     4
  6
CONTINUOUS
  0
LAYER
  2
DEFPOINTS
 70
     0
 62
     7
  6
CONTINUOUS
  0
LAYER
  2
3
 70
     0
 62
     3
  6
CONTINUOUS
  0
LAYER
  2
2
 70
     0
 62
     2
  6
HIDDEN
  0
ENDTAB
  0
TABLE
  2
STYLE
 70
     2
  0
STYLE
  2
STANDARD
 70
     0
 40
0.0
 41
1.0
 50
0.0
 71
     0
 42
4.000000000000048
  3
SIMPLEX
  4
BIGFONT
  0
STYLE
  2
STANDARD1
 70
     0
 40
0.0
 41
1.0
 50
0.0
 71
     0
 42
3.0
  3
txt
  4

  0
ENDTAB
  0
TABLE
  2
VIEW
 70
     1
  0
VIEW
  2
ALL
 70
     0
 40
270.33333333333331
 10
220.8717648550103
 20
134.83333333333329
 41
441.74352971002048
 11
0.0
 21
0.0
 31
1.0
 12
0.0
 22
0.0
 32
0.0
 42
50.0
 43
0.0
 44
0.0
 50
0.0
 71
     0
  0
ENDTAB
  0
TABLE
  2
UCS
 70
     0
  0
ENDTAB
  0
TABLE
  2
APPID
 70
    40
  0
APPID
  2
ACAD
 70
     0
  0
APPID
  2
ACAD_MLEADERVER
 70
     0
  0
APPID
  2
GENIUS_GENODEF_13
 70
     0
  0
APPID
  2
GENIUS_GENOBJ-N-FIL_13
 70
     0
  0
APPID
  2
ASM_BASE
 70
     0
  0
APPID
  2
ASM_EXPLO_VER_2_00
 70
     0
  0
APPID
  2
ASM_CADM_VER_12_00
 70
     0
  0
APPID
  2
ASM_BASEFORO
 70
     0
  0
APPID
  2
ASM_BASETRAVI
 70
     0
  0
APPID
  2
ASM_BASETRAVI1
 70
     0
  0
APPID
  2
ASM_GRUPPI
 70
     0
  0
APPID
  2
ASM_CADM_ALBERO
 70
     0
  0
APPID
  2
ASM_GOLE
 70
     0
  0
APPID
  2
_CALL_MAC$
 70
     0
  0
APPID
  2
CONTENTBLOCKICON
 70
     0
  0
APPID
  2
DCO15
 70
     0
  0
APPID
  2
GENIUS_GENOREF_13
 70
     0
  0
APPID
  2
GENIUS_GENOENT_13
 70
     0
  0
APPID
  2
GENIUS_GENBH_13
 70
     0
  0
APPID
  2
GENIUS_GENOBJ_13
 70
     0
  0
APPID
  2
GENIUS_GENOLIS_13
 70
     0
  0
APPID
  2
GENIUS_GENOBJ-NBEHI-BHF_13
 70
     0
  0
APPID
  2
GENIUS_GENOBJ-NBEHI-BHB_13
 70
     0
  0
APPID
  2
GENIUS_GENOBJ-F-PART_13
 70
     0
  0
APPID
  2
GENIUS_GEFSTDP_13
 70
     0
  0
APPID
  2
GENIUS_GENOBJ-N-RSSYM_13
 70
     0
  0
APPID
  2
GENIUS_GENSYMENT_13
 70
     0
  0
APPID
  2
GENIUS_GENOBJ-N-TIT_13
 70
     0
  0
APPID
  2
GENIUS_GENTITLE_13
 70
     0
  0
APPID
  2
GENIUS_GENZVEED_13
 70
     0
  0
APPID
  2
GENIUS_GENOBJ-N-LEADER_13
 70
     0
  0
APPID
  2
GENIUS_GENOBJ-N-SEC_13
 70
     0
  0
APPID
  2
GENIUS_GENOBJ-N-CRS_13
 70
     0
  0
APPID
  2
GENIUS_GENOBJ-N-ZOO_13
 70
     0
  0
APPID
  2
GENIUS_GENZOO_13
 70
     0
  0
APPID
  2
GENIUS_GENOBJ-F-TOL_13
 70
     0
  0
APPID
  2
GENIUS_GENFIL_13
 70
     0
  0
APPID
  2
GENIUS_GENOBJ-N-CHA_13
 70
     0
  0
APPID
  2
ACAD_EXEMPT_FROM_CAD_STANDARDS
 70
     0
  0
APPID
  2
ACAD_NAV_VCDISPLAY
 70
     0
  0
ENDTAB
  0
TABLE
  2
DIMSTYLE
 70
     1
  0
DIMSTYLE
  2
STANDARD
 70
     0
  3

  4

  5

  6

  7

 40
1.0
 41
0.18
 42
0.0625
 43
0.38
 44
0.18
 45
0.0
 46
0.0
 47
0.0
 48
0.0
140
0.18
141
0.09
142
0.0
143
25.399999999999999
144
1.0
145
0.0
146
1.0
147
0.09
 71
     0
 72
     0
 73
     1
 74
     1
 75
     0
 76
     0
 77
     0
 78
     0
170
     0
171
     2
172
     0
173
     0
174
     0
175
     0
176
     0
177
     0
178
     0
  0
ENDTAB
  0
ENDSEC
  0
SECTION
  2
BLOCKS
  0
BLOCK
  8
0
  2
$MODEL_SPACE
 70
     0
 10
0.0
 20
0.0
 30
0.0
  3
$MODEL_SPACE
  1

  0
ENDBLK
  5
1E9
  8
0
  0
BLOCK
 67
     1
  8
0
  2
$PAPER_SPACE
 70
     0
 10
0.0
 20
0.0
 30
0.0
  3
$PAPER_SPACE
  1

  0
ENDBLK
  5
1E7
 67
     1
  8
0
  0
ENDSEC
  0
SECTION
  2
ENTITIES
  0
LINE
  5
B6
  8
0
 10
197.0
 20
76.0
 30
0.0
 11
218.0
 21
76.0
 31
0.0
  0
ARC
  5
B7
  8
0
 10
218.0
 20
74.0
 30
0.0
 40
2.0
 50
0.0
 51
90.0
  0
ARC
  5
B8
  8
0
 10
197.0
 20
74.0
 30
0.0
 40
2.0
 50
90.0
 51
180.0
  0
LINE
  5
B9
  8
0
 10
195.0
 20
61.5
 30
0.0
 11
220.0
 21
61.5
 31
0.0
  0
ARC
  5
BA
  8
0
 10
218.0
 20
77.5
 30
0.0
 40
2.0
 50
0.0
 51
90.0
  0
ARC
  5
BB
  8
0
 10
197.0
 20
77.5
 30
0.0
 40
2.0
 50
90.0
 51
180.0
  0
LINE
  5
BC
  8
0
 10
197.0
 20
79.5
 30
0.0
 11
218.0
 21
79.5
 31
0.0
  0
LINE
  5
BD
  8
1
 10
207.5
 20
84.500000000000014
 30
0.0
 11
207.5
 21
55.0
 31
0.0
  0
LINE
  5
BE
  8
0
 10
195.0
 20
61.5
 30
0.0
 11
195.86602499999989
 21
60.0
 31
0.0
  0
LINE
  5
BF
  8
0
 10
195.0
 20
77.5
 30
0.0
 11
195.0
 21
61.5
 31
0.0
  0
LINE
  5
C0
  8
0
 10
220.0
 20
61.5
 30
0.0
 11
219.13397500000011
 21
60.0
 31
0.0
  0
LINE
  5
C1
  8
0
 10
219.13397500000011
 20
60.0
 30
0.0
 11
195.86602499999989
 21
60.0
 31
0.0
  0
LINE
  5
C2
  8
0
 10
220.0
 20
77.5
 30
0.0
 11
220.0
 21
61.5
 31
0.0
  0
TEXT
  5
29E
  8
0
 62
     3
 10
0.0
 20
0.0
 30
0.0
 40
10.0
  1
BJ202-08016
  7
STANDARD1
  0
ARC
  5
880
  8
0
 10
62.0
 20
77.500000000000028
 30
0.0
 40
2.0
 50
90.0
 51
180.0
  0
ARC
  5
881
  8
0
 10
83.0
 20
77.500000000000028
 30
0.0
 40
2.0
 50
0.0
 51
90.0
  0
LINE
  5
882
  8
0
 10
70.5
 20
61.5
 30
0.0
 11
70.5
 21
79.5
 31
0.0
  0
LINE
  5
883
  8
0
 10
74.5
 20
61.5
 30
0.0
 11
74.5
 21
79.5
 31
0.0
  0
LINE
  5
884
  8
0
 10
83.0
 20
79.5
 30
0.0
 11
62.0
 21
79.5
 31
0.0
  0
LINE
  5
885
  8
0
 10
72.5
 20
61.5
 30
0.0
 11
72.5
 21
79.5
 31
0.0
  0
LINE
  5
886
  8
0
 10
74.5
 20
76.923293592308923
 30
0.0
 11
82.999999999999773
 21
76.923293592308923
 31
0.0
  0
LINE
  5
887
  8
0
 10
74.5
 20
77.423293592308028
 30
0.0
 11
82.999999999999773
 21
77.423293592308028
 31
0.0
  0
LINE
  5
888
  8
0
 10
74.5
 20
78.799828111225253
 30
0.0
 11
82.999999999999773
 21
78.799828111225253
 31
0.0
  0
LINE
  5
889
  8
0
 10
74.5
 20
78.299828111226162
 30
0.0
 11
82.999999999999773
 21
78.299828111226162
 31
0.0
  0
LINE
  5
88A
  8
0
 10
74.5
 20
76.046759073390774
 30
0.0
 11
82.999999999999773
 21
76.046759073390774
 31
0.0
  0
LINE
  5
88B
  8
0
 10
74.5
 20
75.546759073391684
 30
0.0
 11
82.999999999999773
 21
75.546759073391684
 31
0.0
  0
LINE
  5
88C
  8
0
 10
74.5
 20
74.670224554473521
 30
0.0
 11
82.999999999999773
 21
74.670224554473521
 31
0.0
  0
LINE
  5
88D
  8
0
 10
74.5
 20
74.17022455447443
 30
0.0
 11
82.999999999999773
 21
74.17022455447443
 31
0.0
  0
LINE
  5
88E
  8
0
 10
74.5
 20
73.293690035556295
 30
0.0
 11
82.999999999999773
 21
73.293690035556295
 31
0.0
  0
LINE
  5
88F
  8
0
 10
74.5
 20
72.793690035557205
 30
0.0
 11
82.999999999999773
 21
72.793690035557205
 31
0.0
  0
LINE
  5
890
  8
0
 10
74.5
 20
71.91715551663907
 30
0.0
 11
82.999999999999773
 21
71.91715551663907
 31
0.0
  0
LINE
  5
891
  8
0
 10
74.5
 20
71.41715551663998
 30
0.0
 11
82.999999999999773
 21
71.41715551663998
 31
0.0
  0
LINE
  5
892
  8
0
 10
74.5
 20
70.540620997721817
 30
0.0
 11
82.999999999999773
 21
70.540620997721817
 31
0.0
  0
LINE
  5
893
  8
0
 10
74.5
 20
70.040620997722726
 30
0.0
 11
82.999999999999773
 21
70.040620997722726
 31
0.0
  0
LINE
  5
894
  8
0
 10
74.5
 20
69.164086478804563
 30
0.0
 11
82.999999999999773
 21
69.164086478804563
 31
0.0
  0
LINE
  5
895
  8
0
 10
74.5
 20
68.664086478805473
 30
0.0
 11
82.999999999999773
 21
68.664086478805473
 31
0.0
  0
LINE
  5
896
  8
0
 10
74.5
 20
67.787551959887324
 30
0.0
 11
82.999999999999773
 21
67.787551959887324
 31
0.0
  0
LINE
  5
897
  8
0
 10
74.5
 20
67.287551959888233
 30
0.0
 11
82.999999999999773
 21
67.287551959888233
 31
0.0
  0
LINE
  5
898
  8
0
 10
74.5
 20
66.411017440970113
 30
0.0
 11
82.999999999999773
 21
66.411017440970113
 31
0.0
  0
LINE
  5
899
  8
0
 10
74.5
 20
65.911017440971023
 30
0.0
 11
82.999999999999773
 21
65.911017440971023
 31
0.0
  0
LINE
  5
89A
  8
0
 10
74.5
 20
65.03448292205286
 30
0.0
 11
82.999999999999773
 21
65.03448292205286
 31
0.0
  0
LINE
  5
89B
  8
0
 10
74.5
 20
64.534482922053769
 30
0.0
 11
82.999999999999773
 21
64.534482922053769
 31
0.0
  0
LINE
  5
89C
  8
0
 10
74.5
 20
63.157948403136508
 30
0.0
 11
82.999999999999773
 21
63.157948403136508
 31
0.0
  0
LINE
  5
89D
  8
0
 10
74.5
 20
63.657948403135613
 30
0.0
 11
82.999999999999773
 21
63.657948403135613
 31
0.0
  0
LINE
  5
89E
  8
0
 10
74.5
 20
61.781413884219262
 30
0.0
 11
82.999999999999773
 21
61.781413884219262
 31
0.0
  0
LINE
  5
89F
  8
0
 10
74.5
 20
62.281413884218352
 30
0.0
 11
82.999999999999773
 21
62.281413884218352
 31
0.0
  0
LINE
  5
8A0
  8
0
 10
70.5
 20
62.281413884218352
 30
0.0
 11
62.000000000000227
 21
62.281413884218352
 31
0.0
  0
LINE
  5
8A1
  8
0
 10
70.5
 20
61.781413884219262
 30
0.0
 11
62.000000000000227
 21
61.781413884219262
 31
0.0
  0
LINE
  5
8A2
  8
0
 10
70.5
 20
63.657948403135613
 30
0.0
 11
62.000000000000227
 21
63.657948403135613
 31
0.0
  0
LINE
  5
8A3
  8
0
 10
70.5
 20
63.157948403136508
 30
0.0
 11
62.000000000000227
 21
63.157948403136508
 31
0.0
  0
LINE
  5
8A4
  8
0
 10
70.5
 20
64.534482922053769
 30
0.0
 11
62.000000000000227
 21
64.534482922053769
 31
0.0
  0
LINE
  5
8A5
  8
0
 10
70.5
 20
65.03448292205286
 30
0.0
 11
62.000000000000227
 21
65.03448292205286
 31
0.0
  0
LINE
  5
8A6
  8
0
 10
70.5
 20
65.911017440971023
 30
0.0
 11
62.000000000000227
 21
65.911017440971023
 31
0.0
  0
LINE
  5
8A7
  8
0
 10
70.5
 20
66.411017440970113
 30
0.0
 11
62.000000000000227
 21
66.411017440970113
 31
0.0
  0
LINE
  5
8A8
  8
0
 10
70.5
 20
67.287551959888233
 30
0.0
 11
62.000000000000227
 21
67.287551959888233
 31
0.0
  0
LINE
  5
8A9
  8
0
 10
70.5
 20
69.164086478804563
 30
0.0
 11
62.000000000000227
 21
69.164086478804563
 31
0.0
  0
LINE
  5
8AA
  8
0
 10
70.5
 20
70.040620997722726
 30
0.0
 11
62.000000000000227
 21
70.040620997722726
 31
0.0
  0
LINE
  5
8AB
  8
0
 10
70.5
 20
70.540620997721817
 30
0.0
 11
62.000000000000227
 21
70.540620997721817
 31
0.0
  0
LINE
  5
8AC
  8
0
 10
70.5
 20
71.41715551663998
 30
0.0
 11
62.000000000000227
 21
71.41715551663998
 31
0.0
  0
LINE
  5
8AD
  8
0
 10
70.5
 20
71.91715551663907
 30
0.0
 11
62.000000000000227
 21
71.91715551663907
 31
0.0
  0
LINE
  5
8AE
  8
0
 10
70.5
 20
72.793690035557205
 30
0.0
 11
62.000000000000227
 21
72.793690035557205
 31
0.0
  0
LINE
  5
8AF
  8
0
 10
70.5
 20
73.293690035556295
 30
0.0
 11
62.000000000000227
 21
73.293690035556295
 31
0.0
  0
LINE
  5
8B0
  8
0
 10
70.5
 20
74.17022455447443
 30
0.0
 11
62.000000000000227
 21
74.17022455447443
 31
0.0
  0
LINE
  5
8B1
  8
0
 10
70.5
 20
74.670224554473521
 30
0.0
 11
62.000000000000227
 21
74.670224554473521
 31
0.0
  0
LINE
  5
8B2
  8
0
 10
70.5
 20
75.546759073391684
 30
0.0
 11
62.000000000000227
 21
75.546759073391684
 31
0.0
  0
LINE
  5
8B3
  8
0
 10
70.5
 20
76.046759073390774
 30
0.0
 11
62.000000000000227
 21
76.046759073390774
 31
0.0
  0
LINE
  5
8B4
  8
0
 10
70.5
 20
78.299828111226162
 30
0.0
 11
62.000000000000227
 21
78.299828111226162
 31
0.0
  0
LINE
  5
8B5
  8
0
 10
70.5
 20
78.799828111225253
 30
0.0
 11
62.000000000000227
 21
78.799828111225253
 31
0.0
  0
LINE
  5
8B6
  8
0
 10
70.5
 20
77.423293592308028
 30
0.0
 11
62.000000000000227
 21
77.423293592308028
 31
0.0
  0
LINE
  5
8B7
  8
0
 10
70.5
 20
76.923293592308923
 30
0.0
 11
62.000000000000227
 21
76.923293592308923
 31
0.0
  0
LINE
  5
8B8
  8
0
 10
70.5
 20
67.787551959887324
 30
0.0
 11
62.000000000000227
 21
67.787551959887324
 31
0.0
  0
LINE
  5
8B9
  8
0
 10
70.5
 20
68.664086478805473
 30
0.0
 11
62.000000000000227
 21
68.664086478805473
 31
0.0
  0
LINE
  5
8BA
  8
0
 10
116.59597744535949
 20
61.5
 30
0.0
 11
165.0
 21
61.5
 31
0.0
  0
LINE
  5
8BB
  8
0
 10
128.0
 20
76.0
 30
0.0
 11
163.0
 21
76.0
 31
0.0
  0
LINE
  5
8BC
  8
0
 10
115.0
 20
61.781413884219027
 30
0.0
 11
116.59597744535949
 21
61.5
 31
0.0
  0
LINE
  5
8BD
  8
0
 10
116.0
 20
64.358155941345103
 30
0.0
 11
115.0
 21
63.6579484031354
 31
0.0
  0
LINE
  5
8BE
  8
0
 10
115.0
 20
63.157948403136317
 30
0.0
 11
116.0
 21
62.98162142242785
 31
0.0
  0
LINE
  5
8BF
  8
0
 10
115.0
 20
63.157948403136317
 30
0.0
 11
115.0
 21
63.6579484031354
 31
0.0
  0
LINE
  5
8C0
  8
0
 10
116.0
 20
62.98162142242785
 30
0.0
 11
115.0
 21
62.281413884218118
 31
0.0
  0
LINE
  5
8C1
  8
0
 10
115.0
 20
61.781413884219027
 30
0.0
 11
115.0
 21
62.281413884218118
 31
0.0
  0
LINE
  5
8C2
  8
0
 10
115.0
 20
64.53448292205357
 30
0.0
 11
115.0
 21
65.034482922052661
 31
0.0
  0
LINE
  5
8C3
  8
0
 10
115.0
 20
64.53448292205357
 30
0.0
 11
116.0
 21
64.358155941345103
 31
0.0
  0
LINE
  5
8C4
  8
0
 10
116.0
 20
65.734690460262357
 30
0.0
 11
115.0
 21
65.034482922052661
 31
0.0
  0
LINE
  5
8C5
  8
0
 10
115.0
 20
65.911017440970852
 30
0.0
 11
115.0
 21
66.411017440969943
 31
0.0
  0
LINE
  5
8C6
  8
0
 10
115.0
 20
65.911017440970852
 30
0.0
 11
116.0
 21
65.734690460262357
 31
0.0
  0
LINE
  5
8C7
  8
0
 10
116.0
 20
67.11122497917961
 30
0.0
 11
115.0
 21
66.411017440969943
 31
0.0
  0
LINE
  5
8C8
  8
0
 10
115.0
 20
67.287551959888106
 30
0.0
 11
115.0
 21
67.787551959887196
 31
0.0
  0
LINE
  5
8C9
  8
0
 10
115.0
 20
67.287551959888106
 30
0.0
 11
116.0
 21
67.111224979179639
 31
0.0
  0
LINE
  5
8CA
  8
0
 10
116.0
 20
68.487759498096892
 30
0.0
 11
115.0
 21
67.787551959887196
 31
0.0
  0
LINE
  5
8CC
  8
0
 10
121.2928932187958
 20
68.5
 30
0.0
 11
122.0
 21
67.792893218831125
 31
0.0
  0
LINE
  5
8CD
  8
0
 10
115.0
 20
68.664086478805359
 30
0.0
 11
115.0
 21
69.164086478804435
 31
0.0
  0
LINE
  5
8CE
  8
0
 10
115.0
 20
68.664086478805359
 30
0.0
 11
116.0
 21
68.487759498096892
 31
0.0
  0
LINE
  5
8CF
  8
0
 10
116.0
 20
69.864294017014146
 30
0.0
 11
115.0
 21
69.164086478804435
 31
0.0
  0
LINE
  5
8D0
  8
0
 10
115.0
 20
70.040620997722613
 30
0.0
 11
115.0
 21
70.540620997721703
 31
0.0
  0
LINE
  5
8D1
  8
0
 10
115.0
 20
70.040620997722613
 30
0.0
 11
116.0
 21
69.864294017014146
 31
0.0
  0
LINE
  5
8D2
  8
0
 10
116.0
 20
71.240828535931399
 30
0.0
 11
115.0
 21
70.540620997721703
 31
0.0
  0
LINE
  5
8D3
  8
0
 10
115.0
 20
74.170224554474373
 30
0.0
 11
116.0
 21
73.993897573765906
 31
0.0
  0
LINE
  5
8D4
  8
0
 10
116.0
 20
73.993897573765935
 30
0.0
 11
115.0
 21
73.29369003555621
 31
0.0
  0
LINE
  5
8D5
  8
0
 10
115.0
 20
72.79369003555712
 30
0.0
 11
116.0
 21
72.617363054848653
 31
0.0
  0
LINE
  5
8D6
  8
0
 10
116.0
 20
72.617363054848653
 30
0.0
 11
115.0
 21
71.917155516638957
 31
0.0
  0
LINE
  5
8D7
  8
0
 10
115.0
 20
71.417155516639866
 30
0.0
 11
116.0
 21
71.240828535931399
 31
0.0
  0
LINE
  5
8D8
  8
0
 10
115.0
 20
71.417155516639866
 30
0.0
 11
115.0
 21
71.917155516638957
 31
0.0
  0
LINE
  5
8D9
  8
0
 10
115.0
 20
72.79369003555712
 30
0.0
 11
115.0
 21
73.29369003555621
 31
0.0
  0
LINE
  5
8DA
  8
0
 10
115.0
 20
74.170224554474373
 30
0.0
 11
115.0
 21
74.670224554473464
 31
0.0
  0
LINE
  5
8DB
  8
0
 10
115.99999999999839
 20
79.500035649435006
 30
0.0
 11
118.3692772890227
 21
79.500035649435006
 31
0.0
  0
LINE
  5
8DC
  8
0
 10
115.0
 20
78.299828111226191
 30
0.0
 11
115.0
 21
78.799828111225253
 31
0.0
  0
LINE
  5
8DD
  8
0
 10
115.0
 20
76.923293592308909
 30
0.0
 11
115.0
 21
77.423293592307999
 31
0.0
  0
LINE
  5
8DE
  8
0
 10
115.0
 20
75.546759073391655
 30
0.0
 11
115.0
 21
76.046759073390746
 31
0.0
  0
LINE
  5
8DF
  8
0
 10
116.0
 20
75.370432092683174
 30
0.0
 11
115.0
 21
74.670224554473464
 31
0.0
  0
LINE
  5
8E0
  8
0
 10
115.0
 20
75.546759073391655
 30
0.0
 11
116.0
 21
75.370432092683174
 31
0.0
  0
LINE
  5
8E1
  8
0
 10
116.0
 20
76.746966611600442
 30
0.0
 11
115.0
 21
76.046759073390746
 31
0.0
  0
LINE
  5
8E2
  8
0
 10
115.0
 20
76.923293592308909
 30
0.0
 11
116.0
 21
76.746966611600442
 31
0.0
  0
LINE
  5
8E3
  8
0
 10
116.0
 20
78.123501130517695
 30
0.0
 11
115.0
 21
77.423293592307999
 31
0.0
  0
LINE
  5
8E4
  8
0
 10
115.0
 20
78.299828111226162
 30
0.0
 11
116.0
 21
78.123501130517695
 31
0.0
  0
LINE
  5
8E5
  8
0
 10
116.0
 20
79.500035649434949
 30
0.0
 11
115.0
 21
78.799828111225253
 31
0.0
  0
LINE
  5
8E6
  8
0
 10
129.5
 20
76.0
 30
0.0
 11
130.0
 21
75.5
 31
0.0
  0
ARC
  5
8E7
  8
0
 10
128.0
 20
91.0
 30
0.0
 40
15.0
 50
230.0552827215659
 51
270.0
  0
LINE
  5
8E8
  8
0
 10
129.5
 20
68.5
 30
0.0
 11
130.0
 21
69.0
 31
0.0
  0
LINE
  5
8E9
  8
0
 10
121.99999999998229
 20
69.207106781186553
 30
0.0
 11
121.2928932187958
 21
68.5
 31
0.0
  0
LINE
  5
8EA
  8
0
 10
122.7071067811689
 20
68.5
 30
0.0
 11
121.99999999998229
 21
69.207106781186553
 31
0.0
  0
CIRCLE
  5
8F3
  8
0
 10
124.9999999999999
 20
114.50003564943501
 30
0.0
 40
2.75
  0
CIRCLE
  5
8F4
  8
0
 10
124.9999999999999
 20
129.50003564943489
 30
0.0
 40
2.75
  0
LINE
  5
8F5
  8
0
 10
116.5
 20
134.50003564943501
 30
0.0
 11
161.0
 21
134.50003564943501
 31
0.0
  0
LINE
  5
8F6
  8
0
 10
116.0
 20
123.00003564943481
 30
0.0
 11
116.0
 21
132.50003564943501
 31
0.0
  0
LINE
  5
8F7
  8
0
 10
116.0
 20
121.00003564943511
 30
0.0
 11
116.0
 21
111.50003564943501
 31
0.0
  0
LINE
  5
8F8
  8
0
 10
118.3692772890228
 20
133.00003564943501
 30
0.0
 11
118.3692772890228
 21
111.00003564943501
 31
0.0
  0
LINE
  5
8F9
  8
0
 10
130.0
 20
134.00003564943509
 30
0.0
 11
129.5
 21
134.50003564943509
 31
0.0
  0
LINE
  5
8FA
  8
0
 10
130.0
 20
110.00003564943491
 30
0.0
 11
129.5
 21
109.50003564943491
 31
0.0
  0
CIRCLE
  5
8FC
  8
0
 10
125.0
 20
129.50003564943501
 30
0.0
 40
3.25
  0
CIRCLE
  5
8FD
  8
0
 10
125.0
 20
114.50003564943501
 30
0.0
 40
3.25
  0
LINE
  5
8FE
  8
0
 10
161.0
 20
109.50003564943501
 30
0.0
 11
116.4999999999999
 21
109.50003564943501
 31
0.0
  0
ARC
  5
8FF
  8
0
 10
116.4999999999999
 20
111.00003564943501
 30
0.0
 40
1.5
 50
180.0
 51
270.0
  0
ARC
  5
900
  8
0
 10
116.5
 20
133.00003564943489
 30
0.0
 40
1.5
 50
90.0
 51
179.9999999999996
  0
LINE
  5
901
  8
0
 10
115.0
 20
120.0000356494352
 30
0.0
 11
115.0
 21
111.00003564943501
 31
0.0
  0
LINE
  5
902
  8
0
 10
117.0
 20
122.00003564943501
 30
0.0
 11
115.0
 21
120.0000356494352
 31
0.0
  0
LINE
  5
903
  8
0
 10
115.0
 20
124.00003564943481
 30
0.0
 11
117.0
 21
122.00003564943501
 31
0.0
  0
LINE
  5
904
  8
0
 10
115.0
 20
133.00003564943489
 30
0.0
 11
115.0
 21
124.00003564943481
 31
0.0
  0
LINE
  5
905
  8
0
 10
130.0
 20
110.00003564943491
 30
0.0
 11
130.0
 21
134.00003564943509
 31
0.0
  0
ARC
  5
911
  8
0
 10
137.50000000000199
 20
67.5
 30
0.0
 40
4.9999999999999849
 50
90.0
 51
270.0
  0
ARC
  5
912
  8
0
 10
156.5
 20
67.5
 30
0.0
 40
4.9999999999999849
 50
270.0
 51
90.0
  0
LINE
  5
913
  8
0
 10
156.5
 20
62.5
 30
0.0
 11
137.50000000000199
 21
62.5
 31
0.0
  0
LINE
  5
914
  8
0
 10
156.5
 20
72.5
 30
0.0
 11
137.50000000000199
 21
72.5
 31
0.0
  0
ARC
  5
915
  8
0
 10
137.50000000000199
 20
67.5
 30
0.0
 40
3.5
 50
90.0
 51
270.0
  0
ARC
  5
916
  8
0
 10
156.5
 20
67.5
 30
0.0
 40
3.5
 50
270.0
 51
90.0
  0
LINE
  5
917
  8
1
 10
138.5
 20
57.5
 30
0.0
 11
138.5
 21
78.5
 31
0.0
  0
LINE
  5
918
  8
1
 10
155.0
 20
57.5
 30
0.0
 11
155.0
 21
78.5
 31
0.0
  0
LINE
  5
919
  8
1
 10
125.0
 20
57.5
 30
0.0
 11
125.0
 21
78.5
 31
0.0
  0
LINE
  5
91A
  8
0
 10
122.5
 20
68.5
 30
0.0
 11
122.0
 21
68.0
 31
0.0
  0
LINE
  5
91B
  8
0
 10
130.0
 20
67.792893218813447
 30
0.0
 11
129.2928932188133
 21
68.5
 31
0.0
  0
LINE
  5
91C
  8
0
 10
130.70710678118641
 20
68.5
 30
0.0
 11
130.0
 21
67.792893218813447
 31
0.0
  0
LINE
  5
91D
  8
0
 10
130.0
 20
69.207106781186553
 30
0.0
 11
130.70710678118641
 21
68.5
 31
0.0
  0
LINE
  5
91E
  8
0
 10
129.5
 20
68.5
 30
0.0
 11
122.5
 21
68.5
 31
0.0
  0
LINE
  5
91F
  8
0
 10
130.0
 20
69.0
 30
0.0
 11
130.0
 21
76.0
 31
0.0
  0
LINE
  5
920
  8
0
 10
122.0
 20
61.5
 30
0.0
 11
123.5
 21
60.0
 31
0.0
  0
LINE
  5
921
  8
0
 10
122.0
 20
61.5
 30
0.0
 11
122.0
 21
68.0
 31
0.0
  0
LINE
  5
922
  8
1
 10
130.74999999999989
 20
129.50003564943489
 30
0.0
 11
119.2499999999999
 21
129.50003564943489
 31
0.0
  0
LINE
  5
923
  8
1
 10
124.9999999999999
 20
123.75003564943501
 30
0.0
 11
124.9999999999999
 21
135.25003564943501
 31
0.0
  0
LINE
  5
924
  8
0
 10
123.7499999999998
 20
128.778347812948
 30
0.0
 11
123.75
 21
130.22172348592181
 31
0.0
  0
LINE
  5
925
  8
0
 10
124.9999999999999
 20
128.05665997646079
 30
0.0
 11
123.7499999999998
 21
128.778347812948
 31
0.0
  0
LINE
  5
926
  8
0
 10
126.2499999999999
 20
128.7783478129476
 30
0.0
 11
124.9999999999999
 21
128.05665997646079
 31
0.0
  0
LINE
  5
927
  8
0
 10
126.2499999999999
 20
130.22172348592181
 30
0.0
 11
126.2499999999999
 21
128.7783478129476
 31
0.0
  0
LINE
  5
928
  8
0
 10
125.0
 20
130.94341132240891
 30
0.0
 11
126.2499999999999
 21
130.22172348592181
 31
0.0
  0
LINE
  5
929
  8
0
 10
123.75
 20
130.22172348592181
 30
0.0
 11
125.0
 21
130.94341132240891
 31
0.0
  0
LINE
  5
92A
  8
0
 10
123.75
 20
113.7783478129481
 30
0.0
 11
125.0
 21
113.05665997646101
 31
0.0
  0
LINE
  5
92B
  8
0
 10
125.0
 20
113.05665997646101
 30
0.0
 11
126.2499999999999
 21
113.7783478129481
 31
0.0
  0
LINE
  5
92C
  8
0
 10
126.2499999999999
 20
113.7783478129481
 30
0.0
 11
126.2499999999999
 21
115.2217234859223
 31
0.0
  0
LINE
  5
92D
  8
0
 10
126.2499999999999
 20
115.2217234859223
 30
0.0
 11
124.9999999999999
 21
115.9434113224091
 31
0.0
  0
LINE
  5
92E
  8
0
 10
124.9999999999999
 20
115.9434113224091
 30
0.0
 11
123.7499999999998
 21
115.2217234859219
 31
0.0
  0
LINE
  5
92F
  8
0
 10
123.7499999999998
 20
115.2217234859219
 30
0.0
 11
123.75
 21
113.7783478129481
 31
0.0
  0
LINE
  5
930
  8
1
 10
124.9999999999999
 20
120.25003564943491
 30
0.0
 11
124.9999999999999
 21
108.75003564943491
 31
0.0
  0
LINE
  5
931
  8
1
 10
130.74999999999989
 20
114.50003564943501
 30
0.0
 11
119.2499999999999
 21
114.50003564943501
 31
0.0
  0
ARC
  5
93A
  8
0
 10
125.0
 20
60.382531754730529
 30
0.0
 40
0.25
 50
30.00000000000081
 51
149.9999999999992
  0
LINE
  5
93B
  8
0
 10
125.5095299461619
 20
60.0
 30
0.0
 11
125.21650635094601
 21
60.507531754730543
 31
0.0
  0
LINE
  5
93C
  8
0
 10
124.4904700538378
 20
60.0
 30
0.0
 11
124.7834936490539
 21
60.507531754730543
 31
0.0
  0
LINE
  5
93D
  8
0
 10
124.4904700538378
 20
60.0
 30
0.0
 11
123.4999999999999
 21
60.0
 31
0.0
  0
ARC
  5
93E
  8
0
 10
127.5
 20
60.382531754730529
 30
0.0
 40
0.25
 50
30.00000000000081
 51
149.9999999999992
  0
LINE
  5
93F
  8
0
 10
128.0095299461619
 20
60.0
 30
0.0
 11
127.71650635094601
 21
60.507531754730543
 31
0.0
  0
LINE
  5
940
  8
0
 10
126.9904700538378
 20
60.0
 30
0.0
 11
127.2834936490538
 21
60.507531754730543
 31
0.0
  0
LINE
  5
941
  8
0
 10
126.9904700538378
 20
60.0
 30
0.0
 11
125.5095299461619
 21
60.0
 31
0.0
  0
ARC
  5
942
  8
0
 10
130.0
 20
60.382531754730529
 30
0.0
 40
0.25
 50
30.00000000000081
 51
149.9999999999992
  0
LINE
  5
943
  8
0
 10
130.5095299461619
 20
60.0
 30
0.0
 11
130.21650635094599
 21
60.507531754730543
 31
0.0
  0
LINE
  5
944
  8
0
 10
129.49047005383781
 20
60.0
 30
0.0
 11
129.78349364905381
 21
60.507531754730543
 31
0.0
  0
LINE
  5
945
  8
0
 10
129.49047005383781
 20
60.0
 30
0.0
 11
128.0095299461619
 21
60.0
 31
0.0
  0
ARC
  5
946
  8
0
 10
132.5
 20
60.382531754730529
 30
0.0
 40
0.25
 50
30.00000000000081
 51
149.9999999999992
  0
LINE
  5
947
  8
0
 10
133.0095299461619
 20
60.0
 30
0.0
 11
132.71650635094599
 21
60.507531754730543
 31
0.0
  0
LINE
  5
948
  8
0
 10
131.99047005383781
 20
60.0
 30
0.0
 11
132.28349364905381
 21
60.507531754730543
 31
0.0
  0
LINE
  5
949
  8
0
 10
131.99047005383781
 20
60.0
 30
0.0
 11
130.5095299461619
 21
60.0
 31
0.0
  0
ARC
  5
94A
  8
0
 10
135.0
 20
60.382531754730529
 30
0.0
 40
0.25
 50
30.00000000000081
 51
149.9999999999992
  0
LINE
  5
94B
  8
0
 10
135.5095299461619
 20
60.0
 30
0.0
 11
135.21650635094599
 21
60.507531754730543
 31
0.0
  0
LINE
  5
94C
  8
0
 10
134.49047005383781
 20
60.0
 30
0.0
 11
134.78349364905381
 21
60.507531754730543
 31
0.0
  0
LINE
  5
94D
  8
0
 10
134.49047005383781
 20
60.0
 30
0.0
 11
133.0095299461619
 21
60.0
 31
0.0
  0
ARC
  5
94E
  8
0
 10
137.5
 20
60.382531754730529
 30
0.0
 40
0.25
 50
30.00000000000081
 51
149.9999999999992
  0
LINE
  5
94F
  8
0
 10
138.0095299461619
 20
60.0
 30
0.0
 11
137.71650635094599
 21
60.507531754730543
 31
0.0
  0
LINE
  5
950
  8
0
 10
136.99047005383781
 20
60.0
 30
0.0
 11
137.2834936490539
 21
60.507531754730543
 31
0.0
  0
LINE
  5
951
  8
0
 10
136.99047005383781
 20
60.0
 30
0.0
 11
135.5095299461619
 21
60.0
 31
0.0
  0
ARC
  5
952
  8
0
 10
140.0
 20
60.382531754730529
 30
0.0
 40
0.25
 50
30.00000000000081
 51
149.9999999999992
  0
LINE
  5
953
  8
0
 10
140.5095299461619
 20
60.0
 30
0.0
 11
140.21650635094599
 21
60.507531754730543
 31
0.0
  0
LINE
  5
954
  8
0
 10
139.49047005383781
 20
60.0
 30
0.0
 11
139.78349364905381
 21
60.507531754730543
 31
0.0
  0
LINE
  5
955
  8
0
 10
139.49047005383781
 20
60.0
 30
0.0
 11
138.0095299461619
 21
60.0
 31
0.0
  0
ARC
  5
956
  8
0
 10
142.5
 20
60.382531754730529
 30
0.0
 40
0.25
 50
30.00000000000081
 51
149.9999999999992
  0
LINE
  5
957
  8
0
 10
143.0095299461619
 20
60.0
 30
0.0
 11
142.71650635094599
 21
60.507531754730543
 31
0.0
  0
LINE
  5
958
  8
0
 10
141.99047005383781
 20
60.0
 30
0.0
 11
142.28349364905381
 21
60.507531754730543
 31
0.0
  0
LINE
  5
959
  8
0
 10
141.99047005383781
 20
60.0
 30
0.0
 11
140.5095299461619
 21
60.0
 31
0.0
  0
ARC
  5
95A
  8
0
 10
145.0
 20
60.382531754730529
 30
0.0
 40
0.25
 50
30.00000000000081
 51
149.9999999999992
  0
LINE
  5
95B
  8
0
 10
145.5095299461619
 20
60.0
 30
0.0
 11
145.21650635094599
 21
60.507531754730543
 31
0.0
  0
LINE
  5
95C
  8
0
 10
144.49047005383781
 20
60.0
 30
0.0
 11
144.78349364905381
 21
60.507531754730543
 31
0.0
  0
LINE
  5
95D
  8
0
 10
144.49047005383781
 20
60.0
 30
0.0
 11
143.0095299461619
 21
60.0
 31
0.0
  0
ARC
  5
95E
  8
0
 10
147.5
 20
60.382531754730529
 30
0.0
 40
0.25
 50
30.00000000000081
 51
149.9999999999992
  0
LINE
  5
95F
  8
0
 10
148.0095299461619
 20
60.0
 30
0.0
 11
147.71650635094599
 21
60.507531754730543
 31
0.0
  0
LINE
  5
960
  8
0
 10
146.99047005383781
 20
60.0
 30
0.0
 11
147.28349364905381
 21
60.507531754730543
 31
0.0
  0
LINE
  5
961
  8
0
 10
146.99047005383781
 20
60.0
 30
0.0
 11
145.5095299461619
 21
60.0
 31
0.0
  0
ARC
  5
962
  8
0
 10
150.0
 20
60.382531754730529
 30
0.0
 40
0.25
 50
30.00000000000081
 51
149.9999999999992
  0
LINE
  5
963
  8
0
 10
150.5095299461619
 20
60.0
 30
0.0
 11
150.21650635094599
 21
60.507531754730543
 31
0.0
  0
LINE
  5
964
  8
0
 10
149.49047005383781
 20
60.0
 30
0.0
 11
149.7834936490539
 21
60.507531754730543
 31
0.0
  0
LINE
  5
965
  8
0
 10
149.49047005383781
 20
60.0
 30
0.0
 11
148.0095299461619
 21
60.0
 31
0.0
  0
ARC
  5
966
  8
0
 10
152.5
 20
60.382531754730529
 30
0.0
 40
0.25
 50
30.00000000000081
 51
149.9999999999992
  0
LINE
  5
967
  8
0
 10
153.0095299461619
 20
60.0
 30
0.0
 11
152.71650635094599
 21
60.507531754730543
 31
0.0
  0
LINE
  5
968
  8
0
 10
151.99047005383781
 20
60.0
 30
0.0
 11
152.28349364905381
 21
60.507531754730543
 31
0.0
  0
LINE
  5
969
  8
0
 10
151.99047005383781
 20
60.0
 30
0.0
 11
150.5095299461619
 21
60.0
 31
0.0
  0
ARC
  5
96A
  8
0
 10
155.0
 20
60.382531754730529
 30
0.0
 40
0.25
 50
30.00000000000081
 51
149.9999999999992
  0
LINE
  5
96B
  8
0
 10
155.5095299461619
 20
60.0
 30
0.0
 11
155.21650635094599
 21
60.507531754730543
 31
0.0
  0
LINE
  5
96C
  8
0
 10
154.49047005383781
 20
60.0
 30
0.0
 11
154.78349364905381
 21
60.507531754730543
 31
0.0
  0
LINE
  5
96D
  8
0
 10
154.49047005383781
 20
60.0
 30
0.0
 11
153.0095299461619
 21
60.0
 31
0.0
  0
ARC
  5
96E
  8
0
 10
157.5
 20
60.382531754730529
 30
0.0
 40
0.25
 50
30.00000000000081
 51
149.9999999999992
  0
LINE
  5
96F
  8
0
 10
158.0095299461619
 20
60.0
 30
0.0
 11
157.71650635094599
 21
60.507531754730543
 31
0.0
  0
LINE
  5
970
  8
0
 10
156.99047005383781
 20
60.0
 30
0.0
 11
157.28349364905381
 21
60.507531754730543
 31
0.0
  0
LINE
  5
971
  8
0
 10
156.99047005383781
 20
60.0
 30
0.0
 11
155.5095299461619
 21
60.0
 31
0.0
  0
ARC
  5
972
  8
0
 10
160.0
 20
60.382531754730529
 30
0.0
 40
0.25
 50
30.00000000000081
 51
149.9999999999992
  0
LINE
  5
973
  8
0
 10
160.5095299461619
 20
60.0
 30
0.0
 11
160.21650635094599
 21
60.507531754730543
 31
0.0
  0
LINE
  5
974
  8
0
 10
159.49047005383781
 20
60.0
 30
0.0
 11
159.78349364905381
 21
60.507531754730543
 31
0.0
  0
LINE
  5
975
  8
0
 10
159.49047005383781
 20
60.0
 30
0.0
 11
158.0095299461619
 21
60.0
 31
0.0
  0
LINE
  5
976
  8
0
 10
161.99047005383781
 20
60.0
 30
0.0
 11
160.5095299461619
 21
60.0
 31
0.0
  0
ARC
  5
977
  8
0
 10
162.5
 20
60.382531754730529
 30
0.0
 40
0.25
 50
30.00000000000081
 51
149.9999999999992
  0
LINE
  5
978
  8
0
 10
163.0095299461619
 20
60.0
 30
0.0
 11
162.71650635094599
 21
60.507531754730543
 31
0.0
  0
LINE
  5
979
  8
0
 10
161.99047005383781
 20
60.0
 30
0.0
 11
162.2834936490539
 21
60.507531754730543
 31
0.0
  0
LINE
  5
97A
  8
0
 10
163.5
 20
60.0
 30
0.0
 11
163.0095299461619
 21
60.0
 31
0.0
  0
CIRCLE
  5
980
  8
0
 10
138.49999999999989
 20
122.00003564943501
 30
0.0
 40
6.5
  0
LINE
  5
9CA
  8
1
 10
72.5
 20
84.500000000000014
 30
0.0
 11
72.5
 21
55.0
 31
0.0
  0
LINE
  5
9CB
  8
0
 10
85.0
 20
61.5
 30
0.0
 11
84.13397459621558
 21
60.0
 31
0.0
  0
LINE
  5
9CC
  8
0
 10
85.0
 20
77.500000000000028
 30
0.0
 11
85.0
 21
61.5
 31
0.0
  0
LINE
  5
9CD
  8
0
 10
85.0
 20
61.5
 30
0.0
 11
60.0
 21
61.5
 31
0.0
  0
LINE
  5
9CE
  8
0
 10
60.0
 20
61.5
 30
0.0
 11
60.866025403784541
 21
60.0
 31
0.0
  0
LINE
  5
9CF
  8
0
 10
60.866025403784541
 20
60.0
 30
0.0
 11
84.13397459621558
 21
60.0
 31
0.0
  0
LINE
  5
9D0
  8
0
 10
60.0
 20
77.500000000000028
 30
0.0
 11
60.0
 21
61.5
 31
0.0
  0
LINE
  5
9D1
  8
0
 10
156.5
 20
64.0
 30
0.0
 11
137.50000000000199
 21
64.0
 31
0.0
  0
LINE
  5
9D2
  8
0
 10
156.5
 20
71.0
 30
0.0
 11
137.50000000000199
 21
71.0
 31
0.0
  0
LINE
  5
9D3
  8
0
 10
165.0
 20
61.5
 30
0.0
 11
163.5
 21
60.0
 31
0.0
  0
ARC
  5
9D4
  8
0
 10
163.0
 20
74.0
 30
0.0
 40
2.0
 50
0.0
 51
90.0
  0
LINE
  5
9D5
  8
0
 10
165.0
 20
61.5
 30
0.0
 11
165.0
 21
74.0
 31
0.0
  0
ARC
  5
9D6
  8
0
 10
161.0
 20
113.50003564943501
 30
0.0
 40
4.0
 50
270.0
 51
0.0
  0
ARC
  5
9D7
  8
0
 10
161.0
 20
130.50003564943501
 30
0.0
 40
4.0
 50
0.0
 51
90.0
  0
LINE
  5
9D8
  8
0
 10
138.5
 20
129.00003564943501
 30
0.0
 11
155.0
 21
129.00003564943501
 31
0.0
  0
LINE
  5
9D9
  8
0
 10
138.49999999999989
 20
115.00003564943501
 30
0.0
 11
154.99999999999989
 21
115.00003564943501
 31
0.0
  0
LINE
  5
9DA
  8
1
 10
138.49999999999989
 20
112.50003564943501
 30
0.0
 11
138.5
 21
131.50003564943501
 31
0.0
  0
ARC
  5
9DB
  8
0
 10
138.5
 20
122.00003564943501
 30
0.0
 40
7.0
 50
90.0
 51
270.0
  0
ARC
  5
9DC
  8
0
 10
155.0
 20
122.00003564943501
 30
0.0
 40
7.0
 50
270.0
 51
90.0
  0
LINE
  5
9DD
  8
1
 10
154.99999999999989
 20
112.50003564943501
 30
0.0
 11
155.0
 21
131.50003564943501
 31
0.0
  0
LINE
  5
9DE
  8
0
 10
165.0
 20
113.50003564943501
 30
0.0
 11
165.0
 21
130.50003564943501
 31
0.0
  0
LINE
  5
9DF
  8
1
 10
110.0
 20
122.00003564943501
 30
0.0
 11
170.0
 21
122.00003564943501
 31
0.0
  0
LINE
  5
9E6
  8
0
 10
155.0
 20
126.25003564943501
 30
0.0
 11
143.41807889322629
 21
126.25003564943501
 31
0.0
  0
ARC
  5
9E7
  8
0
 10
155.0
 20
122.00003564943501
 30
0.0
 40
4.25
 50
270.0
 51
90.0
  0
LINE
  5
9E8
  8
0
 10
154.99999999999989
 20
117.75003564943501
 30
0.0
 11
143.4180788932257
 21
117.75003564943501
 31
0.0
  0
CIRCLE
  5
C04
  8
0
 10
138.5
 20
122.00003564943501
 30
0.0
 40
4.2000000000000002
  0
POLYLINE
  5
C6C
  8
3
 66
     1
 10
0.0
 20
0.0
 30
0.0
 70
     1
1001
ACAD
1000
ASC_BOUNDS
1002
{
1070
    19
1005
C6B
1002
}
  0
VERTEX
  5
DF9
  8
3
 10
156.1904761904776
 20
67.499999999999986
 30
0.0
 42
1.0
  0
VERTEX
  5
DFA
  8
3
 10
157.6904761904776
 20
67.499999999999986
 30
0.0
 42
1.0
  0
SEQEND
  5
DFB
  8
3
  0
POLYLINE
  5
C6D
  8
3
 66
     1
 10
0.0
 20
0.0
 30
0.0
 70
     1
1001
ACAD
1000
ASC_BOUNDS
1002
{
1070
    19
1005
C6B
1002
}
  0
VERTEX
  5
DFC
  8
3
 10
158.94047619047751
 20
67.499999999999986
 30
0.0
 42
1.0
  0
VERTEX
  5
DFD
  8
3
 10
154.9404761904776
 20
67.499999999999986
 30
0.0
 42
1.0
  0
SEQEND
  5
DFE
  8
3
  0
POLYLINE
  5
C6E
  8
3
 66
     1
 10
0.0
 20
0.0
 30
0.0
 70
     1
1001
ACAD
1000
ASC_BOUNDS
1002
{
1070
    19
1005
C6B
1002
}
  0
VERTEX
  5
DFF
  8
3
 10
140.10000000000119
 20
68.844374328721543
 30
0.0
  0
VERTEX
  5
E00
  8
3
 10
140.10000000000119
 20
69.584197099849291
 30
0.0
 42
0.1238822414942591
  0
VERTEX
  5
E01
  8
3
 10
139.1442024258796
 20
69.214285714285424
 30
0.0
 42
0.1238822414942589
  0
SEQEND
  5
E02
  8
3
  0
POLYLINE
  5
C6F
  8
3
 66
     1
 10
0.0
 20
0.0
 30
0.0
 70
     1
1001
ACAD
1000
ASC_BOUNDS
1002
{
1070
    19
1005
C6B
1002
}
  0
VERTEX
  5
E03
  8
3
 10
141.57008328840911
 20
69.214285714285424
 30
0.0
 42
0.1238822414942568
  0
VERTEX
  5
E04
  8
3
 10
140.6142857142874
 20
69.584197099849291
 30
0.0
  0
VERTEX
  5
E05
  8
3
 10
140.6142857142874
 20
68.844374328721585
 30
0.0
 42
0.1238822414942573
  0
SEQEND
  5
E06
  8
3
  0
POLYLINE
  5
C70
  8
3
 66
     1
 10
0.0
 20
0.0
 30
0.0
 70
     1
1001
ACAD
1000
ASC_BOUNDS
1002
{
1070
    19
1005
C6B
1002
}
  0
VERTEX
  5
E07
  8
3
 10
140.10000000000119
 20
67.032483766511575
 30
0.0
 42
-0.0420571628960909
  0
VERTEX
  5
E08
  8
3
 10
139.98611233943569
 20
66.615948418647406
 30
0.0
 42
-0.0111573747896638
  0
VERTEX
  5
E09
  8
3
 10
140.10000000000119
 20
66.629967695417477
 30
0.0
  0
SEQEND
  5
E0A
  8
3
  0
POLYLINE
  5
C71
  8
3
 66
     1
 10
0.0
 20
0.0
 30
0.0
 70
     1
1001
ACAD
1000
ASC_BOUNDS
1002
{
1070
    19
1005
C6B
1002
}
  0
VERTEX
  5
E0B
  8
3
 10
140.6142857142874
 20
67.242857142856906
 30
0.0
  0
VERTEX
  5
E0C
  8
3
 10
140.6142857142874
 20
66.629967695417477
 30
0.0
 42
-0.1402251973297237
  0
VERTEX
  5
E0D
  8
3
 10
141.928512557239
 20
66.106875000000272
 30
0.0
 42
0.1517967807321737
  0
VERTEX
  5
E0E
  8
3
 10
142.44133995699369
 20
67.242857142856906
 30
0.0
  0
SEQEND
  5
E0F
  8
3
  0
POLYLINE
  5
C72
  8
3
 66
     1
 10
0.0
 20
0.0
 30
0.0
 70
     1
1001
ACAD
1000
ASC_BOUNDS
1002
{
1070
    19
1005
C6B
1002
}
  0
VERTEX
  5
E10
  8
3
 10
142.44133995699369
 20
67.757142857143037
 30
0.0
 42
0.1517967807321736
  0
VERTEX
  5
E11
  8
3
 10
141.928512557239
 20
68.893124999999699
 30
0.0
 42
-0.1402251973297237
  0
VERTEX
  5
E12
  8
3
 10
140.6142857142874
 20
68.370032304582423
 30
0.0
  0
VERTEX
  5
E13
  8
3
 10
140.6142857142874
 20
67.757142857143037
 30
0.0
  0
SEQEND
  5
E14
  8
3
  0
POLYLINE
  5
C73
  8
3
 66
     1
 10
0.0
 20
0.0
 30
0.0
 70
     1
1001
ACAD
1000
ASC_BOUNDS
1002
{
1070
    19
1005
C6B
1002
}
  0
VERTEX
  5
E15
  8
3
 10
146.6904761904776
 20
65.499999999999986
 30
0.0
  0
VERTEX
  5
E16
  8
3
 10
146.6904761904776
 20
67.874999999999986
 30
0.0
 42
-1.0
  0
VERTEX
  5
E17
  8
3
 10
147.4404761904776
 20
67.874999999999986
 30
0.0
  0
VERTEX
  5
E18
  8
3
 10
147.4404761904776
 20
65.499999999999986
 30
0.0
  0
VERTEX
  5
E19
  8
3
 10
148.6904761904776
 20
65.499999999999986
 30
0.0
  0
VERTEX
  5
E1A
  8
3
 10
148.6904761904776
 20
67.874999999999986
 30
0.0
 42
-1.0
  0
VERTEX
  5
E1B
  8
3
 10
149.4404761904776
 20
67.874999999999986
 30
0.0
  0
VERTEX
  5
E1C
  8
3
 10
149.4404761904776
 20
65.499999999999986
 30
0.0
  0
VERTEX
  5
E1D
  8
3
 10
150.6904761904776
 20
65.499999999999986
 30
0.0
  0
VERTEX
  5
E1E
  8
3
 10
150.6904761904776
 20
67.874999999999986
 30
0.0
 42
0.6247472440541069
  0
VERTEX
  5
E1F
  8
3
 10
148.0654761904776
 20
69.155868845744919
 30
0.0
 42
0.6247472440541069
  0
VERTEX
  5
E20
  8
3
 10
145.4404761904776
 20
67.874999999999986
 30
0.0
  0
VERTEX
  5
E21
  8
3
 10
145.4404761904776
 20
65.499999999999986
 30
0.0
  0
SEQEND
  5
E22
  8
3
  0
POLYLINE
  5
C74
  8
3
 66
     1
 10
0.0
 20
0.0
 30
0.0
 70
     1
1001
ACAD
1000
ASC_BOUNDS
1002
{
1070
    19
1005
C6B
1002
}
  0
VERTEX
  5
E23
  8
3
 10
140.10000000000119
 20
66.155625671278372
 30
0.0
 42
0.0479752760773671
  0
VERTEX
  5
E24
  8
3
 10
139.70750444493251
 20
66.068418790077871
 30
0.0
 42
-0.0528997705207019
  0
VERTEX
  5
E25
  8
3
 10
139.3595604395623
 20
65.652074319640761
 30
0.0
 42
0.0933324906988985
  0
VERTEX
  5
E26
  8
3
 10
140.10000000000119
 20
65.415802900150666
 30
0.0
  0
SEQEND
  5
E27
  8
3
  0
POLYLINE
  5
C75
  8
3
 66
     1
 10
0.0
 20
0.0
 30
0.0
 70
     1
1001
ACAD
1000
ASC_BOUNDS
1002
{
1070
    19
1005
C6B
1002
}
  0
VERTEX
  5
E28
  8
3
 10
140.6142857142874
 20
66.155625671278372
 30
0.0
  0
VERTEX
  5
E29
  8
3
 10
140.6142857142874
 20
65.415802900150666
 30
0.0
 42
0.1238822414942567
  0
VERTEX
  5
E2A
  8
3
 10
141.57008328840911
 20
65.785714285714505
 30
0.0
 42
0.1238822414942571
  0
SEQEND
  5
E2B
  8
3
  0
POLYLINE
  5
C76
  8
3
 66
     1
 10
0.0
 20
0.0
 30
0.0
 70
     1
1001
ACAD
1000
ASC_BOUNDS
1002
{
1070
    19
1005
C6B
1002
}
  0
VERTEX
  5
E2C
  8
3
 10
144.9404761904776
 20
69.499999999999986
 30
0.0
  0
VERTEX
  5
E2D
  8
3
 10
143.6904761904776
 20
69.499999999999986
 30
0.0
  0
VERTEX
  5
E2E
  8
3
 10
143.6904761904776
 20
65.499999999999986
 30
0.0
  0
VERTEX
  5
E2F
  8
3
 10
144.9404761904776
 20
65.499999999999986
 30
0.0
  0
SEQEND
  5
E30
  8
3
  0
POLYLINE
  5
C77
  8
3
 66
     1
 10
0.0
 20
0.0
 30
0.0
 70
     1
1001
ACAD
1000
ASC_BOUNDS
1002
{
1070
    19
1005
C6B
1002
}
  0
VERTEX
  5
E31
  8
3
 10
152.4404761904776
 20
66.374999999999943
 30
0.0
  0
VERTEX
  5
E32
  8
3
 10
153.1904761904776
 20
66.374999999999986
 30
0.0
  0
VERTEX
  5
E33
  8
3
 10
153.1904761904776
 20
65.499999999999986
 30
0.0
  0
VERTEX
  5
E34
  8
3
 10
154.4404761904776
 20
65.499999999999986
 30
0.0
  0
VERTEX
  5
E35
  8
3
 10
154.4404761904776
 20
67.874999999999986
 30
0.0
 42
1.000000215936474
  0
VERTEX
  5
E36
  8
3
 10
151.1904761904776
 20
67.874999999999986
 30
0.0
  0
VERTEX
  5
E37
  8
3
 10
151.1904761904776
 20
65.499999999999986
 30
0.0
  0
VERTEX
  5
E38
  8
3
 10
152.4404761904776
 20
65.499999999999943
 30
0.0
  0
SEQEND
  5
E39
  8
3
  0
POLYLINE
  5
C78
  8
3
 66
     1
 10
0.0
 20
0.0
 30
0.0
 70
     1
1001
ACAD
1000
ASC_BOUNDS
1002
{
1070
    19
1005
C6B
1002
}
  0
VERTEX
  5
E3A
  8
3
 10
153.1904761904776
 20
67.374999999999986
 30
0.0
  0
VERTEX
  5
E3B
  8
3
 10
153.1904761904776
 20
67.874999999999986
 30
0.0
 42
1.0000004495664849
  0
VERTEX
  5
E3C
  8
3
 10
152.4404761904776
 20
67.874999999999986
 30
0.0
  0
VERTEX
  5
E3D
  8
3
 10
152.4404761904776
 20
67.374999999999986
 30
0.0
  0
SEQEND
  5
E3E
  8
3
  0
POLYLINE
  5
C79
  8
3
 66
     1
 10
0.0
 20
0.0
 30
0.0
 70
     1
1001
ACAD
1000
ASC_BOUNDS
1002
{
1070
    19
1005
C6B
1002
}
  0
VERTEX
  5
E3F
  8
3
 10
138.7857731570495
 20
68.893124999999657
 30
0.0
 42
0.1402251973297244
  0
VERTEX
  5
E40
  8
3
 10
140.10000000000119
 20
68.370032304582423
 30
0.0
  0
VERTEX
  5
E41
  8
3
 10
140.10000000000119
 20
67.757142857143037
 30
0.0
  0
VERTEX
  5
E42
  8
3
 10
139.6714285714304
 20
67.757142857143037
 30
0.0
  0
VERTEX
  5
E43
  8
3
 10
139.6714285714304
 20
67.499999999999986
 30
0.0
 42
-0.378699158263169
  0
VERTEX
  5
E44
  8
3
 10
137.8285714285737
 20
65.415802900150666
 30
0.0
  0
VERTEX
  5
E45
  8
3
 10
137.8285714285737
 20
64.941460876011533
 30
0.0
 42
0.1186144156091118
  0
VERTEX
  5
E46
  8
3
 10
138.96428571428751
 20
65.338474178374952
 30
0.0
 42
1.834021909257185
  0
VERTEX
  5
E47
  8
3
 10
138.96428571428751
 20
69.661525821625006
 30
0.0
 42
1.26915442618927
  0
VERTEX
  5
E48
  8
3
 10
137.31428571428751
 20
64.941460876011533
 30
0.0
  0
VERTEX
  5
E49
  8
3
 10
137.31428571428751
 20
65.415802900150666
 30
0.0
 42
-0.3786991582631508
  0
VERTEX
  5
E4A
  8
3
 10
135.47142857143081
 20
67.499999999999829
 30
0.0
  0
VERTEX
  5
E4B
  8
3
 10
135.47142857143081
 20
67.757142857143037
 30
0.0
  0
VERTEX
  5
E4C
  8
3
 10
135.94285714285911
 20
67.757142857143037
 30
0.0
  0
VERTEX
  5
E4D
  8
3
 10
135.94285714285911
 20
67.500000000000099
 30
0.0
 42
0.3684995607863874
  0
VERTEX
  5
E4E
  8
3
 10
137.31428571428751
 20
65.891857453774819
 30
0.0
  0
VERTEX
  5
E4F
  8
3
 10
137.31428571428751
 20
66.371790293049585
 30
0.0
 42
-0.3500011104183812
  0
VERTEX
  5
E50
  8
3
 10
136.41428571428821
 20
67.499999999999986
 30
0.0
  0
VERTEX
  5
E51
  8
3
 10
136.41428571428821
 20
67.757142857143037
 30
0.0
  0
VERTEX
  5
E52
  8
3
 10
136.8857142857166
 20
67.757142857143037
 30
0.0
  0
VERTEX
  5
E53
  8
3
 10
136.8857142857166
 20
67.499999999999943
 30
0.0
 42
0.9999989916437579
  0
VERTEX
  5
E54
  8
3
 10
138.25714285714429
 20
67.499999522887933
 30
0.0
 42
-0.1833501526628178
  0
SEQEND
  5
E55
  8
3
  0
POLYLINE
  5
C7A
  8
3
 66
     1
 10
0.0
 20
0.0
 30
0.0
 70
     1
1001
ACAD
1000
ASC_BOUNDS
1002
{
1070
    19
1005
C6B
1002
}
  0
VERTEX
  5
E56
  8
3
 10
139.20000000000221
 20
67.499999999999986
 30
0.0
  0
VERTEX
  5
E57
  8
3
 10
139.20000000000221
 20
67.757142857143037
 30
0.0
  0
VERTEX
  5
E58
  8
3
 10
138.72857142857291
 20
67.757142857143037
 30
0.0
  0
VERTEX
  5
E59
  8
3
 10
138.72857142857291
 20
67.499999999999986
 30
0.0
 42
-0.3500011104183828
  0
VERTEX
  5
E5A
  8
3
 10
137.8285714285737
 20
66.371790293049585
 30
0.0
  0
VERTEX
  5
E5B
  8
3
 10
137.8285714285737
 20
65.891857453774819
 30
0.0
 42
0.3684995607863695
  0
SEQEND
  5
E5C
  8
3
  0
LINE
  5
D56
  8
2
 10
131.5
 20
68.5
 30
0.0
 11
131.5
 21
76.0
 31
0.0
  0
LINE
  5
D57
  8
2
 10
162.00036395646089
 20
68.5
 30
0.0
 11
162.00036395646089
 21
76.0
 31
0.0
  0
LINE
  5
D58
  8
2
 10
159.2500000000019
 20
68.5
 30
0.0
 11
159.2500000000019
 21
60.0
 31
0.0
  0
LINE
  5
D59
  8
2
 10
134.24999999999801
 20
68.5
 30
0.0
 11
134.24999999999801
 21
60.0
 31
0.0
  0
LINE
  5
D5A
  8
2
 10
162.00036395646089
 20
68.5
 30
0.0
 11
131.5
 21
68.5
 31
0.0
  0
LINE
  5
D5B
  8
2
 10
144.69999999999999
 20
71.5
 30
0.0
 11
132.30000000000001
 21
71.5
 31
0.0
  0
LINE
  5
D5C
  8
2
 10
132.0
 20
71.200000000000003
 30
0.0
 11
132.0
 21
68.799999999999983
 31
0.0
  0
LINE
  5
D5D
  8
2
 10
132.30000000000001
 20
71.5
 30
0.0
 11
132.0
 21
71.200000000000003
 31
0.0
  0
LINE
  5
D5E
  8
2
 10
145.0
 20
71.200000000000003
 30
0.0
 11
145.0
 21
68.800000000000011
 31
0.0
  0
LINE
  5
D5F
  8
2
 10
144.69999999999999
 20
71.5
 30
0.0
 11
145.0
 21
71.200000000000003
 31
0.0
  0
LINE
  5
D60
  8
2
 10
132.30000000000001
 20
68.5
 30
0.0
 11
132.0
 21
68.799999999999983
 31
0.0
  0
LINE
  5
D61
  8
2
 10
144.69999999999999
 20
68.5
 30
0.0
 11
145.0
 21
68.799999999999983
 31
0.0
  0
ENDSEC
  0
EOF
