  0
SECTION
  2
HEADER
  9
$ACADVER
  1
AC1009
  9
$INSBASE
 10
0.0
 20
0.0
 30
0.0
  9
$EXTMIN
 10
0.0
 20
-2.960436562073669
 30
0.0
  9
$EXTMAX
 10
304.99997612097491
 20
174.0
 30
0.0
  9
$LIMMIN
 10
0.0
 20
0.0
  9
$LIMMAX
 10
375.0
 20
270.0
  9
$ORTHOMODE
 70
     1
  9
$REGENMODE
 70
     1
  9
$FILLMODE
 70
     1
  9
$QTEXTMODE
 70
     0
  9
$MIRRTEXT
 70
     0
  9
$DRAGMODE
 70
     2
  9
$LTSCALE
 40
10.0
  9
$OSMODE
 70
    37
  9
$ATTMODE
 70
     1
  9
$TEXTSIZE
 40
4.000000000000048
  9
$TRACEWID
 40
0.05
  9
$TEXTSTYLE
  7
STANDARD
  9
$CLAYER
  8
4
  9
$CELTYPE
  6
BYLAYER
  9
$CECOLOR
 62
   256
  9
$DIMSCALE
 40
1.0
  9
$DIMASZ
 40
3.0
  9
$DIMEXO
 40
2.0
  9
$DIMDLI
 40
0.38
  9
$DIMRND
 40
0.0
  9
$DIMDLE
 40
0.0
  9
$DIMEXE
 40
2.0
  9
$DIMTP
 40
0.0
  9
$DIMTM
 40
0.0
  9
$DIMTXT
 40
3.2000000000000002
  9
$DIMCEN
 40
0.0
  9
$DIMTSZ
 40
0.0
  9
$DIMTOL
 70
     0
  9
$DIMLIM
 70
     0
  9
$DIMTIH
 70
     0
  9
$DIMTOH
 70
     0
  9
$DIMSE1
 70
     0
  9
$DIMSE2
 70
     0
  9
$DIMTAD
 70
     1
  9
$DIMZIN
 70
     0
  9
$DIMBLK
  1

  9
$DIMASO
 70
     0
  9
$DIMSHO
 70
     0
  9
$DIMPOST
  1

  9
$DIMAPOST
  1

  9
$DIMALT
 70
     0
  9
$DIMALTD
 70
     2
  9
$DIMALTF
 40
25.399999999999999
  9
$DIMLFAC
 40
1.0
  9
$DIMTOFL
 70
     0
  9
$DIMTVP
 40
1.6000000000000001
  9
$DIMTIX
 70
     1
  9
$DIMSOXD
 70
     0
  9
$DIMSAH
 70
     0
  9
$DIMBLK1
  1

  9
$DIMBLK2
  1

  9
$DIMSTYLE
  2
STANDARD
  9
$DIMCLRD
 70
     4
  9
$DIMCLRE
 70
     4
  9
$DIMCLRT
 70
     4
  9
$DIMTFAC
 40
1.0
  9
$DIMGAP
 40
0.09
  9
$LUNITS
 70
     2
  9
$LUPREC
 70
     1
  9
$SKETCHINC
 40
0.1
  9
$FILLETRAD
 40
0.0
  9
$AUNITS
 70
     0
  9
$AUPREC
 70
     0
  9
$MENU
  1
E:\r13\win\SUPPORT\ACAD
  9
$ELEVATION
 40
0.0
  9
$PELEVATION
 40
0.0
  9
$THICKNESS
 40
0.0
  9
$LIMCHECK
 70
     0
  9
$BLIPMODE
 70
     0
  9
$CHAMFERA
 40
1.1999999999999991
  9
$CHAMFERB
 40
1.1999999999999991
  9
$SKPOLY
 70
     0
  9
$TDCREATE
 40
2450136.5929052089
  9
$TDUPDATE
 40
2456969.403502373
  9
$TDINDWG
 40
0.0092326852
  9
$TDUSRTIMER
 40
0.0092326852
  9
$USRTIMER
 70
     1
  9
$ANGBASE
 50
0.0
  9
$ANGDIR
 70
     0
  9
$PDMODE
 70
     0
  9
$PDSIZE
 40
0.0
  9
$PLINEWID
 40
0.0
  9
$COORDS
 70
     1
  9
$SPLFRAME
 70
     0
  9
$SPLINETYPE
 70
     6
  9
$SPLINESEGS
 70
     8
  9
$ATTDIA
 70
     0
  9
$ATTREQ
 70
     1
  9
$HANDLING
 70
     1
  9
$HANDSEED
  5
B9F
  9
$SURFTAB1
 70
     6
  9
$SURFTAB2
 70
     6
  9
$SURFTYPE
 70
     6
  9
$SURFU
 70
     6
  9
$SURFV
 70
     6
  9
$UCSNAME
  2

  9
$UCSORG
 10
0.0
 20
0.0
 30
0.0
  9
$UCSXDIR
 10
1.0
 20
0.0
 30
0.0
  9
$UCSYDIR
 10
0.0
 20
1.0
 30
0.0
  9
$PUCSNAME
  2

  9
$PUCSORG
 10
0.0
 20
0.0
 30
0.0
  9
$PUCSXDIR
 10
1.0
 20
0.0
 30
0.0
  9
$PUCSYDIR
 10
0.0
 20
1.0
 30
0.0
  9
$USERI1
 70
     0
  9
$USERI2
 70
     1
  9
$USERI3
 70
     0
  9
$USERI4
 70
     0
  9
$USERI5
 70
     0
  9
$USERR1
 40
0.0
  9
$USERR2
 40
0.0
  9
$USERR3
 40
0.0
  9
$USERR4
 40
0.0
  9
$USERR5
 40
0.0
  9
$WORLDVIEW
 70
     1
  9
$SHADEDGE
 70
     3
  9
$SHADEDIF
 70
    70
  9
$TILEMODE
 70
     1
  9
$MAXACTVP
 70
    16
  9
$PLIMCHECK
 70
     0
  9
$PEXTMIN
 10
1.0000000000000000E+020
 20
1.0000000000000000E+020
 30
1.0000000000000000E+020
  9
$PEXTMAX
 10
-1.0000000000000000E+020
 20
-1.0000000000000000E+020
 30
-1.0000000000000000E+020
  9
$PLIMMIN
 10
0.0
 20
0.0
  9
$PLIMMAX
 10
12.0
 20
9.0
  9
$UNITMODE
 70
     0
  9
$VISRETAIN
 70
     0
  9
$PLINEGEN
 70
     0
  9
$PSLTSCALE
 70
     0
  0
ENDSEC
  0
SECTION
  2
TABLES
  0
TABLE
  2
VPORT
 70
     1
  0
VPORT
  2
*ACTIVE
 70
     0
 10
0.0
 20
0.0
 11
1.0
 21
1.0
 12
235.63977746870651
 22
135.0
 13
0.0
 23
0.0
 14
10.0
 24
10.0
 15
10.0
 25
10.0
 16
0.0
 26
0.0
 36
1.0
 17
0.0
 27
0.0
 37
0.0
 40
270.0
 41
1.7454798331015291
 42
50.0
 43
0.0
 44
0.0
 50
0.0
 51
0.0
 71
     0
 72
   500
 73
     1
 74
     0
 75
     0
 76
     0
 77
     0
 78
     2
  0
ENDTAB
  0
TABLE
  2
LTYPE
 70
     4
  0
LTYPE
  2
CONTINUOUS
 70
     0
  3
Solid Line
 72
    65
 73
     0
 40
0.0
  0
LTYPE
  2
CENTER
 70
     0
  3
____ _ ____ _ ____ _ ____ _ ____ _ ____ _ ____
 72
    65
 73
     4
 40
2.0
 49
1.25
 49
-0.25
 49
0.25
 49
-0.25
  0
LTYPE
  2
PHANTOM2
 70
     0
  3
___ _ _ ___ _ _ ___ _ _ ___ _ _
 72
    65
 73
     6
 40
1.25
 49
0.625
 49
-0.125
 49
0.125
 49
-0.125
 49
0.125
 49
-0.125
  0
LTYPE
  2
HIDDEN
 70
     0
  3
_ _ _ _ _ _ _ _ _ _ _ _ _ _ _ _ _ _ _ _ _ _ _
 72
    65
 73
     2
 40
0.375
 49
0.25
 49
-0.125
  0
ENDTAB
  0
TABLE
  2
LAYER
 70
     6
  0
LAYER
  2
0
 70
     0
 62
     7
  6
CONTINUOUS
  0
LAYER
  2
1
 70
     0
 62
     1
  6
CENTER
  0
LAYER
  2
4
 70
     0
 62
     4
  6
CONTINUOUS
  0
LAYER
  2
DEFPOINTS
 70
     0
 62
     7
  6
CONTINUOUS
  0
LAYER
  2
3
 70
     0
 62
     3
  6
CONTINUOUS
  0
LAYER
  2
2
 70
     0
 62
     2
  6
HIDDEN
  0
ENDTAB
  0
TABLE
  2
STYLE
 70
     2
  0
STYLE
  2
STANDARD
 70
     0
 40
0.0
 41
1.0
 50
0.0
 71
     0
 42
4.000000000000048
  3
SIMPLEX
  4
BIGFONT
  0
STYLE
  2
STANDARD1
 70
     0
 40
0.0
 41
1.0
 50
0.0
 71
     0
 42
3.0
  3
txt
  4

  0
ENDTAB
  0
TABLE
  2
VIEW
 70
     1
  0
VIEW
  2
ALL
 70
     0
 40
270.33333333333331
 10
220.8717648550103
 20
134.83333333333329
 41
441.74352971002048
 11
0.0
 21
0.0
 31
1.0
 12
0.0
 22
0.0
 32
0.0
 42
50.0
 43
0.0
 44
0.0
 50
0.0
 71
     0
  0
ENDTAB
  0
TABLE
  2
UCS
 70
     0
  0
ENDTAB
  0
TABLE
  2
APPID
 70
    40
  0
APPID
  2
ACAD
 70
     0
  0
APPID
  2
ACAD_MLEADERVER
 70
     0
  0
APPID
  2
GENIUS_GENODEF_13
 70
     0
  0
APPID
  2
GENIUS_GENOBJ-N-FIL_13
 70
     0
  0
APPID
  2
ASM_BASE
 70
     0
  0
APPID
  2
ASM_EXPLO_VER_2_00
 70
     0
  0
APPID
  2
ASM_CADM_VER_12_00
 70
     0
  0
APPID
  2
ASM_BASEFORO
 70
     0
  0
APPID
  2
ASM_BASETRAVI
 70
     0
  0
APPID
  2
ASM_BASETRAVI1
 70
     0
  0
APPID
  2
ASM_GRUPPI
 70
     0
  0
APPID
  2
ASM_CADM_ALBERO
 70
     0
  0
APPID
  2
ASM_GOLE
 70
     0
  0
APPID
  2
_CALL_MAC$
 70
     0
  0
APPID
  2
CONTENTBLOCKICON
 70
     0
  0
APPID
  2
ACAD_NAV_VCDISPLAY
 70
     0
  0
APPID
  2
DCO15
 70
     0
  0
APPID
  2
GENIUS_GENOREF_13
 70
     0
  0
APPID
  2
GENIUS_GENOENT_13
 70
     0
  0
APPID
  2
GENIUS_GENBH_13
 70
     0
  0
APPID
  2
GENIUS_GENOBJ_13
 70
     0
  0
APPID
  2
GENIUS_GENOLIS_13
 70
     0
  0
APPID
  2
GENIUS_GENOBJ-NBEHI-BHF_13
 70
     0
  0
APPID
  2
GENIUS_GENOBJ-NBEHI-BHB_13
 70
     0
  0
APPID
  2
GENIUS_GENOBJ-F-PART_13
 70
     0
  0
APPID
  2
GENIUS_GEFSTDP_13
 70
     0
  0
APPID
  2
GENIUS_GENOBJ-N-RSSYM_13
 70
     0
  0
APPID
  2
GENIUS_GENSYMENT_13
 70
     0
  0
APPID
  2
GENIUS_GENOBJ-N-TIT_13
 70
     0
  0
APPID
  2
GENIUS_GENTITLE_13
 70
     0
  0
APPID
  2
GENIUS_GENZVEED_13
 70
     0
  0
APPID
  2
GENIUS_GENOBJ-N-LEADER_13
 70
     0
  0
APPID
  2
GENIUS_GENOBJ-N-SEC_13
 70
     0
  0
APPID
  2
GENIUS_GENOBJ-N-CRS_13
 70
     0
  0
APPID
  2
GENIUS_GENOBJ-N-ZOO_13
 70
     0
  0
APPID
  2
GENIUS_GENZOO_13
 70
     0
  0
APPID
  2
GENIUS_GENOBJ-F-TOL_13
 70
     0
  0
APPID
  2
GENIUS_GENFIL_13
 70
     0
  0
APPID
  2
GENIUS_GENOBJ-N-CHA_13
 70
     0
  0
APPID
  2
ACAD_EXEMPT_FROM_CAD_STANDARDS
 70
     0
  0
ENDTAB
  0
TABLE
  2
DIMSTYLE
 70
     1
  0
DIMSTYLE
  2
STANDARD
 70
     0
  3

  4

  5

  6

  7

 40
1.0
 41
0.18
 42
0.0625
 43
0.38
 44
0.18
 45
0.0
 46
0.0
 47
0.0
 48
0.0
140
0.18
141
0.09
142
0.0
143
25.399999999999999
144
1.0
145
0.0
146
1.0
147
0.09
 71
     0
 72
     0
 73
     1
 74
     1
 75
     0
 76
     0
 77
     0
 78
     0
170
     0
171
     2
172
     0
173
     0
174
     0
175
     0
176
     0
177
     0
178
     0
  0
ENDTAB
  0
ENDSEC
  0
SECTION
  2
BLOCKS
  0
BLOCK
  8
0
  2
$MODEL_SPACE
 70
     0
 10
0.0
 20
0.0
 30
0.0
  3
$MODEL_SPACE
  1

  0
ENDBLK
  5
20C
  8
0
  0
BLOCK
 67
     1
  8
0
  2
$PAPER_SPACE
 70
     0
 10
0.0
 20
0.0
 30
0.0
  3
$PAPER_SPACE
  1

  0
ENDBLK
  5
20A
 67
     1
  8
0
  0
ENDSEC
  0
SECTION
  2
ENTITIES
  0
LINE
  5
E4
  8
0
 10
304.99997612097491
 20
61.999999999999943
 30
0.0
 11
269.99997612097491
 21
61.999999999999943
 31
0.0
  0
LINE
  5
E5
  8
0
 10
301.99997612097491
 20
81.999999999999929
 30
0.0
 11
272.99997612097491
 21
81.999999999999929
 31
0.0
  0
ARC
  5
E6
  8
0
 10
301.99997612097491
 20
78.999999999999943
 30
0.0
 40
3.0
 50
0.0
 51
90.0
  0
ARC
  5
E7
  8
0
 10
272.99997612097491
 20
78.999999999999943
 30
0.0
 40
3.0
 50
90.0
 51
180.0
  0
ARC
  5
E8
  8
0
 10
272.99997612097491
 20
85.999999999999943
 30
0.0
 40
3.0
 50
90.0
 51
180.0
  0
ARC
  5
E9
  8
0
 10
301.99997612097491
 20
85.999999999999943
 30
0.0
 40
3.0
 50
0.0
 51
90.0
  0
LINE
  5
EA
  8
1
 10
287.49997612097491
 20
93.999999999999943
 30
0.0
 11
287.49997612097491
 21
54.999999999999943
 31
0.0
  0
LINE
  5
EB
  8
0
 10
269.99997612097491
 20
61.999999999999943
 30
0.0
 11
271.15467712097501
 21
59.999999999999943
 31
0.0
  0
LINE
  5
EC
  8
0
 10
269.99997612097491
 20
85.999999999999943
 30
0.0
 11
269.99997612097491
 21
61.999999999999943
 31
0.0
  0
LINE
  5
ED
  8
0
 10
304.99997612097491
 20
85.999999999999943
 30
0.0
 11
304.99997612097491
 21
61.999999999999943
 31
0.0
  0
LINE
  5
EE
  8
0
 10
301.99997612097491
 20
88.999999999999943
 30
0.0
 11
272.99997612097491
 21
88.999999999999943
 31
0.0
  0
LINE
  5
EF
  8
0
 10
304.99997612097491
 20
61.999999999999943
 30
0.0
 11
303.84527512097492
 21
59.999999999999943
 31
0.0
  0
LINE
  5
F0
  8
0
 10
271.15467712097501
 20
59.999999999999943
 30
0.0
 11
303.84527512097492
 21
59.999999999999943
 31
0.0
  0
TEXT
  5
2C1
  8
0
 62
     3
 10
0.0
 20
0.0
 30
0.0
 40
10.0
  1
BJ202-12022
  7
STANDARD1
  0
LINE
  5
650
  8
0
 10
219.99997612097479
 20
167.99999999999989
 30
0.0
 11
219.99997612097479
 21
145.0
 31
0.0
  0
LINE
  5
651
  8
0
 10
213.99997612097479
 20
138.99999999999989
 30
0.0
 11
146.99997612097491
 21
138.99999999999989
 31
0.0
  0
LINE
  5
652
  8
1
 10
206.49997612097491
 20
168.99999999999989
 30
0.0
 11
206.49997612097491
 21
143.99999999999989
 31
0.0
  0
ARC
  5
653
  8
0
 10
206.49997612097479
 20
156.49999999999989
 30
0.0
 40
10.0
 50
270.0
 51
90.0
  0
ARC
  5
654
  8
0
 10
179.99997612097479
 20
156.49999999999989
 30
0.0
 40
10.0
 50
90.0
 51
270.0
  0
LINE
  5
655
  8
1
 10
179.99997612097491
 20
168.99999999999989
 30
0.0
 11
179.99997612097491
 21
143.99999999999989
 31
0.0
  0
ARC
  5
656
  8
0
 10
213.99997612097479
 20
167.99999999999989
 30
0.0
 40
6.0
 50
0.0
 51
90.0
  0
ARC
  5
657
  8
0
 10
213.99997612097479
 20
145.0
 30
0.0
 40
6.0
 50
270.0
 51
0.0
  0
LINE
  5
658
  8
0
 10
219.99997612097479
 20
62.0
 30
0.0
 11
219.99997612097479
 21
79.0
 31
0.0
  0
LINE
  5
659
  8
0
 10
216.99997612097479
 20
82.0
 30
0.0
 11
164.99997612097479
 21
81.999999999999929
 31
0.0
  0
ARC
  5
65A
  8
0
 10
216.99997612097479
 20
79.0
 30
0.0
 40
3.0
 50
0.0
 51
90.0
  0
LINE
  5
65B
  8
0
 10
95.0
 20
62.0
 30
0.0
 11
60.0
 21
62.0
 31
0.0
  0
LINE
  5
65C
  8
0
 10
61.154700538379188
 20
60.0
 30
0.0
 11
93.845299461620698
 21
60.0
 31
0.0
  0
LINE
  5
65D
  8
0
 10
95.0
 20
62.0
 30
0.0
 11
93.845299461620698
 21
60.0
 31
0.0
  0
LINE
  5
65E
  8
0
 10
95.0
 20
85.999999999999943
 30
0.0
 11
95.0
 21
62.0
 31
0.0
  0
LINE
  5
65F
  8
0
 10
60.0
 20
85.999999999999943
 30
0.0
 11
60.0
 21
62.0
 31
0.0
  0
LINE
  5
660
  8
0
 10
60.0
 20
62.0
 30
0.0
 11
61.154700538379188
 21
60.0
 31
0.0
  0
LINE
  5
661
  8
1
 10
77.5
 20
92.0
 30
0.0
 11
77.5
 21
54.999999999999943
 31
0.0
  0
LINE
  5
662
  8
0
 10
211.07677104021781
 20
59.999999999999943
 30
0.0
 11
213.92318120173161
 21
59.999999999999943
 31
0.0
  0
LINE
  5
675
  8
0
 10
216.07677104021789
 20
59.999999999999943
 30
0.0
 11
215.34638628248851
 21
61.265063509461008
 31
0.0
  0
LINE
  5
676
  8
0
 10
213.92318120173161
 20
59.999999999999943
 30
0.0
 11
214.65356595946091
 21
61.265063509461008
 31
0.0
  0
ARC
  5
677
  8
0
 10
214.99997612097471
 20
61.065063509461019
 30
0.0
 40
0.4
 50
30.00000000000081
 51
149.9999999999992
  0
LINE
  5
678
  8
0
 10
206.07677104021789
 20
59.999999999999943
 30
0.0
 11
208.92318120173161
 21
59.999999999999943
 31
0.0
  0
LINE
  5
679
  8
0
 10
208.92318120173161
 20
59.999999999999943
 30
0.0
 11
209.65356595946091
 21
61.265063509461008
 31
0.0
  0
ARC
  5
67A
  8
0
 10
209.99997612097471
 20
61.065063509461019
 30
0.0
 40
0.4
 50
30.00000000000081
 51
149.9999999999992
  0
LINE
  5
67B
  8
0
 10
211.07677104021781
 20
59.999999999999943
 30
0.0
 11
210.34638628248851
 21
61.265063509461008
 31
0.0
  0
LINE
  5
67C
  8
0
 10
201.07677104021789
 20
59.999999999999943
 30
0.0
 11
203.92318120173161
 21
59.999999999999943
 31
0.0
  0
LINE
  5
67D
  8
0
 10
203.92318120173161
 20
59.999999999999943
 30
0.0
 11
204.65356595946099
 21
61.265063509461008
 31
0.0
  0
ARC
  5
67E
  8
0
 10
204.99997612097471
 20
61.065063509461019
 30
0.0
 40
0.4
 50
30.00000000000081
 51
149.9999999999992
  0
LINE
  5
67F
  8
0
 10
206.07677104021789
 20
59.999999999999943
 30
0.0
 11
205.3463862824886
 21
61.265063509461008
 31
0.0
  0
LINE
  5
680
  8
0
 10
196.07677104021781
 20
59.999999999999943
 30
0.0
 11
198.92318120173161
 21
59.999999999999943
 31
0.0
  0
LINE
  5
681
  8
0
 10
198.92318120173161
 20
59.999999999999943
 30
0.0
 11
199.65356595946091
 21
61.265063509461008
 31
0.0
  0
ARC
  5
682
  8
0
 10
199.99997612097471
 20
61.065063509461019
 30
0.0
 40
0.4
 50
30.00000000000081
 51
149.9999999999992
  0
LINE
  5
683
  8
0
 10
201.07677104021789
 20
59.999999999999943
 30
0.0
 11
200.34638628248851
 21
61.265063509461008
 31
0.0
  0
LINE
  5
684
  8
0
 10
191.07677104021781
 20
59.999999999999943
 30
0.0
 11
193.92318120173161
 21
59.999999999999943
 31
0.0
  0
LINE
  5
685
  8
0
 10
193.92318120173161
 20
59.999999999999943
 30
0.0
 11
194.65356595946091
 21
61.265063509461008
 31
0.0
  0
ARC
  5
686
  8
0
 10
194.99997612097471
 20
61.065063509461019
 30
0.0
 40
0.4
 50
30.00000000000081
 51
149.9999999999992
  0
LINE
  5
687
  8
0
 10
196.07677104021781
 20
59.999999999999943
 30
0.0
 11
195.34638628248851
 21
61.265063509461008
 31
0.0
  0
LINE
  5
688
  8
0
 10
186.07677104021781
 20
59.999999999999943
 30
0.0
 11
188.92318120173161
 21
59.999999999999943
 31
0.0
  0
LINE
  5
689
  8
0
 10
188.92318120173161
 20
59.999999999999943
 30
0.0
 11
189.65356595946091
 21
61.265063509461008
 31
0.0
  0
ARC
  5
68A
  8
0
 10
189.99997612097471
 20
61.065063509461019
 30
0.0
 40
0.4
 50
30.00000000000081
 51
149.9999999999992
  0
LINE
  5
68B
  8
0
 10
191.07677104021781
 20
59.999999999999943
 30
0.0
 11
190.34638628248851
 21
61.265063509461008
 31
0.0
  0
LINE
  5
68C
  8
0
 10
181.07677104021781
 20
59.999999999999943
 30
0.0
 11
183.92318120173161
 21
59.999999999999943
 31
0.0
  0
LINE
  5
68D
  8
0
 10
183.92318120173161
 20
59.999999999999943
 30
0.0
 11
184.65356595946091
 21
61.265063509461008
 31
0.0
  0
ARC
  5
68E
  8
0
 10
184.99997612097471
 20
61.065063509461019
 30
0.0
 40
0.4
 50
30.00000000000081
 51
149.9999999999992
  0
LINE
  5
68F
  8
0
 10
186.07677104021781
 20
59.999999999999943
 30
0.0
 11
185.34638628248851
 21
61.265063509461008
 31
0.0
  0
LINE
  5
690
  8
0
 10
176.07677104021781
 20
59.999999999999943
 30
0.0
 11
178.92318120173161
 21
59.999999999999943
 31
0.0
  0
LINE
  5
691
  8
0
 10
178.92318120173161
 20
59.999999999999943
 30
0.0
 11
179.65356595946091
 21
61.265063509461008
 31
0.0
  0
ARC
  5
692
  8
0
 10
179.99997612097471
 20
61.065063509461019
 30
0.0
 40
0.4
 50
30.00000000000081
 51
149.9999999999992
  0
LINE
  5
693
  8
0
 10
181.07677104021781
 20
59.999999999999943
 30
0.0
 11
180.34638628248851
 21
61.265063509461008
 31
0.0
  0
LINE
  5
694
  8
0
 10
171.07677104021781
 20
59.999999999999943
 30
0.0
 11
173.92318120173161
 21
59.999999999999943
 31
0.0
  0
LINE
  5
695
  8
0
 10
173.92318120173161
 20
59.999999999999943
 30
0.0
 11
174.65356595946091
 21
61.265063509461008
 31
0.0
  0
ARC
  5
696
  8
0
 10
174.99997612097471
 20
61.065063509461019
 30
0.0
 40
0.4
 50
30.00000000000081
 51
149.9999999999992
  0
LINE
  5
697
  8
0
 10
176.07677104021781
 20
59.999999999999943
 30
0.0
 11
175.34638628248851
 21
61.265063509461008
 31
0.0
  0
LINE
  5
698
  8
0
 10
166.07677104021781
 20
59.999999999999943
 30
0.0
 11
168.92318120173161
 21
59.999999999999943
 31
0.0
  0
LINE
  5
699
  8
0
 10
168.92318120173161
 20
59.999999999999943
 30
0.0
 11
169.65356595946091
 21
61.265063509461008
 31
0.0
  0
ARC
  5
69A
  8
0
 10
169.99997612097471
 20
61.065063509461019
 30
0.0
 40
0.4
 50
30.00000000000081
 51
149.9999999999992
  0
LINE
  5
69B
  8
0
 10
171.07677104021781
 20
59.999999999999943
 30
0.0
 11
170.34638628248851
 21
61.265063509461008
 31
0.0
  0
LINE
  5
69C
  8
0
 10
161.07677104021781
 20
59.999999999999943
 30
0.0
 11
163.92318120173161
 21
59.999999999999943
 31
0.0
  0
LINE
  5
69D
  8
0
 10
163.92318120173161
 20
59.999999999999943
 30
0.0
 11
164.65356595946091
 21
61.265063509461008
 31
0.0
  0
ARC
  5
69E
  8
0
 10
164.99997612097471
 20
61.065063509461019
 30
0.0
 40
0.4
 50
30.00000000000081
 51
149.9999999999992
  0
LINE
  5
69F
  8
0
 10
166.07677104021781
 20
59.999999999999943
 30
0.0
 11
165.34638628248851
 21
61.265063509461008
 31
0.0
  0
LINE
  5
6A0
  8
0
 10
158.92318120173161
 20
59.999999999999943
 30
0.0
 11
159.65356595946091
 21
61.265063509461008
 31
0.0
  0
ARC
  5
6A1
  8
0
 10
159.99997612097471
 20
61.065063509461019
 30
0.0
 40
0.4
 50
30.00000000000081
 51
149.9999999999992
  0
LINE
  5
6A2
  8
0
 10
161.07677104021781
 20
59.999999999999943
 30
0.0
 11
160.34638628248851
 21
61.265063509461008
 31
0.0
  0
LINE
  5
6A3
  8
0
 10
179.99997612097479
 20
146.49999999999989
 30
0.0
 11
206.49997612097479
 21
146.49999999999989
 31
0.0
  0
LINE
  5
6A4
  8
0
 10
179.99997612097479
 20
166.5
 30
0.0
 11
206.49997612097479
 21
166.5
 31
0.0
  0
LINE
  5
6AA
  8
0
 10
156.99997612097471
 20
59.999999999999943
 30
0.0
 11
154.99997612097471
 21
62.0
 31
0.0
  0
LINE
  5
6AB
  8
0
 10
154.99997612097471
 20
61.999999999999972
 30
0.0
 11
154.99997612097471
 21
69.499999999999943
 31
0.0
  0
LINE
  5
6AC
  8
0
 10
155.49997612097471
 20
69.999999999999943
 30
0.0
 11
166.49997612097479
 21
69.999999999999943
 31
0.0
  0
LINE
  5
6AD
  8
0
 10
147.50487484113151
 20
62.0
 30
0.0
 11
219.99997612097479
 21
62.0
 31
0.0
  0
ARC
  5
6AE
  8
0
 10
204.99997612097479
 20
71.000000000000028
 30
0.0
 40
6.9999999999999707
 50
270.0
 51
90.0
  0
ARC
  5
6AF
  8
0
 10
204.99997612097479
 20
71.000000000000028
 30
0.0
 40
4.9999999999999707
 50
270.0
 51
90.0
  0
ARC
  5
6B0
  8
0
 10
179.99997612097479
 20
71.000000000000028
 30
0.0
 40
4.9999999999999707
 50
90.0
 51
270.0
  0
ARC
  5
6B1
  8
0
 10
179.99997612097479
 20
71.000000000000028
 30
0.0
 40
6.9999999999999707
 50
90.0
 51
270.0
  0
LINE
  5
6B2
  8
0
 10
179.99997881837299
 20
66.0
 30
0.0
 11
204.99997612097471
 21
66.0
 31
0.0
  0
LINE
  5
6B3
  8
0
 10
179.99997342357639
 20
64.0
 30
0.0
 11
204.99997612097479
 21
64.0
 31
0.0
  0
LINE
  5
6B4
  8
0
 10
179.99997342357639
 20
75.999999999999744
 30
0.0
 11
204.99997612097479
 21
76.0
 31
0.0
  0
LINE
  5
6B5
  8
0
 10
179.99997993567189
 20
77.999999999999744
 30
0.0
 11
204.99997612097479
 21
78.0
 31
0.0
  0
LINE
  5
6B6
  8
0
 10
167.99997612097479
 20
82.0
 30
0.0
 11
167.49997612097479
 21
81.5
 31
0.0
  0
LINE
  5
6B7
  8
0
 10
168.9141896833523
 20
70.000000000004434
 30
0.0
 11
167.4999761209792
 21
68.585786437631327
 31
0.0
  0
LINE
  5
6B8
  8
0
 10
167.4999761209792
 20
71.41421356237754
 30
0.0
 11
168.9141896833523
 21
70.000000000004434
 31
0.0
  0
LINE
  5
6B9
  8
0
 10
167.4999761209792
 20
68.585786437631327
 30
0.0
 11
166.08576255860609
 21
70.000000000004434
 31
0.0
  0
LINE
  5
6BA
  8
0
 10
167.49997612097479
 20
70.999999999999943
 30
0.0
 11
167.49997612097479
 21
81.5
 31
0.0
  0
LINE
  5
6BB
  8
0
 10
155.49997612097471
 20
69.999999999999943
 30
0.0
 11
154.99997612097471
 21
69.499999999999943
 31
0.0
  0
LINE
  5
6BD
  8
1
 10
206.49997612097491
 20
84.499999999999929
 30
0.0
 11
206.49997612097491
 21
57.499999999999943
 31
0.0
  0
LINE
  5
6BE
  8
1
 10
179.99997612097479
 20
84.499999999999929
 30
0.0
 11
179.99997612097479
 21
57.499999999999943
 31
0.0
  0
LINE
  5
6C0
  8
1
 10
139.99997612097479
 20
156.49999999999989
 30
0.0
 11
224.99997612097479
 21
156.49999999999989
 31
0.0
  0
LINE
  5
6C1
  8
0
 10
216.07677104021789
 20
59.999999999999943
 30
0.0
 11
217.99997612097471
 21
59.999999999999943
 31
0.0
  0
LINE
  5
6C2
  8
0
 10
217.99997612097471
 20
59.999999999999943
 30
0.0
 11
219.99997612097479
 21
62.0
 31
0.0
  0
LINE
  5
6C3
  8
0
 10
156.99997612097479
 20
59.999999999999943
 30
0.0
 11
158.92318120173161
 21
59.999999999999943
 31
0.0
  0
LINE
  5
6C4
  8
1
 10
159.99997612097471
 20
84.499999999999929
 30
0.0
 11
159.99997612097471
 21
57.499999999999943
 31
0.0
  0
LINE
  5
6C5
  8
0
 10
95.0
 20
63.0
 30
0.0
 11
94.0
 21
62.0
 31
0.0
  0
LINE
  5
6C6
  8
0
 10
61.0
 20
62.0
 30
0.0
 11
60.0
 21
63.0
 31
0.0
  0
LINE
  5
6C7
  8
1
 10
77.5
 20
93.999999999999943
 30
0.0
 11
77.5
 21
54.999999999999943
 31
0.0
  0
CIRCLE
  5
6FA
  8
0
 10
159.99997612097479
 20
166.5
 30
0.0
 40
4.0
  0
LINE
  5
6FB
  8
0
 10
159.99997612097479
 20
168.80940107675841
 30
0.0
 11
157.99997612097479
 21
167.65470053837919
 31
0.0
  0
LINE
  5
6FC
  8
0
 10
157.99997612097479
 20
167.65470053837919
 30
0.0
 11
157.99997612097479
 21
165.3452994616207
 31
0.0
  0
LINE
  5
6FD
  8
0
 10
157.99997612097491
 20
165.3452994616207
 30
0.0
 11
159.99997612097491
 21
164.19059892324151
 31
0.0
  0
LINE
  5
6FE
  8
0
 10
159.99997612097479
 20
164.19059892324151
 30
0.0
 11
161.99997612097479
 21
165.3452994616207
 31
0.0
  0
LINE
  5
6FF
  8
0
 10
161.99997612097491
 20
165.3452994616207
 30
0.0
 11
161.99997612097479
 21
167.6547005383793
 31
0.0
  0
LINE
  5
700
  8
0
 10
161.99997612097459
 20
167.6547005383793
 30
0.0
 11
159.99997612097471
 21
168.80940107675849
 31
0.0
  0
LINE
  5
701
  8
0
 10
159.99997612097479
 20
148.80940107675849
 30
0.0
 11
157.99997612097479
 21
147.65470053837919
 31
0.0
  0
LINE
  5
702
  8
0
 10
157.99997612097479
 20
147.65470053837919
 30
0.0
 11
157.99997612097479
 21
145.3452994616207
 31
0.0
  0
LINE
  5
703
  8
0
 10
157.99997612097491
 20
145.3452994616207
 30
0.0
 11
159.99997612097491
 21
144.19059892324151
 31
0.0
  0
LINE
  5
704
  8
0
 10
159.99997612097479
 20
144.19059892324151
 30
0.0
 11
161.99997612097479
 21
145.3452994616207
 31
0.0
  0
LINE
  5
705
  8
0
 10
161.99997612097491
 20
145.34529946162081
 30
0.0
 11
161.99997612097479
 21
147.6547005383793
 31
0.0
  0
LINE
  5
706
  8
0
 10
161.99997612097459
 20
147.6547005383793
 30
0.0
 11
159.99997612097471
 21
148.80940107675849
 31
0.0
  0
CIRCLE
  5
707
  8
0
 10
159.99997612097479
 20
146.5
 30
0.0
 40
4.0
  0
LINE
  5
71A
  8
1
 10
159.99997612097479
 20
173.75
 30
0.0
 11
159.99997612097479
 21
159.25
 31
0.0
  0
LINE
  5
71B
  8
1
 10
152.74997612097479
 20
166.5
 30
0.0
 11
167.24997612097479
 21
166.5
 31
0.0
  0
CIRCLE
  5
71C
  8
0
 10
159.99997612097479
 20
166.5
 30
0.0
 40
4.75
  0
LINE
  5
71D
  8
1
 10
159.99997612097479
 20
139.25
 30
0.0
 11
159.99997612097479
 21
153.74999999999989
 31
0.0
  0
LINE
  5
71E
  8
1
 10
152.74997612097479
 20
146.49999999999989
 30
0.0
 11
167.24997612097479
 21
146.49999999999989
 31
0.0
  0
CIRCLE
  5
71F
  8
0
 10
159.99997612097479
 20
146.49999999999989
 30
0.0
 40
4.75
  0
LINE
  5
720
  8
0
 10
146.4838522419499
 20
154.98387612097511
 30
0.0
 11
146.4838522419499
 21
140.99999999999989
 31
0.0
  0
LINE
  5
721
  8
0
 10
146.4838522419499
 20
171.99999999999989
 30
0.0
 11
146.4838522419499
 21
158.01612387902489
 31
0.0
  0
LINE
  5
722
  8
0
 10
147.99997612097479
 20
156.49999999999989
 30
0.0
 11
144.99997612097479
 21
153.5000000000002
 31
0.0
  0
LINE
  5
723
  8
0
 10
144.99997612097479
 20
159.49999999999989
 30
0.0
 11
147.99997612097479
 21
156.49999999999989
 31
0.0
  0
LINE
  5
724
  8
0
 10
144.99997612097479
 20
153.49999999999989
 30
0.0
 11
144.99997612097479
 21
140.99999999999989
 31
0.0
  0
LINE
  5
725
  8
0
 10
148.4772644791164
 20
171.99999999999989
 30
0.0
 11
148.4772644791164
 21
140.99999999999989
 31
0.0
  0
ARC
  5
726
  8
0
 10
146.99997612097479
 20
140.99999999999989
 30
0.0
 40
2.0
 50
180.0
 51
270.0
  0
ARC
  5
727
  8
0
 10
146.99997612097479
 20
171.99999999999989
 30
0.0
 40
2.0
 50
90.0
 51
180.0
  0
LINE
  5
728
  8
0
 10
144.99997612097479
 20
171.99999999999989
 30
0.0
 11
144.99997612097479
 21
159.49999999999989
 31
0.0
  0
LINE
  5
729
  8
0
 10
167.49997612097479
 20
138.99999999999989
 30
0.0
 11
167.49997612097491
 21
174.0
 31
0.0
  0
LINE
  5
72A
  8
0
 10
146.99997612097491
 20
173.99999999999989
 30
0.0
 11
213.99997612097479
 21
174.0
 31
0.0
  0
LINE
  5
72B
  8
0
 10
146.4838761209748
 20
88.999999999999943
 30
0.0
 11
148.4772644791164
 21
88.999999999999943
 31
0.0
  0
LINE
  5
72C
  8
0
 10
145.01609999999999
 20
62.438838153399807
 30
0.0
 11
147.50487484113151
 21
61.999999999999922
 31
0.0
  0
LINE
  5
72D
  8
0
 10
145.0
 20
62.438838153399807
 30
0.0
 11
145.0
 21
63.198838153399826
 31
0.0
  0
LINE
  5
72E
  8
0
 10
145.0
 20
63.198838153404502
 30
0.0
 11
146.4838761209748
 21
64.237859399080435
 31
0.0
  0
LINE
  5
72F
  8
0
 10
145.0
 20
64.502349870143121
 30
0.0
 11
145.0
 21
65.26234987014314
 31
0.0
  0
LINE
  5
730
  8
0
 10
146.5
 20
64.237859399080435
 30
0.0
 11
145.0
 21
64.502349870143121
 31
0.0
  0
LINE
  5
731
  8
0
 10
145.0
 20
65.262349870147773
 30
0.0
 11
146.4838761209748
 21
66.301371115823713
 31
0.0
  0
LINE
  5
732
  8
0
 10
145.0
 20
66.565861586886385
 30
0.0
 11
145.0
 21
67.325861586886418
 31
0.0
  0
LINE
  5
733
  8
0
 10
146.5
 20
66.301371115823713
 30
0.0
 11
145.0
 21
66.565861586886385
 31
0.0
  0
LINE
  5
734
  8
0
 10
145.0
 20
67.325861586891079
 30
0.0
 11
146.4838761209748
 21
68.364882832567019
 31
0.0
  0
LINE
  5
735
  8
0
 10
145.0
 20
68.629373303629706
 30
0.0
 11
145.0
 21
69.389373303629725
 31
0.0
  0
LINE
  5
736
  8
0
 10
146.5
 20
68.364882832567019
 30
0.0
 11
145.0
 21
68.629373303629706
 31
0.0
  0
LINE
  5
737
  8
0
 10
145.0
 20
69.389373303634358
 30
0.0
 11
146.4838761209748
 21
70.428394549310298
 31
0.0
  0
LINE
  5
738
  8
0
 10
145.0
 20
70.692885020372984
 30
0.0
 11
145.0
 21
71.452885020373003
 31
0.0
  0
LINE
  5
739
  8
0
 10
146.5
 20
70.428394549310298
 30
0.0
 11
145.0
 21
70.692885020372984
 31
0.0
  0
LINE
  5
73A
  8
0
 10
145.0
 20
71.452885020377664
 30
0.0
 11
146.4838761209748
 21
72.491906266053604
 31
0.0
  0
LINE
  5
73B
  8
0
 10
145.0
 20
72.75639673711629
 30
0.0
 11
145.0
 21
73.516396737116295
 31
0.0
  0
LINE
  5
73C
  8
0
 10
146.5
 20
72.491906266053604
 30
0.0
 11
145.0
 21
72.75639673711629
 31
0.0
  0
LINE
  5
73D
  8
0
 10
145.0
 20
73.516396737120942
 30
0.0
 11
146.4838761209748
 21
74.555417982796882
 31
0.0
  0
LINE
  5
73E
  8
0
 10
145.0
 20
74.819908453859568
 30
0.0
 11
145.0
 21
75.579908453859574
 31
0.0
  0
LINE
  5
73F
  8
0
 10
146.5
 20
74.555417982796882
 30
0.0
 11
145.0
 21
74.819908453859568
 31
0.0
  0
LINE
  5
740
  8
0
 10
145.0
 20
75.579908453864249
 30
0.0
 11
146.4838761209748
 21
76.618929699540189
 31
0.0
  0
LINE
  5
741
  8
0
 10
145.0
 20
76.883420170602875
 30
0.0
 11
145.0
 21
77.643420170602894
 31
0.0
  0
LINE
  5
742
  8
0
 10
146.5
 20
76.618929699540189
 30
0.0
 11
145.0
 21
76.883420170602875
 31
0.0
  0
LINE
  5
743
  8
0
 10
145.0
 20
77.643420170607527
 30
0.0
 11
146.4838761209748
 21
78.682441416283467
 31
0.0
  0
LINE
  5
744
  8
0
 10
145.0
 20
78.946931887346153
 30
0.0
 11
145.0
 21
79.706931887346173
 31
0.0
  0
LINE
  5
745
  8
0
 10
146.5
 20
78.682441416283467
 30
0.0
 11
145.0
 21
78.946931887346153
 31
0.0
  0
LINE
  5
746
  8
0
 10
145.0
 20
79.706931887350834
 30
0.0
 11
146.4838761209748
 21
80.745953133026774
 31
0.0
  0
LINE
  5
747
  8
0
 10
145.0
 20
81.010443604089474
 30
0.0
 11
145.0
 21
81.770443604089465
 31
0.0
  0
LINE
  5
748
  8
0
 10
146.5
 20
80.745953133026774
 30
0.0
 11
145.0
 21
81.010443604089474
 31
0.0
  0
LINE
  5
749
  8
0
 10
145.0
 20
81.770443604094112
 30
0.0
 11
146.4838761209748
 21
82.809464849770066
 31
0.0
  0
LINE
  5
74A
  8
0
 10
145.0
 20
83.073955320832738
 30
0.0
 11
145.0
 21
83.833955320832743
 31
0.0
  0
LINE
  5
74B
  8
0
 10
146.5
 20
82.809464849770066
 30
0.0
 11
145.0
 21
83.073955320832738
 31
0.0
  0
LINE
  5
74C
  8
0
 10
145.0
 20
83.833955320837418
 30
0.0
 11
146.4838761209748
 21
84.872976566513344
 31
0.0
  0
LINE
  5
74D
  8
0
 10
145.0
 20
85.137467037576045
 30
0.0
 11
145.0
 21
85.897467037576064
 31
0.0
  0
LINE
  5
74E
  8
0
 10
146.5
 20
84.872976566513344
 30
0.0
 11
145.0
 21
85.137467037576045
 31
0.0
  0
LINE
  5
74F
  8
0
 10
145.0
 20
85.897467037580697
 30
0.0
 11
146.4838761209748
 21
86.936488283256637
 31
0.0
  0
ARC
  5
750
  8
0
 10
164.99997612097479
 20
104.9999999999999
 30
0.0
 40
23.0
 50
224.0792098478862
 51
270.0
  0
LINE
  5
751
  8
0
 10
156.4141896833479
 20
69.999999999999943
 30
0.0
 11
154.99997612097479
 21
71.414213562373021
 31
0.0
  0
LINE
  5
752
  8
0
 10
154.99997612097479
 20
71.414213562373021
 30
0.0
 11
153.5857625586016
 21
69.999999999999943
 31
0.0
  0
LINE
  5
753
  8
0
 10
153.5857625586016
 20
69.999999999999943
 30
0.0
 11
154.99997612097479
 21
68.585786437626837
 31
0.0
  0
LINE
  5
754
  8
0
 10
167.49997612097479
 20
70.999999999999943
 30
0.0
 11
166.49997612097479
 21
69.999999999999943
 31
0.0
  0
LINE
  5
756
  8
0
 10
145.0
 20
87.960978754323989
 30
0.0
 11
146.4838761209748
 21
88.999999999999943
 31
0.0
  0
LINE
  5
757
  8
0
 10
146.5
 20
86.936488283256637
 30
0.0
 11
145.0
 21
87.200978754319323
 31
0.0
  0
LINE
  5
758
  8
0
 10
145.0
 20
87.200978754319323
 30
0.0
 11
145.0
 21
87.960978754319342
 31
0.0
  0
LINE
  5
75F
  8
0
 10
62.0
 20
65.173391808203093
 30
0.0
 11
74.499999999999886
 21
65.173391808203093
 31
0.0
  0
LINE
  5
760
  8
0
 10
62.0
 20
64.413391808198412
 30
0.0
 11
74.499999999999886
 21
64.413391808198412
 31
0.0
  0
LINE
  5
761
  8
0
 10
62.0
 20
63.100984285265362
 30
0.0
 11
74.499999999999886
 21
63.100984285265362
 31
0.0
  0
LINE
  5
762
  8
0
 10
62.0
 20
62.340984285260639
 30
0.0
 11
74.499999999999886
 21
62.340984285260639
 31
0.0
  0
LINE
  5
763
  8
0
 10
62.0
 20
87.969874560518463
 30
0.0
 11
74.499999999999886
 21
87.969874560518463
 31
0.0
  0
LINE
  5
764
  8
0
 10
62.0
 20
87.209874560513782
 30
0.0
 11
74.499999999999886
 21
87.209874560513782
 31
0.0
  0
LINE
  5
765
  8
0
 10
62.0
 20
85.137467037576016
 30
0.0
 11
74.499999999999886
 21
85.137467037576016
 31
0.0
  0
LINE
  5
766
  8
0
 10
62.0
 20
85.897467037580725
 30
0.0
 11
74.499999999999886
 21
85.897467037580725
 31
0.0
  0
LINE
  5
767
  8
0
 10
62.0
 20
83.065059514638236
 30
0.0
 11
74.499999999999886
 21
83.065059514638236
 31
0.0
  0
LINE
  5
768
  8
0
 10
62.0
 20
83.825059514642945
 30
0.0
 11
74.499999999999886
 21
83.825059514642945
 31
0.0
  0
LINE
  5
769
  8
0
 10
62.0
 20
80.992651991700484
 30
0.0
 11
74.499999999999886
 21
80.992651991700484
 31
0.0
  0
LINE
  5
76A
  8
0
 10
62.0
 20
81.752651991705193
 30
0.0
 11
74.499999999999886
 21
81.752651991705193
 31
0.0
  0
LINE
  5
76B
  8
0
 10
62.0
 20
78.920244468762718
 30
0.0
 11
74.499999999999886
 21
78.920244468762718
 31
0.0
  0
LINE
  5
76C
  8
0
 10
62.0
 20
79.680244468767384
 30
0.0
 11
74.499999999999886
 21
79.680244468767384
 31
0.0
  0
LINE
  5
76D
  8
0
 10
62.0
 20
76.847836945824952
 30
0.0
 11
74.499999999999886
 21
76.847836945824952
 31
0.0
  0
LINE
  5
76E
  8
0
 10
62.0
 20
77.607836945829661
 30
0.0
 11
74.499999999999886
 21
77.607836945829661
 31
0.0
  0
LINE
  5
76F
  8
0
 10
62.0
 20
74.775429422887186
 30
0.0
 11
74.499999999999886
 21
74.775429422887186
 31
0.0
  0
LINE
  5
770
  8
0
 10
62.0
 20
75.535429422891866
 30
0.0
 11
74.499999999999886
 21
75.535429422891866
 31
0.0
  0
LINE
  5
771
  8
0
 10
62.0
 20
72.70302189994942
 30
0.0
 11
74.499999999999886
 21
72.70302189994942
 31
0.0
  0
LINE
  5
772
  8
0
 10
62.0
 20
73.463021899954114
 30
0.0
 11
74.499999999999886
 21
73.463021899954114
 31
0.0
  0
LINE
  5
773
  8
0
 10
62.0
 20
70.630614377011653
 30
0.0
 11
74.499999999999886
 21
70.630614377011653
 31
0.0
  0
LINE
  5
774
  8
0
 10
62.0
 20
71.390614377016334
 30
0.0
 11
74.499999999999886
 21
71.390614377016334
 31
0.0
  0
LINE
  5
775
  8
0
 10
62.0
 20
68.558206854073887
 30
0.0
 11
74.499999999999886
 21
68.558206854073887
 31
0.0
  0
LINE
  5
776
  8
0
 10
62.0
 20
69.318206854078596
 30
0.0
 11
74.499999999999886
 21
69.318206854078596
 31
0.0
  0
LINE
  5
777
  8
0
 10
62.0
 20
67.24579933114083
 30
0.0
 11
74.499999999999886
 21
67.24579933114083
 31
0.0
  0
LINE
  5
778
  8
0
 10
62.0
 20
66.48579933113615
 30
0.0
 11
74.499999999999886
 21
66.48579933113615
 31
0.0
  0
LINE
  5
779
  8
0
 10
93.0
 20
63.100984285265362
 30
0.0
 11
80.500000000000114
 21
63.100984285265362
 31
0.0
  0
LINE
  5
77A
  8
0
 10
93.0
 20
64.413391808198412
 30
0.0
 11
80.500000000000114
 21
64.413391808198412
 31
0.0
  0
LINE
  5
77B
  8
0
 10
93.0
 20
65.173391808203093
 30
0.0
 11
80.500000000000114
 21
65.173391808203093
 31
0.0
  0
LINE
  5
77C
  8
0
 10
93.0
 20
66.48579933113615
 30
0.0
 11
80.500000000000114
 21
66.48579933113615
 31
0.0
  0
LINE
  5
77D
  8
0
 10
93.0
 20
67.24579933114083
 30
0.0
 11
80.500000000000114
 21
67.24579933114083
 31
0.0
  0
LINE
  5
77E
  8
0
 10
93.0
 20
69.318206854078596
 30
0.0
 11
80.500000000000114
 21
69.318206854078596
 31
0.0
  0
LINE
  5
77F
  8
0
 10
93.0
 20
68.558206854073887
 30
0.0
 11
80.500000000000114
 21
68.558206854073887
 31
0.0
  0
LINE
  5
780
  8
0
 10
93.0
 20
71.390614377016334
 30
0.0
 11
80.500000000000114
 21
71.390614377016334
 31
0.0
  0
LINE
  5
781
  8
0
 10
93.0
 20
70.630614377011653
 30
0.0
 11
80.500000000000114
 21
70.630614377011653
 31
0.0
  0
LINE
  5
782
  8
0
 10
93.0
 20
73.463021899954114
 30
0.0
 11
80.500000000000114
 21
73.463021899954114
 31
0.0
  0
LINE
  5
783
  8
0
 10
93.0
 20
72.70302189994942
 30
0.0
 11
80.500000000000114
 21
72.70302189994942
 31
0.0
  0
LINE
  5
784
  8
0
 10
93.0
 20
75.535429422891866
 30
0.0
 11
80.500000000000114
 21
75.535429422891866
 31
0.0
  0
LINE
  5
785
  8
0
 10
93.0
 20
74.775429422887186
 30
0.0
 11
80.500000000000114
 21
74.775429422887186
 31
0.0
  0
LINE
  5
786
  8
0
 10
93.0
 20
77.607836945829661
 30
0.0
 11
80.500000000000114
 21
77.607836945829661
 31
0.0
  0
LINE
  5
787
  8
0
 10
93.0
 20
76.847836945824952
 30
0.0
 11
80.500000000000114
 21
76.847836945824952
 31
0.0
  0
LINE
  5
788
  8
0
 10
93.0
 20
79.680244468767384
 30
0.0
 11
80.500000000000114
 21
79.680244468767384
 31
0.0
  0
LINE
  5
789
  8
0
 10
93.0
 20
78.920244468762718
 30
0.0
 11
80.500000000000114
 21
78.920244468762718
 31
0.0
  0
LINE
  5
78A
  8
0
 10
93.0
 20
81.752651991705193
 30
0.0
 11
80.500000000000114
 21
81.752651991705193
 31
0.0
  0
LINE
  5
78B
  8
0
 10
93.0
 20
80.992651991700484
 30
0.0
 11
80.500000000000114
 21
80.992651991700484
 31
0.0
  0
LINE
  5
78C
  8
0
 10
93.0
 20
83.825059514642945
 30
0.0
 11
80.500000000000114
 21
83.825059514642945
 31
0.0
  0
LINE
  5
78D
  8
0
 10
93.0
 20
83.065059514638236
 30
0.0
 11
80.500000000000114
 21
83.065059514638236
 31
0.0
  0
LINE
  5
78E
  8
0
 10
93.0
 20
85.897467037580725
 30
0.0
 11
80.500000000000114
 21
85.897467037580725
 31
0.0
  0
LINE
  5
78F
  8
0
 10
93.0
 20
85.137467037576016
 30
0.0
 11
80.500000000000114
 21
85.137467037576016
 31
0.0
  0
LINE
  5
790
  8
0
 10
93.0
 20
87.209874560513782
 30
0.0
 11
80.500000000000114
 21
87.209874560513782
 31
0.0
  0
LINE
  5
791
  8
0
 10
93.0
 20
87.969874560518463
 30
0.0
 11
80.500000000000114
 21
87.969874560518463
 31
0.0
  0
LINE
  5
792
  8
0
 10
92.0
 20
88.999999999999943
 30
0.0
 11
63.0
 21
88.999999999999943
 31
0.0
  0
ARC
  5
793
  8
0
 10
92.0
 20
85.999999999999943
 30
0.0
 40
3.0
 50
0.0
 51
90.0
  0
ARC
  5
794
  8
0
 10
63.0
 20
85.999999999999943
 30
0.0
 40
3.0
 50
90.0
 51
180.0
  0
LINE
  5
795
  8
0
 10
80.5
 20
61.999999999999943
 30
0.0
 11
80.5
 21
88.999999999999943
 31
0.0
  0
LINE
  5
796
  8
0
 10
74.5
 20
61.999999999999943
 30
0.0
 11
74.5
 21
88.999999999999943
 31
0.0
  0
LINE
  5
797
  8
0
 10
93.0
 20
62.340984285260639
 30
0.0
 11
80.500000000000114
 21
62.340984285260639
 31
0.0
  0
LINE
  5
798
  8
0
 10
77.5
 20
61.999999999999943
 30
0.0
 11
77.5
 21
88.999999999999943
 31
0.0
  0
LINE
  5
7AD
  8
0
 10
186.92817935125021
 20
163.0
 30
0.0
 11
206.49997612097479
 21
162.99999999999989
 31
0.0
  0
LINE
  5
7AE
  8
0
 10
186.92817935125021
 20
150.0
 30
0.0
 11
206.49997612097479
 21
150.0
 31
0.0
  0
ARC
  5
7BA
  8
0
 10
206.49997612097479
 20
156.49999999999989
 30
0.0
 40
6.5
 50
270.0
 51
90.0
  0
CIRCLE
  5
7C3
  8
0
 10
179.99997612097479
 20
156.49999999999989
 30
0.0
 40
9.5
  0
CIRCLE
  5
7C4
  8
0
 10
179.99997612097479
 20
156.49999999999989
 30
0.0
 40
6.5
  0
POLYLINE
  5
82D
  8
3
 66
     1
 10
0.0
 20
0.0
 30
0.0
 70
     1
1001
ACAD
1000
ASC_BOUNDS
1002
{
1070
    19
1005
82C
1002
}
  0
VERTEX
  5
B3B
  8
3
 10
203.98807135906929
 20
71.000000000000014
 30
0.0
 42
1.0
  0
VERTEX
  5
B3C
  8
3
 10
205.86307135906929
 20
71.000000000000014
 30
0.0
 42
1.0
  0
SEQEND
  5
B3D
  8
3
  0
POLYLINE
  5
82E
  8
3
 66
     1
 10
0.0
 20
0.0
 30
0.0
 70
     1
1001
ACAD
1000
ASC_BOUNDS
1002
{
1070
    19
1005
82C
1002
}
  0
VERTEX
  5
B3E
  8
3
 10
207.42557135906921
 20
71.000000000000014
 30
0.0
 42
1.0
  0
VERTEX
  5
B3F
  8
3
 10
202.42557135906929
 20
71.000000000000014
 30
0.0
 42
1.0
  0
SEQEND
  5
B40
  8
3
  0
POLYLINE
  5
82F
  8
3
 66
     1
 10
0.0
 20
0.0
 30
0.0
 70
     1
1001
ACAD
1000
ASC_BOUNDS
1002
{
1070
    19
1005
82C
1002
}
  0
VERTEX
  5
B41
  8
3
 10
183.8749761209738
 20
72.680467910901982
 30
0.0
  0
VERTEX
  5
B42
  8
3
 10
183.8749761209738
 20
73.605246374811657
 30
0.0
 42
0.1238822414942591
  0
VERTEX
  5
B43
  8
3
 10
182.6802291533217
 20
73.142857142856812
 30
0.0
 42
0.1238822414942589
  0
SEQEND
  5
B44
  8
3
  0
POLYLINE
  5
830
  8
3
 66
     1
 10
0.0
 20
0.0
 30
0.0
 70
     1
1001
ACAD
1000
ASC_BOUNDS
1002
{
1070
    19
1005
82C
1002
}
  0
VERTEX
  5
B45
  8
3
 10
185.71258023148371
 20
73.142857142856812
 30
0.0
 42
0.1238822414942568
  0
VERTEX
  5
B46
  8
3
 10
184.51783326383151
 20
73.605246374811657
 30
0.0
  0
VERTEX
  5
B47
  8
3
 10
184.51783326383151
 20
72.680467910902024
 30
0.0
 42
0.1238822414942573
  0
SEQEND
  5
B48
  8
3
  0
POLYLINE
  5
831
  8
3
 66
     1
 10
0.0
 20
0.0
 30
0.0
 70
     1
1001
ACAD
1000
ASC_BOUNDS
1002
{
1070
    19
1005
82C
1002
}
  0
VERTEX
  5
B49
  8
3
 10
183.8749761209738
 20
70.415604708139512
 30
0.0
 42
-0.0420571628960909
  0
VERTEX
  5
B4A
  8
3
 10
183.73261654526689
 20
69.8949355233093
 30
0.0
 42
-0.0111573747896638
  0
VERTEX
  5
B4B
  8
3
 10
183.8749761209738
 20
69.9124596192719
 30
0.0
  0
SEQEND
  5
B4C
  8
3
  0
POLYLINE
  5
832
  8
3
 66
     1
 10
0.0
 20
0.0
 30
0.0
 70
     1
1001
ACAD
1000
ASC_BOUNDS
1002
{
1070
    19
1005
82C
1002
}
  0
VERTEX
  5
B4D
  8
3
 10
184.51783326383151
 20
70.678571428571203
 30
0.0
  0
VERTEX
  5
B4E
  8
3
 10
184.51783326383151
 20
69.9124596192719
 30
0.0
 42
-0.1402251973297237
  0
VERTEX
  5
B4F
  8
3
 10
186.160616817521
 20
69.258593750000372
 30
0.0
 42
0.1517967807321737
  0
VERTEX
  5
B50
  8
3
 10
186.80165106721429
 20
70.678571428571203
 30
0.0
  0
SEQEND
  5
B51
  8
3
  0
POLYLINE
  5
833
  8
3
 66
     1
 10
0.0
 20
0.0
 30
0.0
 70
     1
1001
ACAD
1000
ASC_BOUNDS
1002
{
1070
    19
1005
82C
1002
}
  0
VERTEX
  5
B52
  8
3
 10
186.80165106721429
 20
71.321428571428839
 30
0.0
 42
0.1517967807321736
  0
VERTEX
  5
B53
  8
3
 10
186.160616817521
 20
72.741406249999656
 30
0.0
 42
-0.1402251973297237
  0
VERTEX
  5
B54
  8
3
 10
184.51783326383151
 20
72.0875403807281
 30
0.0
  0
VERTEX
  5
B55
  8
3
 10
184.51783326383151
 20
71.321428571428839
 30
0.0
  0
SEQEND
  5
B56
  8
3
  0
POLYLINE
  5
834
  8
3
 66
     1
 10
0.0
 20
0.0
 30
0.0
 70
     1
1001
ACAD
1000
ASC_BOUNDS
1002
{
1070
    19
1005
82C
1002
}
  0
VERTEX
  5
B57
  8
3
 10
192.11307135906929
 20
68.500000000000028
 30
0.0
  0
VERTEX
  5
B58
  8
3
 10
192.11307135906929
 20
71.468750000000014
 30
0.0
 42
-1.0
  0
VERTEX
  5
B59
  8
3
 10
193.05057135906929
 20
71.468750000000014
 30
0.0
  0
VERTEX
  5
B5A
  8
3
 10
193.05057135906929
 20
68.500000000000028
 30
0.0
  0
VERTEX
  5
B5B
  8
3
 10
194.61307135906929
 20
68.500000000000028
 30
0.0
  0
VERTEX
  5
B5C
  8
3
 10
194.61307135906929
 20
71.468750000000014
 30
0.0
 42
-1.0
  0
VERTEX
  5
B5D
  8
3
 10
195.55057135906929
 20
71.468750000000014
 30
0.0
  0
VERTEX
  5
B5E
  8
3
 10
195.55057135906929
 20
68.500000000000028
 30
0.0
  0
VERTEX
  5
B5F
  8
3
 10
197.11307135906929
 20
68.500000000000028
 30
0.0
  0
VERTEX
  5
B60
  8
3
 10
197.11307135906929
 20
71.468750000000014
 30
0.0
 42
0.6247472440541069
  0
VERTEX
  5
B61
  8
3
 10
193.83182135906929
 20
73.069836057181192
 30
0.0
 42
0.6247472440541069
  0
VERTEX
  5
B62
  8
3
 10
190.55057135906929
 20
71.468750000000014
 30
0.0
  0
VERTEX
  5
B63
  8
3
 10
190.55057135906929
 20
68.500000000000028
 30
0.0
  0
SEQEND
  5
B64
  8
3
  0
POLYLINE
  5
835
  8
3
 66
     1
 10
0.0
 20
0.0
 30
0.0
 70
     1
1001
ACAD
1000
ASC_BOUNDS
1002
{
1070
    19
1005
82C
1002
}
  0
VERTEX
  5
B65
  8
3
 10
183.8749761209738
 20
69.319532089098018
 30
0.0
 42
0.0479752760773671
  0
VERTEX
  5
B66
  8
3
 10
183.3843566771379
 20
69.210523487597371
 30
0.0
 42
-0.0528997705207019
  0
VERTEX
  5
B67
  8
3
 10
182.949426670425
 20
68.690092899551004
 30
0.0
 42
0.0933324906988985
  0
VERTEX
  5
B68
  8
3
 10
183.8749761209738
 20
68.394753625188386
 30
0.0
  0
SEQEND
  5
B69
  8
3
  0
POLYLINE
  5
836
  8
3
 66
     1
 10
0.0
 20
0.0
 30
0.0
 70
     1
1001
ACAD
1000
ASC_BOUNDS
1002
{
1070
    19
1005
82C
1002
}
  0
VERTEX
  5
B6A
  8
3
 10
184.51783326383151
 20
69.319532089098018
 30
0.0
  0
VERTEX
  5
B6B
  8
3
 10
184.51783326383151
 20
68.394753625188386
 30
0.0
 42
0.1238822414942567
  0
VERTEX
  5
B6C
  8
3
 10
185.71258023148371
 20
68.857142857143174
 30
0.0
 42
0.1238822414942571
  0
SEQEND
  5
B6D
  8
3
  0
POLYLINE
  5
837
  8
3
 66
     1
 10
0.0
 20
0.0
 30
0.0
 70
     1
1001
ACAD
1000
ASC_BOUNDS
1002
{
1070
    19
1005
82C
1002
}
  0
VERTEX
  5
B6E
  8
3
 10
189.92557135906929
 20
73.500000000000014
 30
0.0
  0
VERTEX
  5
B6F
  8
3
 10
188.36307135906929
 20
73.500000000000014
 30
0.0
  0
VERTEX
  5
B70
  8
3
 10
188.36307135906929
 20
68.500000000000028
 30
0.0
  0
VERTEX
  5
B71
  8
3
 10
189.92557135906929
 20
68.500000000000028
 30
0.0
  0
SEQEND
  5
B72
  8
3
  0
POLYLINE
  5
838
  8
3
 66
     1
 10
0.0
 20
0.0
 30
0.0
 70
     1
1001
ACAD
1000
ASC_BOUNDS
1002
{
1070
    19
1005
82C
1002
}
  0
VERTEX
  5
B73
  8
3
 10
199.30057135906929
 20
69.593749999999972
 30
0.0
  0
VERTEX
  5
B74
  8
3
 10
200.23807135906929
 20
69.593750000000014
 30
0.0
  0
VERTEX
  5
B75
  8
3
 10
200.23807135906929
 20
68.500000000000028
 30
0.0
  0
VERTEX
  5
B76
  8
3
 10
201.80057135906929
 20
68.500000000000028
 30
0.0
  0
VERTEX
  5
B77
  8
3
 10
201.80057135906929
 20
71.468750000000014
 30
0.0
 42
1.000000215936474
  0
VERTEX
  5
B78
  8
3
 10
197.73807135906929
 20
71.468750000000014
 30
0.0
  0
VERTEX
  5
B79
  8
3
 10
197.73807135906929
 20
68.500000000000028
 30
0.0
  0
VERTEX
  5
B7A
  8
3
 10
199.30057135906929
 20
68.499999999999972
 30
0.0
  0
SEQEND
  5
B7B
  8
3
  0
POLYLINE
  5
839
  8
3
 66
     1
 10
0.0
 20
0.0
 30
0.0
 70
     1
1001
ACAD
1000
ASC_BOUNDS
1002
{
1070
    19
1005
82C
1002
}
  0
VERTEX
  5
B7C
  8
3
 10
200.23807135906929
 20
70.843750000000014
 30
0.0
  0
VERTEX
  5
B7D
  8
3
 10
200.23807135906929
 20
71.468750000000014
 30
0.0
 42
1.0000004495664849
  0
VERTEX
  5
B7E
  8
3
 10
199.30057135906929
 20
71.468750000000014
 30
0.0
  0
VERTEX
  5
B7F
  8
3
 10
199.30057135906929
 20
70.843750000000014
 30
0.0
  0
SEQEND
  5
B80
  8
3
  0
POLYLINE
  5
83A
  8
3
 66
     1
 10
0.0
 20
0.0
 30
0.0
 70
     1
1001
ACAD
1000
ASC_BOUNDS
1002
{
1070
    19
1005
82C
1002
}
  0
VERTEX
  5
B81
  8
3
 10
182.23219256728419
 20
72.741406249999613
 30
0.0
 42
0.1402251973297244
  0
VERTEX
  5
B82
  8
3
 10
183.8749761209738
 20
72.0875403807281
 30
0.0
  0
VERTEX
  5
B83
  8
3
 10
183.8749761209738
 20
71.321428571428839
 30
0.0
  0
VERTEX
  5
B84
  8
3
 10
183.3392618352602
 20
71.321428571428839
 30
0.0
  0
VERTEX
  5
B85
  8
3
 10
183.3392618352602
 20
71.000000000000014
 30
0.0
 42
-0.378699158263169
  0
VERTEX
  5
B86
  8
3
 10
181.0356904066893
 20
68.394753625188386
 30
0.0
  0
VERTEX
  5
B87
  8
3
 10
181.0356904066893
 20
67.801826095014462
 30
0.0
 42
0.1186144156091118
  0
VERTEX
  5
B88
  8
3
 10
182.45533326383151
 20
68.298092722968732
 30
0.0
 42
1.834021909257185
  0
VERTEX
  5
B89
  8
3
 10
182.45533326383151
 20
73.701907277031296
 30
0.0
 42
1.26915442618927
  0
VERTEX
  5
B8A
  8
3
 10
180.3928332638317
 20
67.801826095014462
 30
0.0
  0
VERTEX
  5
B8B
  8
3
 10
180.3928332638317
 20
68.394753625188386
 30
0.0
 42
-0.3786991582631508
  0
VERTEX
  5
B8C
  8
3
 10
178.0892618352608
 20
70.999999999999829
 30
0.0
  0
VERTEX
  5
B8D
  8
3
 10
178.0892618352608
 20
71.321428571428839
 30
0.0
  0
VERTEX
  5
B8E
  8
3
 10
178.6785475495461
 20
71.321428571428839
 30
0.0
  0
VERTEX
  5
B8F
  8
3
 10
178.6785475495461
 20
71.000000000000156
 30
0.0
 42
0.3684995607863874
  0
VERTEX
  5
B90
  8
3
 10
180.3928332638317
 20
68.989821817218555
 30
0.0
  0
VERTEX
  5
B91
  8
3
 10
180.3928332638317
 20
69.589737866312035
 30
0.0
 42
-0.3500011104183812
  0
VERTEX
  5
B92
  8
3
 10
179.26783326383239
 20
71.000000000000014
 30
0.0
  0
VERTEX
  5
B93
  8
3
 10
179.26783326383239
 20
71.321428571428839
 30
0.0
  0
VERTEX
  5
B94
  8
3
 10
179.857118978118
 20
71.321428571428839
 30
0.0
  0
VERTEX
  5
B95
  8
3
 10
179.857118978118
 20
70.999999999999972
 30
0.0
 42
0.9999989916437579
  0
VERTEX
  5
B96
  8
3
 10
181.57140469240261
 20
70.999999403609934
 30
0.0
 42
-0.1833501526628178
  0
SEQEND
  5
B97
  8
3
  0
POLYLINE
  5
83B
  8
3
 66
     1
 10
0.0
 20
0.0
 30
0.0
 70
     1
1001
ACAD
1000
ASC_BOUNDS
1002
{
1070
    19
1005
82C
1002
}
  0
VERTEX
  5
B98
  8
3
 10
182.74997612097499
 20
71.000000000000014
 30
0.0
  0
VERTEX
  5
B99
  8
3
 10
182.74997612097499
 20
71.321428571428839
 30
0.0
  0
VERTEX
  5
B9A
  8
3
 10
182.1606904066883
 20
71.321428571428839
 30
0.0
  0
VERTEX
  5
B9B
  8
3
 10
182.1606904066883
 20
71.000000000000014
 30
0.0
 42
-0.3500011104183828
  0
VERTEX
  5
B9C
  8
3
 10
181.0356904066893
 20
69.589737866312035
 30
0.0
  0
VERTEX
  5
B9D
  8
3
 10
181.0356904066893
 20
68.989821817218555
 30
0.0
 42
0.3684995607863695
  0
SEQEND
  5
B9E
  8
3
  0
LINE
  5
A96
  8
2
 10
216.49997612097479
 20
70.499999999999943
 30
0.0
 11
216.49997612097479
 21
82.0
 31
0.0
  0
LINE
  5
A97
  8
2
 10
212.99997612097479
 20
70.499999999999943
 30
0.0
 11
212.99997612097479
 21
60.0
 31
0.0
  0
LINE
  5
A98
  8
2
 10
169.99997612097479
 20
70.499999999999943
 30
0.0
 11
169.99997612097479
 21
82.0
 31
0.0
  0
LINE
  5
A99
  8
2
 10
173.49997612097479
 20
70.499999999999943
 30
0.0
 11
173.49997612097479
 21
60.0
 31
0.0
  0
LINE
  5
A9A
  8
2
 10
216.49997612097479
 20
70.499999999999943
 30
0.0
 11
169.99997612097479
 21
70.499999999999943
 31
0.0
  0
LINE
  5
A9B
  8
2
 10
189.1999761209747
 20
73.499999999999943
 30
0.0
 11
170.7999761209748
 21
73.499999999999943
 31
0.0
  0
LINE
  5
A9C
  8
2
 10
170.49997612097479
 20
73.199999999999932
 30
0.0
 11
170.7999761209748
 21
73.499999999999943
 31
0.0
  0
LINE
  5
A9D
  8
2
 10
170.49997612097479
 20
73.199999999999932
 30
0.0
 11
170.49997612097479
 21
70.799999999999955
 31
0.0
  0
LINE
  5
A9E
  8
2
 10
189.49997612097479
 20
73.199999999999932
 30
0.0
 11
189.49997612097479
 21
70.799999999999983
 31
0.0
  0
LINE
  5
A9F
  8
2
 10
189.1999761209747
 20
73.499999999999943
 30
0.0
 11
189.49997612097479
 21
73.199999999999932
 31
0.0
  0
LINE
  5
AA0
  8
2
 10
170.49997612097479
 20
70.799999999999926
 30
0.0
 11
170.7999761209748
 21
70.499999999999943
 31
0.0
  0
LINE
  5
AA1
  8
2
 10
189.1999761209747
 20
70.499999999999943
 30
0.0
 11
189.49997612097479
 21
70.799999999999926
 31
0.0
  0
ENDSEC
  0
EOF
