  0
SECTION
  2
HEADER
  9
$ACADVER
  1
AC1009
  9
$INSBASE
 10
0.0
 20
0.0
 30
0.0
  9
$EXTMIN
 10
0.0
 20
-2.960436562073669
 30
0.0
  9
$EXTMAX
 10
335.0
 20
188.0
 30
0.0
  9
$LIMMIN
 10
0.0
 20
0.0
  9
$LIMMAX
 10
375.0
 20
270.0
  9
$ORTHOMODE
 70
     1
  9
$REGENMODE
 70
     1
  9
$FILLMODE
 70
     1
  9
$QTEXTMODE
 70
     0
  9
$MIRRTEXT
 70
     0
  9
$DRAGMODE
 70
     2
  9
$LTSCALE
 40
10.0
  9
$OSMODE
 70
    37
  9
$ATTMODE
 70
     1
  9
$TEXTSIZE
 40
4.000000000000048
  9
$TRACEWID
 40
0.05
  9
$TEXTSTYLE
  7
STANDARD
  9
$CLAYER
  8
4
  9
$CELTYPE
  6
BYLAYER
  9
$CECOLOR
 62
   256
  9
$DIMSCALE
 40
1.0
  9
$DIMASZ
 40
3.0
  9
$DIMEXO
 40
2.0
  9
$DIMDLI
 40
0.38
  9
$DIMRND
 40
0.0
  9
$DIMDLE
 40
0.0
  9
$DIMEXE
 40
2.0
  9
$DIMTP
 40
0.0
  9
$DIMTM
 40
0.0
  9
$DIMTXT
 40
3.2000000000000002
  9
$DIMCEN
 40
0.0
  9
$DIMTSZ
 40
0.0
  9
$DIMTOL
 70
     0
  9
$DIMLIM
 70
     0
  9
$DIMTIH
 70
     0
  9
$DIMTOH
 70
     0
  9
$DIMSE1
 70
     0
  9
$DIMSE2
 70
     0
  9
$DIMTAD
 70
     1
  9
$DIMZIN
 70
     0
  9
$DIMBLK
  1

  9
$DIMASO
 70
     0
  9
$DIMSHO
 70
     0
  9
$DIMPOST
  1

  9
$DIMAPOST
  1

  9
$DIMALT
 70
     0
  9
$DIMALTD
 70
     2
  9
$DIMALTF
 40
25.399999999999999
  9
$DIMLFAC
 40
1.0
  9
$DIMTOFL
 70
     0
  9
$DIMTVP
 40
1.6000000000000001
  9
$DIMTIX
 70
     1
  9
$DIMSOXD
 70
     0
  9
$DIMSAH
 70
     0
  9
$DIMBLK1
  1

  9
$DIMBLK2
  1

  9
$DIMSTYLE
  2
STANDARD
  9
$DIMCLRD
 70
     4
  9
$DIMCLRE
 70
     4
  9
$DIMCLRT
 70
     4
  9
$DIMTFAC
 40
1.0
  9
$DIMGAP
 40
0.09
  9
$LUNITS
 70
     2
  9
$LUPREC
 70
     1
  9
$SKETCHINC
 40
0.1
  9
$FILLETRAD
 40
0.0
  9
$AUNITS
 70
     0
  9
$AUPREC
 70
     0
  9
$MENU
  1
E:\r13\win\SUPPORT\ACAD
  9
$ELEVATION
 40
0.0
  9
$PELEVATION
 40
0.0
  9
$THICKNESS
 40
0.0
  9
$LIMCHECK
 70
     0
  9
$BLIPMODE
 70
     0
  9
$CHAMFERA
 40
1.1999999999999991
  9
$CHAMFERB
 40
1.1999999999999991
  9
$SKPOLY
 70
     0
  9
$TDCREATE
 40
2450136.5932525462
  9
$TDUPDATE
 40
2456969.4035182642
  9
$TDINDWG
 40
0.0108378356
  9
$TDUSRTIMER
 40
0.0108378356
  9
$USRTIMER
 70
     1
  9
$ANGBASE
 50
0.0
  9
$ANGDIR
 70
     0
  9
$PDMODE
 70
     0
  9
$PDSIZE
 40
0.0
  9
$PLINEWID
 40
0.0
  9
$COORDS
 70
     1
  9
$SPLFRAME
 70
     0
  9
$SPLINETYPE
 70
     6
  9
$SPLINESEGS
 70
     8
  9
$ATTDIA
 70
     0
  9
$ATTREQ
 70
     1
  9
$HANDLING
 70
     1
  9
$HANDSEED
  5
C7A
  9
$SURFTAB1
 70
     6
  9
$SURFTAB2
 70
     6
  9
$SURFTYPE
 70
     6
  9
$SURFU
 70
     6
  9
$SURFV
 70
     6
  9
$UCSNAME
  2

  9
$UCSORG
 10
0.0
 20
0.0
 30
0.0
  9
$UCSXDIR
 10
1.0
 20
0.0
 30
0.0
  9
$UCSYDIR
 10
0.0
 20
1.0
 30
0.0
  9
$PUCSNAME
  2

  9
$PUCSORG
 10
0.0
 20
0.0
 30
0.0
  9
$PUCSXDIR
 10
1.0
 20
0.0
 30
0.0
  9
$PUCSYDIR
 10
0.0
 20
1.0
 30
0.0
  9
$USERI1
 70
     0
  9
$USERI2
 70
     1
  9
$USERI3
 70
     0
  9
$USERI4
 70
     0
  9
$USERI5
 70
     0
  9
$USERR1
 40
0.0
  9
$USERR2
 40
0.0
  9
$USERR3
 40
0.0
  9
$USERR4
 40
0.0
  9
$USERR5
 40
0.0
  9
$WORLDVIEW
 70
     1
  9
$SHADEDGE
 70
     3
  9
$SHADEDIF
 70
    70
  9
$TILEMODE
 70
     1
  9
$MAXACTVP
 70
    16
  9
$PLIMCHECK
 70
     0
  9
$PEXTMIN
 10
1.0000000000000000E+020
 20
1.0000000000000000E+020
 30
1.0000000000000000E+020
  9
$PEXTMAX
 10
-1.0000000000000000E+020
 20
-1.0000000000000000E+020
 30
-1.0000000000000000E+020
  9
$PLIMMIN
 10
0.0
 20
0.0
  9
$PLIMMAX
 10
12.0
 20
9.0
  9
$UNITMODE
 70
     0
  9
$VISRETAIN
 70
     0
  9
$PLINEGEN
 70
     0
  9
$PSLTSCALE
 70
     0
  0
ENDSEC
  0
SECTION
  2
TABLES
  0
TABLE
  2
VPORT
 70
     1
  0
VPORT
  2
*ACTIVE
 70
     0
 10
0.0
 20
0.0
 11
1.0
 21
1.0
 12
235.63977746870651
 22
135.0
 13
0.0
 23
0.0
 14
10.0
 24
10.0
 15
10.0
 25
10.0
 16
0.0
 26
0.0
 36
1.0
 17
0.0
 27
0.0
 37
0.0
 40
270.0
 41
1.7454798331015291
 42
50.0
 43
0.0
 44
0.0
 50
0.0
 51
0.0
 71
     0
 72
   500
 73
     1
 74
     0
 75
     0
 76
     0
 77
     0
 78
     2
  0
ENDTAB
  0
TABLE
  2
LTYPE
 70
     4
  0
LTYPE
  2
CONTINUOUS
 70
     0
  3
Solid Line
 72
    65
 73
     0
 40
0.0
  0
LTYPE
  2
CENTER
 70
     0
  3
____ _ ____ _ ____ _ ____ _ ____ _ ____ _ ____
 72
    65
 73
     4
 40
2.0
 49
1.25
 49
-0.25
 49
0.25
 49
-0.25
  0
LTYPE
  2
PHANTOM2
 70
     0
  3
___ _ _ ___ _ _ ___ _ _ ___ _ _
 72
    65
 73
     6
 40
1.25
 49
0.625
 49
-0.125
 49
0.125
 49
-0.125
 49
0.125
 49
-0.125
  0
LTYPE
  2
HIDDEN
 70
     0
  3
_ _ _ _ _ _ _ _ _ _ _ _ _ _ _ _ _ _ _ _ _ _ _
 72
    65
 73
     2
 40
0.375
 49
0.25
 49
-0.125
  0
ENDTAB
  0
TABLE
  2
LAYER
 70
     6
  0
LAYER
  2
0
 70
     0
 62
     7
  6
CONTINUOUS
  0
LAYER
  2
1
 70
     0
 62
     1
  6
CENTER
  0
LAYER
  2
4
 70
     0
 62
     4
  6
CONTINUOUS
  0
LAYER
  2
DEFPOINTS
 70
     0
 62
     7
  6
CONTINUOUS
  0
LAYER
  2
3
 70
     0
 62
     3
  6
CONTINUOUS
  0
LAYER
  2
2
 70
     0
 62
     2
  6
HIDDEN
  0
ENDTAB
  0
TABLE
  2
STYLE
 70
     2
  0
STYLE
  2
STANDARD
 70
     0
 40
0.0
 41
1.0
 50
0.0
 71
     0
 42
4.000000000000048
  3
SIMPLEX
  4
BIGFONT
  0
STYLE
  2
STANDARD1
 70
     0
 40
0.0
 41
1.0
 50
0.0
 71
     0
 42
3.0
  3
txt
  4

  0
ENDTAB
  0
TABLE
  2
VIEW
 70
     1
  0
VIEW
  2
ALL
 70
     0
 40
270.33333333333331
 10
220.8717648550103
 20
134.83333333333329
 41
441.74352971002048
 11
0.0
 21
0.0
 31
1.0
 12
0.0
 22
0.0
 32
0.0
 42
50.0
 43
0.0
 44
0.0
 50
0.0
 71
     0
  0
ENDTAB
  0
TABLE
  2
UCS
 70
     0
  0
ENDTAB
  0
TABLE
  2
APPID
 70
    40
  0
APPID
  2
ACAD
 70
     0
  0
APPID
  2
ACAD_MLEADERVER
 70
     0
  0
APPID
  2
GENIUS_GENODEF_13
 70
     0
  0
APPID
  2
GENIUS_GENOBJ-N-FIL_13
 70
     0
  0
APPID
  2
ASM_BASE
 70
     0
  0
APPID
  2
ASM_EXPLO_VER_2_00
 70
     0
  0
APPID
  2
ASM_CADM_VER_12_00
 70
     0
  0
APPID
  2
ASM_BASEFORO
 70
     0
  0
APPID
  2
ASM_BASETRAVI
 70
     0
  0
APPID
  2
ASM_BASETRAVI1
 70
     0
  0
APPID
  2
ASM_GRUPPI
 70
     0
  0
APPID
  2
ASM_CADM_ALBERO
 70
     0
  0
APPID
  2
ASM_GOLE
 70
     0
  0
APPID
  2
_CALL_MAC$
 70
     0
  0
APPID
  2
CONTENTBLOCKICON
 70
     0
  0
APPID
  2
ACAD_NAV_VCDISPLAY
 70
     0
  0
APPID
  2
DCO15
 70
     0
  0
APPID
  2
GENIUS_GENOREF_13
 70
     0
  0
APPID
  2
GENIUS_GENOENT_13
 70
     0
  0
APPID
  2
GENIUS_GENBH_13
 70
     0
  0
APPID
  2
GENIUS_GENOBJ_13
 70
     0
  0
APPID
  2
GENIUS_GENOLIS_13
 70
     0
  0
APPID
  2
GENIUS_GENOBJ-NBEHI-BHF_13
 70
     0
  0
APPID
  2
GENIUS_GENOBJ-NBEHI-BHB_13
 70
     0
  0
APPID
  2
GENIUS_GENOBJ-F-PART_13
 70
     0
  0
APPID
  2
GENIUS_GEFSTDP_13
 70
     0
  0
APPID
  2
GENIUS_GENOBJ-N-RSSYM_13
 70
     0
  0
APPID
  2
GENIUS_GENSYMENT_13
 70
     0
  0
APPID
  2
GENIUS_GENOBJ-N-TIT_13
 70
     0
  0
APPID
  2
GENIUS_GENTITLE_13
 70
     0
  0
APPID
  2
GENIUS_GENZVEED_13
 70
     0
  0
APPID
  2
GENIUS_GENOBJ-N-LEADER_13
 70
     0
  0
APPID
  2
GENIUS_GENOBJ-N-SEC_13
 70
     0
  0
APPID
  2
GENIUS_GENOBJ-N-CRS_13
 70
     0
  0
APPID
  2
GENIUS_GENOBJ-N-ZOO_13
 70
     0
  0
APPID
  2
GENIUS_GENZOO_13
 70
     0
  0
APPID
  2
GENIUS_GENOBJ-F-TOL_13
 70
     0
  0
APPID
  2
GENIUS_GENFIL_13
 70
     0
  0
APPID
  2
GENIUS_GENOBJ-N-CHA_13
 70
     0
  0
APPID
  2
ACAD_EXEMPT_FROM_CAD_STANDARDS
 70
     0
  0
ENDTAB
  0
TABLE
  2
DIMSTYLE
 70
     1
  0
DIMSTYLE
  2
STANDARD
 70
     0
  3

  4

  5

  6

  7

 40
1.0
 41
0.18
 42
0.0625
 43
0.38
 44
0.18
 45
0.0
 46
0.0
 47
0.0
 48
0.0
140
0.18
141
0.09
142
0.0
143
25.399999999999999
144
1.0
145
0.0
146
1.0
147
0.09
 71
     0
 72
     0
 73
     1
 74
     1
 75
     0
 76
     0
 77
     0
 78
     0
170
     0
171
     2
172
     0
173
     0
174
     0
175
     0
176
     0
177
     0
178
     0
  0
ENDTAB
  0
ENDSEC
  0
SECTION
  2
BLOCKS
  0
BLOCK
  8
0
  2
$MODEL_SPACE
 70
     0
 10
0.0
 20
0.0
 30
0.0
  3
$MODEL_SPACE
  1

  0
ENDBLK
  5
21F
  8
0
  0
BLOCK
 67
     1
  8
0
  2
$PAPER_SPACE
 70
     0
 10
0.0
 20
0.0
 30
0.0
  3
$PAPER_SPACE
  1

  0
ENDBLK
  5
21D
 67
     1
  8
0
  0
ENDSEC
  0
SECTION
  2
ENTITIES
  0
ARC
  5
12C
  8
0
 10
299.0
 20
94.000000000000028
 30
0.0
 40
4.0
 50
90.0
 51
180.0
  0
LINE
  5
12D
  8
0
 10
295.0
 20
62.000000000000021
 30
0.0
 11
296.15470099999987
 21
60.000000000000028
 31
0.0
  0
LINE
  5
12E
  8
0
 10
295.0
 20
62.000000000000021
 30
0.0
 11
295.0
 21
94.000000000000028
 31
0.0
  0
LINE
  5
12F
  8
0
 10
335.0
 20
62.000000000000021
 30
0.0
 11
333.84529900000013
 21
60.000000000000028
 31
0.0
  0
ARC
  5
130
  8
0
 10
331.0
 20
94.000000000000028
 30
0.0
 40
4.0
 50
0.0
 51
90.0
  0
LINE
  5
131
  8
0
 10
331.0
 20
98.000000000000043
 30
0.0
 11
299.0
 21
98.000000000000043
 31
0.0
  0
LINE
  5
132
  8
0
 10
335.0
 20
62.000000000000021
 30
0.0
 11
335.0
 21
94.000000000000028
 31
0.0
  0
LINE
  5
133
  8
0
 10
296.15470099999987
 20
60.000000000000028
 30
0.0
 11
333.84529900000013
 21
60.000000000000028
 31
0.0
  0
LINE
  5
134
  8
1
 10
315.0
 20
55.000000000000028
 30
0.0
 11
315.0
 21
103.0
 31
0.0
  0
LINE
  5
135
  8
0
 10
331.0
 20
90.000000000000028
 30
0.0
 11
299.0
 21
90.000000000000028
 31
0.0
  0
ARC
  5
136
  8
0
 10
331.0
 20
86.000000000000028
 30
0.0
 40
4.0
 50
0.0
 51
90.0
  0
LINE
  5
137
  8
0
 10
295.0
 20
62.000000000000021
 30
0.0
 11
335.0
 21
62.000000000000021
 31
0.0
  0
ARC
  5
138
  8
0
 10
299.0
 20
86.000000000000028
 30
0.0
 40
4.0
 50
90.0
 51
180.0
  0
TEXT
  5
2D6
  8
0
 62
     3
 10
0.0
 20
0.0
 30
0.0
 40
10.0
  1
BJ202-16030
  7
STANDARD1
  0
LINE
  5
66F
  8
0
 10
236.07679491924321
 20
60.000000000000028
 30
0.0
 11
238.9232050807569
 21
60.000000000000028
 31
0.0
  0
LINE
  5
670
  8
0
 10
245.0
 20
62.0
 30
0.0
 11
243.0
 21
60.000000000000028
 31
0.0
  0
LINE
  5
671
  8
0
 10
241.07679491924321
 20
60.000000000000028
 30
0.0
 11
240.3464101559785
 21
61.265063509461051
 31
0.0
  0
LINE
  5
672
  8
0
 10
239.6535898329509
 20
61.265063509461051
 30
0.0
 11
238.9232050807569
 21
60.000000000000028
 31
0.0
  0
LINE
  5
673
  8
0
 10
241.07679491924321
 20
60.000000000000028
 30
0.0
 11
243.0
 21
60.000000000000028
 31
0.0
  0
ARC
  5
674
  8
0
 10
239.99999999446459
 20
61.065063509461048
 30
0.0
 40
0.4
 50
30.00000000000108
 51
149.99999999999861
  0
ARC
  5
675
  8
0
 10
234.99999999446459
 20
61.065063509461048
 30
0.0
 40
0.4
 50
30.00000000000108
 51
149.99999999999861
  0
LINE
  5
676
  8
0
 10
236.07679491924321
 20
60.000000000000028
 30
0.0
 11
235.34641015597839
 21
61.265063509461051
 31
0.0
  0
LINE
  5
677
  8
0
 10
234.65358983295079
 20
61.265063509461051
 30
0.0
 11
233.9232050807569
 21
60.000000000000028
 31
0.0
  0
LINE
  5
678
  8
0
 10
231.07679491924321
 20
60.000000000000028
 30
0.0
 11
233.9232050807569
 21
60.000000000000028
 31
0.0
  0
ARC
  5
679
  8
0
 10
229.99999999446459
 20
61.065063509461048
 30
0.0
 40
0.4
 50
30.00000000000108
 51
149.99999999999861
  0
LINE
  5
67A
  8
0
 10
231.07679491924321
 20
60.000000000000028
 30
0.0
 11
230.34641015597839
 21
61.265063509461051
 31
0.0
  0
LINE
  5
67B
  8
0
 10
229.65358983295079
 20
61.265063509461051
 30
0.0
 11
228.9232050807569
 21
60.000000000000028
 31
0.0
  0
LINE
  5
67C
  8
0
 10
226.07679491924321
 20
60.000000000000028
 30
0.0
 11
228.9232050807569
 21
60.000000000000028
 31
0.0
  0
ARC
  5
67D
  8
0
 10
224.99999999446459
 20
61.065063509461048
 30
0.0
 40
0.4
 50
30.00000000000108
 51
149.99999999999861
  0
LINE
  5
67E
  8
0
 10
226.07679491924321
 20
60.000000000000028
 30
0.0
 11
225.3464101559785
 21
61.265063509461051
 31
0.0
  0
LINE
  5
67F
  8
0
 10
224.65358983295079
 20
61.265063509461051
 30
0.0
 11
223.9232050807569
 21
60.000000000000028
 31
0.0
  0
LINE
  5
680
  8
0
 10
221.07679491924321
 20
60.000000000000028
 30
0.0
 11
223.9232050807569
 21
60.000000000000028
 31
0.0
  0
ARC
  5
681
  8
0
 10
219.99999999446459
 20
61.065063509461048
 30
0.0
 40
0.4
 50
30.00000000000108
 51
149.99999999999861
  0
LINE
  5
682
  8
0
 10
221.07679491924321
 20
60.000000000000028
 30
0.0
 11
220.34641015597839
 21
61.265063509461051
 31
0.0
  0
LINE
  5
683
  8
0
 10
219.65358983295079
 20
61.265063509461051
 30
0.0
 11
218.9232050807569
 21
60.000000000000028
 31
0.0
  0
LINE
  5
684
  8
0
 10
216.07679491924321
 20
60.000000000000028
 30
0.0
 11
218.9232050807569
 21
60.000000000000028
 31
0.0
  0
ARC
  5
685
  8
0
 10
214.99999999446459
 20
61.065063509461048
 30
0.0
 40
0.4
 50
30.00000000000108
 51
149.99999999999861
  0
LINE
  5
686
  8
0
 10
216.07679491924321
 20
60.000000000000028
 30
0.0
 11
215.3464101559785
 21
61.265063509461051
 31
0.0
  0
LINE
  5
687
  8
0
 10
214.6535898329509
 20
61.265063509461051
 30
0.0
 11
213.9232050807569
 21
60.000000000000028
 31
0.0
  0
LINE
  5
688
  8
0
 10
211.07679491924321
 20
60.000000000000028
 30
0.0
 11
213.9232050807569
 21
60.000000000000028
 31
0.0
  0
ARC
  5
689
  8
0
 10
209.99999999446459
 20
61.065063509461048
 30
0.0
 40
0.4
 50
30.00000000000108
 51
149.99999999999861
  0
LINE
  5
68A
  8
0
 10
211.07679491924321
 20
60.000000000000028
 30
0.0
 11
210.34641015597839
 21
61.265063509461051
 31
0.0
  0
LINE
  5
68B
  8
0
 10
209.65358983295079
 20
61.265063509461051
 30
0.0
 11
208.9232050807569
 21
60.000000000000028
 31
0.0
  0
LINE
  5
68C
  8
0
 10
206.07679491924321
 20
60.000000000000028
 30
0.0
 11
208.9232050807569
 21
60.000000000000028
 31
0.0
  0
ARC
  5
68D
  8
0
 10
204.99999999446459
 20
61.065063509461048
 30
0.0
 40
0.4
 50
30.00000000000108
 51
149.99999999999861
  0
LINE
  5
68E
  8
0
 10
206.07679491924321
 20
60.000000000000028
 30
0.0
 11
205.34641015597839
 21
61.265063509461051
 31
0.0
  0
LINE
  5
68F
  8
0
 10
204.65358983295079
 20
61.265063509461051
 30
0.0
 11
203.9232050807569
 21
60.000000000000028
 31
0.0
  0
LINE
  5
690
  8
0
 10
201.07679491924321
 20
60.000000000000028
 30
0.0
 11
203.9232050807569
 21
60.000000000000028
 31
0.0
  0
ARC
  5
691
  8
0
 10
199.99999999446459
 20
61.065063509461048
 30
0.0
 40
0.4
 50
30.00000000000108
 51
149.99999999999861
  0
LINE
  5
692
  8
0
 10
201.07679491924321
 20
60.000000000000028
 30
0.0
 11
200.3464101559785
 21
61.265063509461051
 31
0.0
  0
LINE
  5
693
  8
0
 10
199.65358983295079
 20
61.265063509461051
 30
0.0
 11
198.9232050807569
 21
60.000000000000028
 31
0.0
  0
LINE
  5
694
  8
0
 10
196.07679491924321
 20
60.000000000000028
 30
0.0
 11
198.9232050807569
 21
60.000000000000028
 31
0.0
  0
ARC
  5
695
  8
0
 10
194.99999999446459
 20
61.065063509461048
 30
0.0
 40
0.4
 50
30.00000000000108
 51
149.99999999999861
  0
LINE
  5
696
  8
0
 10
196.07679491924321
 20
60.000000000000028
 30
0.0
 11
195.34641015597839
 21
61.265063509461051
 31
0.0
  0
LINE
  5
697
  8
0
 10
194.65358983295079
 20
61.265063509461051
 30
0.0
 11
193.9232050807569
 21
60.000000000000028
 31
0.0
  0
LINE
  5
698
  8
0
 10
191.07679491924321
 20
60.000000000000028
 30
0.0
 11
193.9232050807569
 21
60.000000000000028
 31
0.0
  0
ARC
  5
699
  8
0
 10
189.99999999446459
 20
61.065063509461048
 30
0.0
 40
0.4
 50
30.00000000000108
 51
149.99999999999861
  0
LINE
  5
69A
  8
0
 10
191.07679491924321
 20
60.000000000000028
 30
0.0
 11
190.34641015597839
 21
61.265063509461051
 31
0.0
  0
LINE
  5
69B
  8
0
 10
189.65358983295079
 20
61.265063509461051
 30
0.0
 11
188.9232050807569
 21
60.000000000000028
 31
0.0
  0
LINE
  5
69C
  8
0
 10
186.07679491924321
 20
60.000000000000028
 30
0.0
 11
188.9232050807569
 21
60.000000000000028
 31
0.0
  0
ARC
  5
69D
  8
0
 10
184.99999999446459
 20
61.065063509461048
 30
0.0
 40
0.4
 50
30.00000000000108
 51
149.99999999999861
  0
LINE
  5
69E
  8
0
 10
186.07679491924321
 20
60.000000000000028
 30
0.0
 11
185.34641015597839
 21
61.265063509461051
 31
0.0
  0
LINE
  5
69F
  8
0
 10
184.65358983295079
 20
61.265063509461051
 30
0.0
 11
183.9232050807569
 21
60.000000000000028
 31
0.0
  0
LINE
  5
6A0
  8
0
 10
181.0767949192431
 20
60.000000000000028
 30
0.0
 11
183.9232050807569
 21
60.000000000000028
 31
0.0
  0
ARC
  5
6A1
  8
0
 10
179.99999999446459
 20
61.065063509461048
 30
0.0
 40
0.4
 50
30.00000000000108
 51
149.99999999999861
  0
LINE
  5
6A2
  8
0
 10
181.0767949192431
 20
60.000000000000028
 30
0.0
 11
180.34641015597839
 21
61.265063509461051
 31
0.0
  0
LINE
  5
6A3
  8
0
 10
179.65358983295079
 20
61.265063509461051
 30
0.0
 11
178.9232050807569
 21
60.000000000000028
 31
0.0
  0
LINE
  5
6A4
  8
0
 10
176.07679491924321
 20
60.000000000000028
 30
0.0
 11
178.9232050807569
 21
60.000000000000028
 31
0.0
  0
ARC
  5
6A5
  8
0
 10
174.99999999446459
 20
61.065063509461048
 30
0.0
 40
0.4
 50
30.00000000000108
 51
149.99999999999861
  0
LINE
  5
6A6
  8
0
 10
176.07679491924321
 20
60.000000000000028
 30
0.0
 11
175.34641015597839
 21
61.265063509461051
 31
0.0
  0
LINE
  5
6A7
  8
0
 10
174.65358983295079
 20
61.265063509461051
 30
0.0
 11
173.9232050807569
 21
60.000000000000028
 31
0.0
  0
LINE
  5
6A8
  8
0
 10
171.07679491924321
 20
60.000000000000028
 30
0.0
 11
173.9232050807569
 21
60.000000000000028
 31
0.0
  0
ARC
  5
6A9
  8
0
 10
169.99999999446459
 20
61.065063509461048
 30
0.0
 40
0.4
 50
30.00000000000108
 51
149.99999999999861
  0
LINE
  5
6AA
  8
0
 10
171.07679491924321
 20
60.000000000000028
 30
0.0
 11
170.34641015597839
 21
61.265063509461051
 31
0.0
  0
LINE
  5
6AB
  8
0
 10
169.65358983295079
 20
61.265063509461051
 30
0.0
 11
168.9232050807569
 21
60.000000000000028
 31
0.0
  0
LINE
  5
6C4
  8
1
 10
197.49999999999989
 20
92.500000000000028
 30
0.0
 11
197.49999999999989
 21
57.500000000000028
 31
0.0
  0
LINE
  5
6C5
  8
1
 10
227.49999999999989
 20
92.500000000000028
 30
0.0
 11
227.49999999999989
 21
57.500000000000028
 31
0.0
  0
ARC
  5
6C6
  8
0
 10
237.0
 20
156.0
 30
0.0
 40
8.0
 50
270.0
 51
0.0
  0
ARC
  5
6C7
  8
0
 10
237.0
 20
180.0
 30
0.0
 40
8.0
 50
0.0
 51
90.0
  0
LINE
  5
6C8
  8
0
 10
227.5
 20
155.0
 30
0.0
 11
197.5
 21
155.0
 31
0.0
  0
LINE
  5
6C9
  8
0
 10
197.5
 20
181.0
 30
0.0
 11
227.5
 21
181.0
 31
0.0
  0
ARC
  5
6CA
  8
0
 10
197.5
 20
168.0
 30
0.0
 40
13.0
 50
90.0
 51
270.0
  0
LINE
  5
6CB
  8
1
 10
197.5
 20
183.5
 30
0.0
 11
197.49999999999989
 21
152.5
 31
0.0
  0
ARC
  5
6CC
  8
0
 10
227.5
 20
168.0
 30
0.0
 40
13.0
 50
270.0
 51
90.0
  0
LINE
  5
6CD
  8
1
 10
227.5
 20
183.5
 30
0.0
 11
227.49999999999989
 21
152.5
 31
0.0
  0
ARC
  5
6CE
  8
0
 10
241.0
 20
86.0
 30
0.0
 40
4.0
 50
0.0
 51
90.0
  0
LINE
  5
6CF
  8
0
 10
60.0
 20
62.0
 30
0.0
 11
61.154700538379302
 21
60.0
 31
0.0
  0
LINE
  5
6D0
  8
0
 10
60.0
 20
62.0
 30
0.0
 11
60.0
 21
94.0
 31
0.0
  0
LINE
  5
6D1
  8
0
 10
61.0
 20
62.0
 30
0.0
 11
60.0
 21
63.0
 31
0.0
  0
LINE
  5
6D2
  8
0
 10
99.0
 20
62.0
 30
0.0
 11
100.0
 21
63.0
 31
0.0
  0
LINE
  5
6D3
  8
0
 10
100.0
 20
62.0
 30
0.0
 11
98.845299461620698
 21
60.0
 31
0.0
  0
LINE
  5
6D4
  8
0
 10
61.0
 20
62.0
 30
0.0
 11
99.0
 21
62.0
 31
0.0
  0
LINE
  5
6D5
  8
0
 10
241.0
 20
90.0
 30
0.0
 11
180.5
 21
90.0
 31
0.0
  0
LINE
  5
6D6
  8
0
 10
245.0
 20
62.0
 30
0.0
 11
245.0
 21
86.0
 31
0.0
  0
LINE
  5
6D7
  8
0
 10
237.0
 20
148.0
 30
0.0
 11
152.0
 21
147.99999999999989
 31
0.0
  0
LINE
  5
6D8
  8
0
 10
245.0
 20
180.0
 30
0.0
 11
245.0
 21
156.0
 31
0.0
  0
LINE
  5
6D9
  8
0
 10
100.0
 20
62.0
 30
0.0
 11
100.0
 21
94.0
 31
0.0
  0
LINE
  5
6DA
  8
0
 10
61.154700538379302
 20
60.0
 30
0.0
 11
98.845299461620698
 21
60.0
 31
0.0
  0
LINE
  5
6DB
  8
1
 10
80.0
 20
55.000000000000028
 30
0.0
 11
80.0
 21
103.0
 31
0.0
  0
LINE
  5
6DF
  8
0
 10
180.0
 20
187.5
 30
0.0
 11
180.5
 21
187.99999999999989
 31
0.0
  0
LINE
  5
6E0
  8
0
 10
180.0
 20
187.5
 30
0.0
 11
180.0
 21
148.49999999999989
 31
0.0
  0
LINE
  5
6E1
  8
0
 10
180.0
 20
148.49999999999989
 30
0.0
 11
180.5
 21
147.99999999999989
 31
0.0
  0
LINE
  5
6E2
  8
1
 10
179.0
 20
156.0
 30
0.0
 11
163.0
 21
156.0
 31
0.0
  0
LINE
  5
6E3
  8
1
 10
171.0
 20
164.0
 30
0.0
 11
171.0
 21
148.0
 31
0.0
  0
LINE
  5
6E4
  8
1
 10
179.0
 20
180.0
 30
0.0
 11
163.0
 21
180.0
 31
0.0
  0
LINE
  5
6E5
  8
1
 10
171.0
 20
172.0
 30
0.0
 11
171.0
 21
188.0
 31
0.0
  0
LINE
  5
6E6
  8
0
 10
165.0
 20
62.0
 30
0.0
 11
165.0
 21
73.0
 31
0.0
  0
LINE
  5
6E7
  8
0
 10
180.0
 20
75.0
 30
0.0
 11
180.0
 21
89.500000000000014
 31
0.0
  0
ARC
  5
6E8
  8
0
 10
225.0
 20
74.0
 30
0.0
 40
9.0
 50
270.0
 51
90.0
  0
ARC
  5
6E9
  8
0
 10
195.0
 20
74.0
 30
0.0
 40
9.0
 50
90.0
 51
270.0
  0
LINE
  5
6EA
  8
0
 10
165.0
 20
62.0
 30
0.0
 11
167.0
 21
60.000000000000028
 31
0.0
  0
LINE
  5
6EB
  8
0
 10
195.0
 20
83.0
 30
0.0
 11
225.0
 21
83.0
 31
0.0
  0
LINE
  5
6EC
  8
0
 10
195.0
 20
81.0
 30
0.0
 11
225.0
 21
81.0
 31
0.0
  0
LINE
  5
6ED
  8
0
 10
195.0
 20
65.0
 30
0.0
 11
225.0
 21
65.0
 31
0.0
  0
LINE
  5
6EE
  8
0
 10
166.0
 20
74.0
 30
0.0
 11
165.0
 21
73.0
 31
0.0
  0
LINE
  5
6EF
  8
0
 10
180.0
 20
72.000000000000085
 30
0.0
 11
178.0
 21
74.000000000000085
 31
0.0
  0
LINE
  5
6F0
  8
0
 10
182.0
 20
74.000000000000057
 30
0.0
 11
180.0
 21
72.000000000000057
 31
0.0
  0
LINE
  5
6F1
  8
0
 10
180.0
 20
75.999999999999943
 30
0.0
 11
182.0
 21
73.999999999999943
 31
0.0
  0
LINE
  5
6F2
  8
0
 10
180.5
 20
90.0
 30
0.0
 11
180.0
 21
89.500000000000014
 31
0.0
  0
LINE
  5
6F6
  8
0
 10
167.0
 20
60.000000000000028
 30
0.0
 11
168.9232050807569
 21
60.000000000000028
 31
0.0
  0
LINE
  5
6F7
  8
0
 10
165.0
 20
61.999999999999943
 30
0.0
 11
245.0
 21
62.0
 31
0.0
  0
LINE
  5
6F8
  8
0
 10
166.0
 20
74.0
 30
0.0
 11
179.0
 21
74.0
 31
0.0
  0
ARC
  5
6FE
  8
0
 10
225.0
 20
74.0
 30
0.0
 40
7.0
 50
270.0
 51
90.0
  0
LINE
  5
6FF
  8
0
 10
195.00000000000011
 20
67.0
 30
0.0
 11
225.0
 21
67.0
 31
0.0
  0
ARC
  5
700
  8
0
 10
195.00000000000011
 20
74.0
 30
0.0
 40
7.0
 50
90.0
 51
270.0
  0
LINE
  5
701
  8
1
 10
171.0
 20
188.0
 30
0.0
 11
171.0
 21
172.0
 31
0.0
  0
LINE
  5
702
  8
1
 10
171.0
 20
148.0
 30
0.0
 11
171.0
 21
164.0
 31
0.0
  0
CIRCLE
  5
703
  8
0
 10
171.0
 20
180.0
 30
0.0
 40
5.5
  0
LINE
  5
704
  8
1
 10
163.0
 20
180.0
 30
0.0
 11
179.0
 21
180.0
 31
0.0
  0
LINE
  5
705
  8
1
 10
163.0
 20
156.0
 30
0.0
 11
179.0
 21
156.0
 31
0.0
  0
CIRCLE
  5
706
  8
0
 10
171.0
 20
156.0
 30
0.0
 40
5.5
  0
LINE
  5
707
  8
0
 10
179.5
 20
188.0
 30
0.0
 11
180.0
 21
187.5
 31
0.0
  0
LINE
  5
708
  8
0
 10
179.5
 20
148.0
 30
0.0
 11
180.0
 21
148.5
 31
0.0
  0
LINE
  5
709
  8
0
 10
180.0
 20
187.5
 30
0.0
 11
180.0
 21
148.5
 31
0.0
  0
CIRCLE
  5
70A
  8
0
 10
171.0
 20
156.0
 30
0.0
 40
5.0
  0
LINE
  5
70B
  8
0
 10
171.0
 20
158.5
 30
0.0
 11
168.83493649053889
 21
157.25
 31
0.0
  0
LINE
  5
70C
  8
0
 10
168.83493649053889
 20
157.24999999999989
 30
0.0
 11
168.83493649053889
 21
154.74999999999989
 31
0.0
  0
LINE
  5
70D
  8
0
 10
168.83493649053889
 20
154.74999999999989
 30
0.0
 11
171.0
 21
153.5
 31
0.0
  0
LINE
  5
70E
  8
0
 10
171.0
 20
153.5
 30
0.0
 11
173.16506350946111
 21
154.75
 31
0.0
  0
LINE
  5
70F
  8
0
 10
173.16506350946111
 20
154.75
 30
0.0
 11
173.16506350946111
 21
157.25
 31
0.0
  0
LINE
  5
710
  8
0
 10
173.16506350946111
 20
157.25000000000011
 30
0.0
 11
170.99999999999989
 21
158.5
 31
0.0
  0
LINE
  5
711
  8
0
 10
171.0
 20
177.5
 30
0.0
 11
168.83493649053889
 21
178.75
 31
0.0
  0
LINE
  5
712
  8
0
 10
168.83493649053889
 20
178.75
 30
0.0
 11
168.83493649053889
 21
181.25
 31
0.0
  0
LINE
  5
713
  8
0
 10
168.83493649053889
 20
181.25
 30
0.0
 11
171.0
 21
182.5
 31
0.0
  0
LINE
  5
714
  8
0
 10
171.0
 20
182.5
 30
0.0
 11
173.16506350946111
 21
181.25
 31
0.0
  0
LINE
  5
715
  8
0
 10
173.16506350946111
 20
181.25
 30
0.0
 11
173.16506350946111
 21
178.74999999999989
 31
0.0
  0
LINE
  5
716
  8
0
 10
173.16506350946111
 20
178.74999999999989
 30
0.0
 11
170.99999999999989
 21
177.49999999999989
 31
0.0
  0
CIRCLE
  5
717
  8
0
 10
171.0
 20
180.0
 30
0.0
 40
5.0
  0
LINE
  5
718
  8
0
 10
163.23223304703359
 20
74.0
 30
0.0
 11
165.0
 21
75.767766952966383
 31
0.0
  0
LINE
  5
719
  8
0
 10
165.0
 20
75.767766952966383
 30
0.0
 11
166.76776695296641
 21
74.0
 31
0.0
  0
LINE
  5
71A
  8
0
 10
165.0
 20
72.232233047033645
 30
0.0
 11
163.23223304703359
 21
74.0
 31
0.0
  0
LINE
  5
71B
  8
0
 10
164.5
 20
62.0
 30
0.0
 11
165.0
 21
62.5
 31
0.0
  0
LINE
  5
71C
  8
0
 10
180.0
 20
75.0
 30
0.0
 11
179.0
 21
74.0
 31
0.0
  0
LINE
  5
71D
  8
0
 10
179.5
 20
90.0
 30
0.0
 11
180.0
 21
89.500000000000014
 31
0.0
  0
LINE
  5
71E
  8
1
 10
171.0
 20
92.500000000000028
 30
0.0
 11
171.0
 21
57.500000000000028
 31
0.0
  0
LINE
  5
765
  8
0
 10
152.14631733338999
 20
186.0
 30
0.0
 11
152.14631733338999
 21
169.85368266661001
 31
0.0
  0
LINE
  5
766
  8
0
 10
152.14631733338999
 20
150.0
 30
0.0
 11
152.14631733338999
 21
166.1463173333899
 31
0.0
  0
LINE
  5
767
  8
0
 10
158.84441038918331
 20
149.99999999999989
 30
0.0
 11
158.84441038918331
 21
185.99999999999989
 31
0.0
  0
LINE
  5
768
  8
0
 10
150.0
 20
171.99999999999989
 30
0.0
 11
150.0
 21
185.99999999999989
 31
0.0
  0
LINE
  5
769
  8
0
 10
153.99999999999989
 20
167.99999999999989
 30
0.0
 11
150.0
 21
163.99999999999989
 31
0.0
  0
LINE
  5
76A
  8
0
 10
150.0
 20
171.99999999999989
 30
0.0
 11
153.99999999999989
 21
167.99999999999989
 31
0.0
  0
ARC
  5
76B
  8
0
 10
152.0
 20
149.99999999999989
 30
0.0
 40
2.0
 50
180.0
 51
270.0
  0
ARC
  5
76C
  8
0
 10
152.0
 20
185.99999999999989
 30
0.0
 40
2.0
 50
90.0
 51
180.0
  0
LINE
  5
76D
  8
0
 10
150.0
 20
149.99999999999989
 30
0.0
 11
150.0
 21
163.99999999999989
 31
0.0
  0
LINE
  5
76E
  8
0
 10
152.0
 20
187.99999999999989
 30
0.0
 11
237.0
 21
188.0
 31
0.0
  0
LINE
  5
76F
  8
1
 10
145.0
 20
168.0
 30
0.0
 11
250.0
 21
168.0
 31
0.0
  0
LINE
  5
776
  8
0
 10
150.0
 20
89.746808559885139
 30
0.0
 11
152.5
 21
91.497327405409393
 31
0.0
  0
LINE
  5
777
  8
0
 10
152.5
 20
88.245991108114083
 30
0.0
 11
150.0
 21
88.686808559885151
 31
0.0
  0
LINE
  5
778
  8
0
 10
150.0
 20
88.686808559885151
 30
0.0
 11
150.0
 21
89.746808559885139
 31
0.0
  0
LINE
  5
779
  8
0
 10
150.0
 20
92.998144857180435
 30
0.0
 11
152.5
 21
94.748663702704746
 31
0.0
  0
LINE
  5
77A
  8
0
 10
152.5
 20
91.497327405409379
 30
0.0
 11
150.0
 21
91.938144857180447
 31
0.0
  0
LINE
  5
77B
  8
0
 10
150.0
 20
91.938144857180447
 30
0.0
 11
150.0
 21
92.998144857180435
 31
0.0
  0
LINE
  5
77C
  8
0
 10
152.5
 20
98.0
 30
0.0
 11
158.1039219456288
 21
98.0
 31
0.0
  0
LINE
  5
77D
  8
0
 10
150.0
 20
96.249481154475745
 30
0.0
 11
152.5
 21
98.000000000000043
 31
0.0
  0
ARC
  5
77E
  8
0
 10
178.5
 20
120.0
 30
0.0
 40
30.0
 50
227.16657193393371
 51
270.0
  0
LINE
  5
77F
  8
0
 10
150.0
 20
95.189481154475743
 30
0.0
 11
150.0
 21
96.249481154475745
 31
0.0
  0
LINE
  5
780
  8
0
 10
152.5
 20
94.748663702704675
 30
0.0
 11
150.0
 21
95.189481154475743
 31
0.0
  0
LINE
  5
781
  8
0
 10
179.5
 20
90.0
 30
0.0
 11
180.0
 21
89.500000000000014
 31
0.0
  0
LINE
  5
782
  8
0
 10
179.5
 20
90.0
 30
0.0
 11
178.5
 21
90.0
 31
0.0
  0
LINE
  5
783
  8
0
 10
150.0
 20
62.676118181522668
 30
0.0
 11
153.83445675078241
 21
62.0
 31
0.0
  0
LINE
  5
784
  8
0
 10
150.0
 20
63.73611818152267
 30
0.0
 11
152.5
 21
65.486637027046925
 31
0.0
  0
LINE
  5
785
  8
0
 10
150.0
 20
62.676118181522668
 30
0.0
 11
150.0
 21
63.73611818152267
 31
0.0
  0
LINE
  5
786
  8
0
 10
150.0
 20
66.987454478817966
 30
0.0
 11
152.5
 21
68.737973324342249
 31
0.0
  0
LINE
  5
787
  8
0
 10
152.5
 20
65.486637027046896
 30
0.0
 11
150.0
 21
65.927454478817964
 31
0.0
  0
LINE
  5
788
  8
0
 10
150.0
 20
65.927454478817964
 30
0.0
 11
150.0
 21
66.987454478817966
 31
0.0
  0
LINE
  5
789
  8
0
 10
150.0
 20
70.238790776113262
 30
0.0
 11
152.5
 21
71.989309621637545
 31
0.0
  0
LINE
  5
78A
  8
0
 10
152.5
 20
68.737973324342192
 30
0.0
 11
150.0
 21
69.17879077611326
 31
0.0
  0
LINE
  5
78B
  8
0
 10
150.0
 20
69.17879077611326
 30
0.0
 11
150.0
 21
70.238790776113262
 31
0.0
  0
LINE
  5
78C
  8
0
 10
150.0
 20
73.490127073408587
 30
0.0
 11
152.5
 21
75.240645918932842
 31
0.0
  0
LINE
  5
78D
  8
0
 10
152.5
 20
71.989309621637517
 30
0.0
 11
150.0
 21
72.430127073408585
 31
0.0
  0
LINE
  5
78E
  8
0
 10
150.0
 20
72.430127073408585
 30
0.0
 11
150.0
 21
73.490127073408587
 31
0.0
  0
LINE
  5
78F
  8
0
 10
150.0
 20
76.741463370703912
 30
0.0
 11
152.5
 21
78.491982216228166
 31
0.0
  0
LINE
  5
790
  8
0
 10
152.5
 20
75.240645918932842
 30
0.0
 11
150.0
 21
75.681463370703909
 31
0.0
  0
LINE
  5
791
  8
0
 10
150.0
 20
75.681463370703909
 30
0.0
 11
150.0
 21
76.741463370703912
 31
0.0
  0
LINE
  5
792
  8
0
 10
150.0
 20
79.992799667999208
 30
0.0
 11
152.5
 21
81.743318513523491
 31
0.0
  0
LINE
  5
793
  8
0
 10
152.5
 20
78.491982216228124
 30
0.0
 11
150.0
 21
78.932799667999205
 31
0.0
  0
LINE
  5
794
  8
0
 10
150.0
 20
78.932799667999205
 30
0.0
 11
150.0
 21
79.992799667999208
 31
0.0
  0
LINE
  5
795
  8
0
 10
150.0
 20
83.244135965294504
 30
0.0
 11
152.5
 21
84.994654810818787
 31
0.0
  0
LINE
  5
796
  8
0
 10
152.5
 20
81.743318513523434
 30
0.0
 11
150.0
 21
82.184135965294487
 31
0.0
  0
LINE
  5
797
  8
0
 10
150.0
 20
82.184135965294487
 30
0.0
 11
150.0
 21
83.244135965294504
 31
0.0
  0
LINE
  5
798
  8
0
 10
150.0
 20
86.495472262589828
 30
0.0
 11
152.5
 21
88.245991108114083
 31
0.0
  0
LINE
  5
799
  8
0
 10
152.5
 20
84.994654810818744
 30
0.0
 11
150.0
 21
85.435472262589826
 31
0.0
  0
LINE
  5
79A
  8
0
 10
150.0
 20
85.435472262589826
 30
0.0
 11
150.0
 21
86.495472262589828
 31
0.0
  0
LINE
  5
79C
  8
0
 10
153.83445675078241
 20
62.0
 30
0.0
 11
164.5
 21
62.0
 31
0.0
  0
LINE
  5
79D
  8
0
 10
153.83445675078241
 20
62.0
 30
0.0
 11
164.5
 21
62.0
 31
0.0
  0
LINE
  5
7AA
  8
0
 10
80.0
 20
62.0
 30
0.0
 11
80.0
 21
98.0
 31
0.0
  0
LINE
  5
7AB
  8
0
 10
98.0
 20
63.73611818152267
 30
0.0
 11
84.0
 21
63.73611818152267
 31
0.0
  0
LINE
  5
7AC
  8
0
 10
98.0
 20
62.676118181522639
 30
0.0
 11
84.0
 21
62.676118181522639
 31
0.0
  0
LINE
  5
7AD
  8
0
 10
98.0
 20
66.987454478817966
 30
0.0
 11
84.0
 21
66.987454478817966
 31
0.0
  0
LINE
  5
7AE
  8
0
 10
98.0
 20
65.927454478817936
 30
0.0
 11
84.0
 21
65.927454478817936
 31
0.0
  0
LINE
  5
7AF
  8
0
 10
98.0
 20
70.238790776113262
 30
0.0
 11
84.0
 21
70.238790776113262
 31
0.0
  0
LINE
  5
7B0
  8
0
 10
98.0
 20
69.17879077611326
 30
0.0
 11
84.0
 21
69.17879077611326
 31
0.0
  0
LINE
  5
7B1
  8
0
 10
98.0
 20
73.490127073408587
 30
0.0
 11
84.0
 21
73.490127073408587
 31
0.0
  0
LINE
  5
7B2
  8
0
 10
98.0
 20
72.430127073408585
 30
0.0
 11
84.0
 21
72.430127073408585
 31
0.0
  0
LINE
  5
7B3
  8
0
 10
98.0
 20
76.741463370703912
 30
0.0
 11
84.0
 21
76.741463370703912
 31
0.0
  0
LINE
  5
7B4
  8
0
 10
98.0
 20
75.681463370703881
 30
0.0
 11
84.0
 21
75.681463370703881
 31
0.0
  0
LINE
  5
7B5
  8
0
 10
98.0
 20
79.992799667999208
 30
0.0
 11
84.0
 21
79.992799667999208
 31
0.0
  0
LINE
  5
7B6
  8
0
 10
98.0
 20
78.932799667999177
 30
0.0
 11
84.0
 21
78.932799667999177
 31
0.0
  0
LINE
  5
7B7
  8
0
 10
98.0
 20
83.244135965294504
 30
0.0
 11
84.0
 21
83.244135965294504
 31
0.0
  0
LINE
  5
7B8
  8
0
 10
98.0
 20
82.184135965294487
 30
0.0
 11
84.0
 21
82.184135965294487
 31
0.0
  0
LINE
  5
7B9
  8
0
 10
98.0
 20
86.495472262589828
 30
0.0
 11
84.0
 21
86.495472262589828
 31
0.0
  0
LINE
  5
7BA
  8
0
 10
98.0
 20
85.435472262589826
 30
0.0
 11
84.0
 21
85.435472262589826
 31
0.0
  0
LINE
  5
7BB
  8
0
 10
98.0
 20
89.746808559885139
 30
0.0
 11
84.0
 21
89.746808559885139
 31
0.0
  0
LINE
  5
7BC
  8
0
 10
98.0
 20
88.686808559885137
 30
0.0
 11
84.0
 21
88.686808559885137
 31
0.0
  0
LINE
  5
7BD
  8
0
 10
98.0
 20
92.998144857180435
 30
0.0
 11
84.0
 21
92.998144857180435
 31
0.0
  0
LINE
  5
7BE
  8
0
 10
98.0
 20
91.938144857180404
 30
0.0
 11
84.0
 21
91.938144857180404
 31
0.0
  0
LINE
  5
7BF
  8
0
 10
98.0
 20
95.189481154475743
 30
0.0
 11
84.0
 21
95.189481154475743
 31
0.0
  0
LINE
  5
7C0
  8
0
 10
84.0
 20
62.0
 30
0.0
 11
84.0
 21
98.0
 31
0.0
  0
LINE
  5
7C1
  8
0
 10
98.0
 20
96.249481154475745
 30
0.0
 11
84.0
 21
96.249481154475745
 31
0.0
  0
LINE
  5
7C2
  8
0
 10
62.0
 20
96.249481154475745
 30
0.0
 11
76.0
 21
96.249481154475745
 31
0.0
  0
LINE
  5
7C3
  8
0
 10
62.0
 20
95.189481154475743
 30
0.0
 11
76.0
 21
95.189481154475743
 31
0.0
  0
LINE
  5
7C4
  8
0
 10
62.0
 20
91.938144857180404
 30
0.0
 11
76.0
 21
91.938144857180404
 31
0.0
  0
LINE
  5
7C5
  8
0
 10
62.0
 20
92.998144857180435
 30
0.0
 11
76.0
 21
92.998144857180435
 31
0.0
  0
LINE
  5
7C6
  8
0
 10
62.0
 20
88.686808559885137
 30
0.0
 11
76.0
 21
88.686808559885137
 31
0.0
  0
LINE
  5
7C7
  8
0
 10
62.0
 20
89.746808559885139
 30
0.0
 11
76.0
 21
89.746808559885139
 31
0.0
  0
LINE
  5
7C8
  8
0
 10
62.0
 20
85.435472262589826
 30
0.0
 11
76.0
 21
85.435472262589826
 31
0.0
  0
LINE
  5
7C9
  8
0
 10
62.0
 20
86.495472262589828
 30
0.0
 11
76.0
 21
86.495472262589828
 31
0.0
  0
LINE
  5
7CA
  8
0
 10
62.0
 20
82.184135965294487
 30
0.0
 11
76.0
 21
82.184135965294487
 31
0.0
  0
LINE
  5
7CB
  8
0
 10
62.0
 20
83.244135965294504
 30
0.0
 11
76.0
 21
83.244135965294504
 31
0.0
  0
LINE
  5
7CC
  8
0
 10
62.0
 20
78.932799667999177
 30
0.0
 11
76.0
 21
78.932799667999177
 31
0.0
  0
LINE
  5
7CD
  8
0
 10
62.0
 20
79.992799667999208
 30
0.0
 11
76.0
 21
79.992799667999208
 31
0.0
  0
LINE
  5
7CE
  8
0
 10
62.0
 20
75.681463370703881
 30
0.0
 11
76.0
 21
75.681463370703881
 31
0.0
  0
LINE
  5
7CF
  8
0
 10
62.0
 20
76.741463370703912
 30
0.0
 11
76.0
 21
76.741463370703912
 31
0.0
  0
LINE
  5
7D0
  8
0
 10
62.0
 20
72.430127073408585
 30
0.0
 11
76.0
 21
72.430127073408585
 31
0.0
  0
LINE
  5
7D1
  8
0
 10
62.0
 20
73.490127073408587
 30
0.0
 11
76.0
 21
73.490127073408587
 31
0.0
  0
LINE
  5
7D2
  8
0
 10
62.0
 20
69.17879077611326
 30
0.0
 11
76.0
 21
69.17879077611326
 31
0.0
  0
LINE
  5
7D3
  8
0
 10
62.0
 20
70.238790776113262
 30
0.0
 11
76.0
 21
70.238790776113262
 31
0.0
  0
LINE
  5
7D4
  8
0
 10
62.0
 20
65.927454478817936
 30
0.0
 11
76.0
 21
65.927454478817936
 31
0.0
  0
LINE
  5
7D5
  8
0
 10
62.0
 20
66.987454478817966
 30
0.0
 11
76.0
 21
66.987454478817966
 31
0.0
  0
LINE
  5
7D6
  8
0
 10
62.0
 20
62.676118181522639
 30
0.0
 11
76.0
 21
62.676118181522639
 31
0.0
  0
LINE
  5
7D7
  8
0
 10
62.0
 20
63.73611818152267
 30
0.0
 11
76.0
 21
63.73611818152267
 31
0.0
  0
LINE
  5
7D8
  8
0
 10
76.0
 20
62.0
 30
0.0
 11
76.0
 21
98.0
 31
0.0
  0
LINE
  5
7D9
  8
0
 10
96.0
 20
98.0
 30
0.0
 11
64.0
 21
98.0
 31
0.0
  0
ARC
  5
7DA
  8
0
 10
96.0
 20
94.0
 30
0.0
 40
4.0
 50
0.0
 51
90.0
  0
ARC
  5
7DB
  8
0
 10
64.0
 20
94.0
 30
0.0
 40
4.0
 50
90.0
 51
180.0
  0
CIRCLE
  5
7DC
  8
0
 10
197.5
 20
168.0
 30
0.0
 40
8.5
  0
LINE
  5
7DD
  8
0
 10
206.6651513899117
 20
176.5
 30
0.0
 11
227.5
 21
176.5
 31
0.0
  0
ARC
  5
7DE
  8
0
 10
227.5
 20
168.0
 30
0.0
 40
8.5
 50
270.0
 51
90.0
  0
LINE
  5
7DF
  8
0
 10
206.6651513899117
 20
159.5
 30
0.0
 11
227.5
 21
159.5
 31
0.0
  0
CIRCLE
  5
7EF
  8
0
 10
197.5
 20
168.0
 30
0.0
 40
12.5
  0
POLYLINE
  5
85A
  8
3
 66
     1
 10
0.0
 20
0.0
 30
0.0
 70
     1
1001
ACAD
1000
ASC_BOUNDS
1002
{
1070
    19
1005
859
1002
}
  0
VERTEX
  5
C16
  8
3
 10
226.08333333333229
 20
74.000000000000043
 30
0.0
 42
1.0
  0
VERTEX
  5
C17
  8
3
 10
228.7083333333324
 20
74.000000000000043
 30
0.0
 42
1.0
  0
SEQEND
  5
C18
  8
3
  0
POLYLINE
  5
85B
  8
3
 66
     1
 10
0.0
 20
0.0
 30
0.0
 70
     1
1001
ACAD
1000
ASC_BOUNDS
1002
{
1070
    19
1005
859
1002
}
  0
VERTEX
  5
C19
  8
3
 10
230.89583333333221
 20
74.000000000000043
 30
0.0
 42
1.0
  0
VERTEX
  5
C1A
  8
3
 10
223.89583333333229
 20
74.000000000000043
 30
0.0
 42
1.0
  0
SEQEND
  5
C1B
  8
3
  0
POLYLINE
  5
85C
  8
3
 66
     1
 10
0.0
 20
0.0
 30
0.0
 70
     1
1001
ACAD
1000
ASC_BOUNDS
1002
{
1070
    19
1005
859
1002
}
  0
VERTEX
  5
C1C
  8
3
 10
197.92499999999879
 20
76.352655075262774
 30
0.0
  0
VERTEX
  5
C1D
  8
3
 10
197.92499999999879
 20
77.647344924736331
 30
0.0
 42
0.1238822414942591
  0
VERTEX
  5
C1E
  8
3
 10
196.2523542452858
 20
76.999999999999559
 30
0.0
 42
0.1238822414942589
  0
SEQEND
  5
C1F
  8
3
  0
POLYLINE
  5
85D
  8
3
 66
     1
 10
0.0
 20
0.0
 30
0.0
 70
     1
1001
ACAD
1000
ASC_BOUNDS
1002
{
1070
    19
1005
859
1002
}
  0
VERTEX
  5
C20
  8
3
 10
200.49764575471249
 20
76.999999999999559
 30
0.0
 42
0.1238822414942568
  0
VERTEX
  5
C21
  8
3
 10
198.82499999999951
 20
77.647344924736331
 30
0.0
  0
VERTEX
  5
C22
  8
3
 10
198.82499999999951
 20
76.352655075262845
 30
0.0
 42
0.1238822414942573
  0
SEQEND
  5
C23
  8
3
  0
POLYLINE
  5
85E
  8
3
 66
     1
 10
0.0
 20
0.0
 30
0.0
 70
     1
1001
ACAD
1000
ASC_BOUNDS
1002
{
1070
    19
1005
859
1002
}
  0
VERTEX
  5
C24
  8
3
 10
197.92499999999879
 20
73.181846591395313
 30
0.0
 42
-0.0420571628960909
  0
VERTEX
  5
C25
  8
3
 10
197.72569659400901
 20
72.452909732633032
 30
0.0
 42
-0.0111573747896638
  0
VERTEX
  5
C26
  8
3
 10
197.92499999999879
 20
72.47744346698066
 30
0.0
  0
SEQEND
  5
C27
  8
3
  0
POLYLINE
  5
85F
  8
3
 66
     1
 10
0.0
 20
0.0
 30
0.0
 70
     1
1001
ACAD
1000
ASC_BOUNDS
1002
{
1070
    19
1005
859
1002
}
  0
VERTEX
  5
C28
  8
3
 10
198.82499999999951
 20
73.549999999999685
 30
0.0
  0
VERTEX
  5
C29
  8
3
 10
198.82499999999951
 20
72.47744346698066
 30
0.0
 42
-0.1402251973297237
  0
VERTEX
  5
C2A
  8
3
 10
201.12489697516489
 20
71.562031250000544
 30
0.0
 42
0.1517967807321737
  0
VERTEX
  5
C2B
  8
3
 10
202.02234492473539
 20
73.549999999999685
 30
0.0
  0
SEQEND
  5
C2C
  8
3
  0
POLYLINE
  5
860
  8
3
 66
     1
 10
0.0
 20
0.0
 30
0.0
 70
     1
1001
ACAD
1000
ASC_BOUNDS
1002
{
1070
    19
1005
859
1002
}
  0
VERTEX
  5
C2D
  8
3
 10
202.02234492473539
 20
74.450000000000387
 30
0.0
 42
0.1517967807321736
  0
VERTEX
  5
C2E
  8
3
 10
201.12489697516489
 20
76.437968749999541
 30
0.0
 42
-0.1402251973297237
  0
VERTEX
  5
C2F
  8
3
 10
198.82499999999951
 20
75.52255653301934
 30
0.0
  0
VERTEX
  5
C30
  8
3
 10
198.82499999999951
 20
74.450000000000387
 30
0.0
  0
SEQEND
  5
C31
  8
3
  0
POLYLINE
  5
861
  8
3
 66
     1
 10
0.0
 20
0.0
 30
0.0
 70
     1
1001
ACAD
1000
ASC_BOUNDS
1002
{
1070
    19
1005
859
1002
}
  0
VERTEX
  5
C32
  8
3
 10
209.4583333333324
 20
70.500000000000043
 30
0.0
  0
VERTEX
  5
C33
  8
3
 10
209.4583333333324
 20
74.656250000000043
 30
0.0
 42
-1.0
  0
VERTEX
  5
C34
  8
3
 10
210.77083333333229
 20
74.656250000000043
 30
0.0
  0
VERTEX
  5
C35
  8
3
 10
210.77083333333229
 20
70.500000000000043
 30
0.0
  0
VERTEX
  5
C36
  8
3
 10
212.95833333333229
 20
70.500000000000043
 30
0.0
  0
VERTEX
  5
C37
  8
3
 10
212.95833333333229
 20
74.656250000000043
 30
0.0
 42
-1.0
  0
VERTEX
  5
C38
  8
3
 10
214.27083333333229
 20
74.656250000000043
 30
0.0
  0
VERTEX
  5
C39
  8
3
 10
214.27083333333229
 20
70.500000000000043
 30
0.0
  0
VERTEX
  5
C3A
  8
3
 10
216.45833333333229
 20
70.500000000000043
 30
0.0
  0
VERTEX
  5
C3B
  8
3
 10
216.45833333333229
 20
74.656250000000043
 30
0.0
 42
0.6247472440541069
  0
VERTEX
  5
C3C
  8
3
 10
211.8645833333324
 20
76.897770480053666
 30
0.0
 42
0.6247472440541069
  0
VERTEX
  5
C3D
  8
3
 10
207.2708333333324
 20
74.656250000000043
 30
0.0
  0
VERTEX
  5
C3E
  8
3
 10
207.2708333333324
 20
70.500000000000043
 30
0.0
  0
SEQEND
  5
C3F
  8
3
  0
POLYLINE
  5
862
  8
3
 66
     1
 10
0.0
 20
0.0
 30
0.0
 70
     1
1001
ACAD
1000
ASC_BOUNDS
1002
{
1070
    19
1005
859
1002
}
  0
VERTEX
  5
C40
  8
3
 10
197.92499999999879
 20
71.647344924737226
 30
0.0
 42
0.0479752760773671
  0
VERTEX
  5
C41
  8
3
 10
197.23813277862851
 20
71.494732882636342
 30
0.0
 42
-0.0528997705207019
  0
VERTEX
  5
C42
  8
3
 10
196.6292307692305
 20
70.766130059371406
 30
0.0
 42
0.0933324906988985
  0
VERTEX
  5
C43
  8
3
 10
197.92499999999879
 20
70.352655075263741
 30
0.0
  0
SEQEND
  5
C44
  8
3
  0
POLYLINE
  5
863
  8
3
 66
     1
 10
0.0
 20
0.0
 30
0.0
 70
     1
1001
ACAD
1000
ASC_BOUNDS
1002
{
1070
    19
1005
859
1002
}
  0
VERTEX
  5
C45
  8
3
 10
198.82499999999951
 20
71.647344924737226
 30
0.0
  0
VERTEX
  5
C46
  8
3
 10
198.82499999999951
 20
70.352655075263741
 30
0.0
 42
0.1238822414942567
  0
VERTEX
  5
C47
  8
3
 10
200.49764575471249
 20
71.000000000000455
 30
0.0
 42
0.1238822414942571
  0
SEQEND
  5
C48
  8
3
  0
POLYLINE
  5
864
  8
3
 66
     1
 10
0.0
 20
0.0
 30
0.0
 70
     1
1001
ACAD
1000
ASC_BOUNDS
1002
{
1070
    19
1005
859
1002
}
  0
VERTEX
  5
C49
  8
3
 10
206.3958333333324
 20
77.500000000000043
 30
0.0
  0
VERTEX
  5
C4A
  8
3
 10
204.20833333333229
 20
77.500000000000043
 30
0.0
  0
VERTEX
  5
C4B
  8
3
 10
204.20833333333229
 20
70.500000000000043
 30
0.0
  0
VERTEX
  5
C4C
  8
3
 10
206.3958333333324
 20
70.500000000000043
 30
0.0
  0
SEQEND
  5
C4D
  8
3
  0
POLYLINE
  5
865
  8
3
 66
     1
 10
0.0
 20
0.0
 30
0.0
 70
     1
1001
ACAD
1000
ASC_BOUNDS
1002
{
1070
    19
1005
859
1002
}
  0
VERTEX
  5
C4E
  8
3
 10
219.5208333333324
 20
72.031249999999972
 30
0.0
  0
VERTEX
  5
C4F
  8
3
 10
220.8333333333324
 20
72.031250000000043
 30
0.0
  0
VERTEX
  5
C50
  8
3
 10
220.8333333333324
 20
70.500000000000043
 30
0.0
  0
VERTEX
  5
C51
  8
3
 10
223.02083333333229
 20
70.500000000000043
 30
0.0
  0
VERTEX
  5
C52
  8
3
 10
223.02083333333229
 20
74.656250000000043
 30
0.0
 42
1.000000215936474
  0
VERTEX
  5
C53
  8
3
 10
217.3333333333324
 20
74.656250000000043
 30
0.0
  0
VERTEX
  5
C54
  8
3
 10
217.3333333333324
 20
70.500000000000043
 30
0.0
  0
VERTEX
  5
C55
  8
3
 10
219.5208333333324
 20
70.499999999999972
 30
0.0
  0
SEQEND
  5
C56
  8
3
  0
POLYLINE
  5
866
  8
3
 66
     1
 10
0.0
 20
0.0
 30
0.0
 70
     1
1001
ACAD
1000
ASC_BOUNDS
1002
{
1070
    19
1005
859
1002
}
  0
VERTEX
  5
C57
  8
3
 10
220.8333333333324
 20
73.781250000000043
 30
0.0
  0
VERTEX
  5
C58
  8
3
 10
220.8333333333324
 20
74.656250000000043
 30
0.0
 42
1.0000004495664849
  0
VERTEX
  5
C59
  8
3
 10
219.5208333333324
 20
74.656250000000043
 30
0.0
  0
VERTEX
  5
C5A
  8
3
 10
219.5208333333324
 20
73.781250000000043
 30
0.0
  0
SEQEND
  5
C5B
  8
3
  0
POLYLINE
  5
867
  8
3
 66
     1
 10
0.0
 20
0.0
 30
0.0
 70
     1
1001
ACAD
1000
ASC_BOUNDS
1002
{
1070
    19
1005
859
1002
}
  0
VERTEX
  5
C5C
  8
3
 10
195.62510302483329
 20
76.43796874999947
 30
0.0
 42
0.1402251973297244
  0
VERTEX
  5
C5D
  8
3
 10
197.92499999999879
 20
75.52255653301934
 30
0.0
  0
VERTEX
  5
C5E
  8
3
 10
197.92499999999879
 20
74.450000000000387
 30
0.0
  0
VERTEX
  5
C5F
  8
3
 10
197.17499999999961
 20
74.450000000000387
 30
0.0
  0
VERTEX
  5
C60
  8
3
 10
197.17499999999961
 20
74.000000000000043
 30
0.0
 42
-0.378699158263169
  0
VERTEX
  5
C61
  8
3
 10
193.95000000000039
 20
70.352655075263741
 30
0.0
  0
VERTEX
  5
C62
  8
3
 10
193.95000000000039
 20
69.522556533020236
 30
0.0
 42
0.1186144156091118
  0
VERTEX
  5
C63
  8
3
 10
195.9374999999996
 20
70.217329812156237
 30
0.0
 42
1.834021909257185
  0
VERTEX
  5
C64
  8
3
 10
195.9374999999996
 20
77.782670187843834
 30
0.0
 42
1.26915442618927
  0
VERTEX
  5
C65
  8
3
 10
193.0499999999997
 20
69.522556533020236
 30
0.0
  0
VERTEX
  5
C66
  8
3
 10
193.0499999999997
 20
70.352655075263741
 30
0.0
 42
-0.3786991582631508
  0
VERTEX
  5
C67
  8
3
 10
189.8250000000005
 20
73.999999999999773
 30
0.0
  0
VERTEX
  5
C68
  8
3
 10
189.8250000000005
 20
74.450000000000387
 30
0.0
  0
VERTEX
  5
C69
  8
3
 10
190.64999999999989
 20
74.450000000000387
 30
0.0
  0
VERTEX
  5
C6A
  8
3
 10
190.64999999999989
 20
74.000000000000242
 30
0.0
 42
0.3684995607863874
  0
VERTEX
  5
C6B
  8
3
 10
193.0499999999997
 20
71.185750544106
 30
0.0
  0
VERTEX
  5
C6C
  8
3
 10
193.0499999999997
 20
72.025633012836849
 30
0.0
 42
-0.3500011104183812
  0
VERTEX
  5
C6D
  8
3
 10
191.4750000000009
 20
74.000000000000043
 30
0.0
  0
VERTEX
  5
C6E
  8
3
 10
191.4750000000009
 20
74.450000000000387
 30
0.0
  0
VERTEX
  5
C6F
  8
3
 10
192.30000000000049
 20
74.450000000000387
 30
0.0
  0
VERTEX
  5
C70
  8
3
 10
192.30000000000049
 20
73.999999999999972
 30
0.0
 42
0.9999989916437579
  0
VERTEX
  5
C71
  8
3
 10
194.69999999999919
 20
73.99999916505395
 30
0.0
 42
-0.1833501526628178
  0
SEQEND
  5
C72
  8
3
  0
POLYLINE
  5
868
  8
3
 66
     1
 10
0.0
 20
0.0
 30
0.0
 70
     1
1001
ACAD
1000
ASC_BOUNDS
1002
{
1070
    19
1005
859
1002
}
  0
VERTEX
  5
C73
  8
3
 10
196.35000000000031
 20
74.000000000000043
 30
0.0
  0
VERTEX
  5
C74
  8
3
 10
196.35000000000031
 20
74.450000000000387
 30
0.0
  0
VERTEX
  5
C75
  8
3
 10
195.52499999999921
 20
74.450000000000387
 30
0.0
  0
VERTEX
  5
C76
  8
3
 10
195.52499999999921
 20
74.000000000000043
 30
0.0
 42
-0.3500011104183828
  0
VERTEX
  5
C77
  8
3
 10
193.95000000000039
 20
72.025633012836849
 30
0.0
  0
VERTEX
  5
C78
  8
3
 10
193.95000000000039
 20
71.185750544106
 30
0.0
 42
0.3684995607863695
  0
SEQEND
  5
C79
  8
3
  0
LINE
  5
B6F
  8
2
 10
240.5
 20
90.0
 30
0.0
 11
240.5
 21
74.500000000000014
 31
0.0
  0
LINE
  5
B70
  8
2
 10
236.0
 20
60.133012701892341
 30
0.0
 11
236.0
 21
74.500000000000014
 31
0.0
  0
LINE
  5
B71
  8
2
 10
210.0
 20
75.000000000000028
 30
0.0
 11
210.0
 21
78.000000000000028
 31
0.0
  0
LINE
  5
B72
  8
2
 10
209.5
 20
78.500000000000028
 30
0.0
 11
210.0
 21
78.000000000000028
 31
0.0
  0
LINE
  5
B73
  8
2
 10
185.0
 20
75.000000000000057
 30
0.0
 11
185.0
 21
78.000000000000028
 31
0.0
  0
LINE
  5
B74
  8
2
 10
184.5
 20
90.0
 30
0.0
 11
184.5
 21
74.500000000000014
 31
0.0
  0
LINE
  5
B75
  8
2
 10
189.0
 20
60.133012701892149
 30
0.0
 11
189.0
 21
74.500000000000014
 31
0.0
  0
LINE
  5
B76
  8
2
 10
240.5
 20
74.500000000000014
 30
0.0
 11
184.5
 21
74.500000000000014
 31
0.0
  0
LINE
  5
B77
  8
2
 10
209.5
 20
78.500000000000028
 30
0.0
 11
185.5
 21
78.500000000000028
 31
0.0
  0
LINE
  5
B78
  8
2
 10
185.0
 20
78.000000000000028
 30
0.0
 11
185.5
 21
78.500000000000028
 31
0.0
  0
LINE
  5
B79
  8
2
 10
209.5
 20
74.500000000000014
 30
0.0
 11
210.0
 21
75.000000000000028
 31
0.0
  0
LINE
  5
B7A
  8
2
 10
185.0
 20
75.000000000000028
 30
0.0
 11
185.5
 21
74.500000000000014
 31
0.0
  0
ENDSEC
  0
EOF
