  0
SECTION
  2
HEADER
  9
$ACADVER
  1
AC1009
  9
$INSBASE
 10
0.0
 20
0.0
 30
0.0
  9
$EXTMIN
 10
0.0
 20
-2.960436562073669
 30
0.0
  9
$EXTMAX
 10
256.05425944347098
 20
224.6322676701802
 30
0.0
  9
$LIMMIN
 10
0.0
 20
0.0
  9
$LIMMAX
 10
375.0
 20
270.0
  9
$ORTHOMODE
 70
     1
  9
$REGENMODE
 70
     1
  9
$FILLMODE
 70
     1
  9
$QTEXTMODE
 70
     0
  9
$MIRRTEXT
 70
     0
  9
$DRAGMODE
 70
     2
  9
$LTSCALE
 40
5.0
  9
$OSMODE
 70
  3071
  9
$ATTMODE
 70
     1
  9
$TEXTSIZE
 40
0.2
  9
$TRACEWID
 40
0.05
  9
$TEXTSTYLE
  7
ST
  9
$CLAYER
  8
4
  9
$CELTYPE
  6
BYLAYER
  9
$CECOLOR
 62
   256
  9
$DIMSCALE
 40
1.0
  9
$DIMASZ
 40
3.0
  9
$DIMEXO
 40
2.0
  9
$DIMDLI
 40
0.3799999999999999
  9
$DIMRND
 40
0.0
  9
$DIMDLE
 40
0.0
  9
$DIMEXE
 40
2.0
  9
$DIMTP
 40
0.0
  9
$DIMTM
 40
0.0
  9
$DIMTXT
 40
3.0
  9
$DIMCEN
 40
0.09
  9
$DIMTSZ
 40
0.0
  9
$DIMTOL
 70
     0
  9
$DIMLIM
 70
     0
  9
$DIMTIH
 70
     0
  9
$DIMTOH
 70
     0
  9
$DIMSE1
 70
     0
  9
$DIMSE2
 70
     0
  9
$DIMTAD
 70
     1
  9
$DIMZIN
 70
     0
  9
$DIMBLK
  1

  9
$DIMASO
 70
     0
  9
$DIMSHO
 70
     0
  9
$DIMPOST
  1

  9
$DIMAPOST
  1

  9
$DIMALT
 70
     0
  9
$DIMALTD
 70
     2
  9
$DIMALTF
 40
25.399999999999999
  9
$DIMLFAC
 40
1.0
  9
$DIMTOFL
 70
     1
  9
$DIMTVP
 40
1.6000000000000001
  9
$DIMTIX
 70
     1
  9
$DIMSOXD
 70
     0
  9
$DIMSAH
 70
     0
  9
$DIMBLK1
  1

  9
$DIMBLK2
  1

  9
$DIMSTYLE
  2
STANDARD
  9
$DIMCLRD
 70
     0
  9
$DIMCLRE
 70
     0
  9
$DIMCLRT
 70
     0
  9
$DIMTFAC
 40
1.0
  9
$DIMGAP
 40
1.1999999999999991
  9
$LUNITS
 70
     2
  9
$LUPREC
 70
     4
  9
$SKETCHINC
 40
0.1
  9
$FILLETRAD
 40
1.5
  9
$AUNITS
 70
     0
  9
$AUPREC
 70
     4
  9
$MENU
  1
ACAD
  9
$ELEVATION
 40
0.0
  9
$PELEVATION
 40
0.0
  9
$THICKNESS
 40
0.0
  9
$LIMCHECK
 70
     0
  9
$BLIPMODE
 70
     0
  9
$CHAMFERA
 40
0.0
  9
$CHAMFERB
 40
0.0
  9
$SKPOLY
 70
     0
  9
$TDCREATE
 40
2448586.4078643522
  9
$TDUPDATE
 40
2456597.665624815
  9
$TDINDWG
 40
0.2988678356
  9
$TDUSRTIMER
 40
0.2988678356
  9
$USRTIMER
 70
     1
  9
$ANGBASE
 50
0.0
  9
$ANGDIR
 70
     0
  9
$PDMODE
 70
     0
  9
$PDSIZE
 40
0.0
  9
$PLINEWID
 40
0.0
  9
$COORDS
 70
     1
  9
$SPLFRAME
 70
     0
  9
$SPLINETYPE
 70
     6
  9
$SPLINESEGS
 70
     8
  9
$ATTDIA
 70
     0
  9
$ATTREQ
 70
     1
  9
$HANDLING
 70
     1
  9
$HANDSEED
  5
7FF
  9
$SURFTAB1
 70
     6
  9
$SURFTAB2
 70
     6
  9
$SURFTYPE
 70
     6
  9
$SURFU
 70
     6
  9
$SURFV
 70
     6
  9
$UCSNAME
  2

  9
$UCSORG
 10
0.0
 20
0.0
 30
0.0
  9
$UCSXDIR
 10
1.0
 20
0.0
 30
0.0
  9
$UCSYDIR
 10
0.0
 20
1.0
 30
0.0
  9
$PUCSNAME
  2

  9
$PUCSORG
 10
0.0
 20
0.0
 30
0.0
  9
$PUCSXDIR
 10
1.0
 20
0.0
 30
0.0
  9
$PUCSYDIR
 10
0.0
 20
1.0
 30
0.0
  9
$USERI1
 70
     0
  9
$USERI2
 70
     1
  9
$USERI3
 70
     1
  9
$USERI4
 70
     0
  9
$USERI5
 70
     0
  9
$USERR1
 40
0.0
  9
$USERR2
 40
0.0
  9
$USERR3
 40
0.0
  9
$USERR4
 40
0.0
  9
$USERR5
 40
0.0
  9
$WORLDVIEW
 70
     1
  9
$SHADEDGE
 70
     3
  9
$SHADEDIF
 70
    70
  9
$TILEMODE
 70
     1
  9
$MAXACTVP
 70
    16
  9
$PLIMCHECK
 70
     0
  9
$PEXTMIN
 10
1.0000000000000000E+020
 20
1.0000000000000000E+020
 30
1.0000000000000000E+020
  9
$PEXTMAX
 10
-1.0000000000000000E+020
 20
-1.0000000000000000E+020
 30
-1.0000000000000000E+020
  9
$PLIMMIN
 10
0.0
 20
0.0
  9
$PLIMMAX
 10
12.0
 20
9.0
  9
$UNITMODE
 70
     0
  9
$VISRETAIN
 70
     0
  9
$PLINEGEN
 70
     1
  9
$PSLTSCALE
 70
     0
  0
ENDSEC
  0
SECTION
  2
TABLES
  0
TABLE
  2
VPORT
 70
     1
  0
VPORT
  2
*ACTIVE
 70
     0
 10
0.0
 20
0.0
 11
1.0
 21
1.0
 12
195.0581083320873
 22
133.5127261426681
 13
0.0
 23
0.0
 14
5.0
 24
5.0
 15
10.0
 25
10.0
 16
0.0
 26
0.0
 36
1.0
 17
0.0
 27
0.0
 37
0.0
 40
275.42274993631997
 41
1.831871345029239
 42
50.0
 43
0.0
 44
0.0
 50
0.0
 51
0.0
 71
     0
 72
   500
 73
     1
 74
     0
 75
     0
 76
     0
 77
     0
 78
     2
  0
ENDTAB
  0
TABLE
  2
LTYPE
 70
     4
  0
LTYPE
  2
CONTINUOUS
 70
     0
  3
実線
 72
    65
 73
     0
 40
0.0
  0
LTYPE
  2
CENTER
 70
     0
  3
____ _ ____ _ ____ _ ____ _ ____ _ ____ _ ____
 72
    65
 73
     4
 40
2.0
 49
1.25
 49
-0.25
 49
0.25
 49
-0.25
  0
LTYPE
  2
HIDDEN
 70
     0
  3
_ _ _ _ _ _ _ _ _ _ _ _ _ _ _ _ _ _ _ _ _ _ _
 72
    65
 73
     2
 40
0.375
 49
0.25
 49
-0.125
  0
LTYPE
  2
PHANTOM2
 70
     0
  3
___ _ _ ___ _ _ ___ _ _ ___ _ _
 72
    65
 73
     6
 40
1.25
 49
0.625
 49
-0.125
 49
0.125
 49
-0.125
 49
0.125
 49
-0.125
  0
ENDTAB
  0
TABLE
  2
LAYER
 70
     6
  0
LAYER
  2
0
 70
     0
 62
     7
  6
CONTINUOUS
  0
LAYER
  2
1
 70
     0
 62
     1
  6
CENTER
  0
LAYER
  2
4
 70
     0
 62
     4
  6
CONTINUOUS
  0
LAYER
  2
2
 70
     0
 62
     2
  6
HIDDEN
  0
LAYER
  2
11
 70
     0
 62
     3
  6
CONTINUOUS
  0
LAYER
  2
3
 70
     0
 62
     3
  6
CONTINUOUS
  0
ENDTAB
  0
TABLE
  2
STYLE
 70
     4
  0
STYLE
  2
STANDARD
 70
     0
 40
0.0
 41
1.0
 50
0.0
 71
     0
 42
5.0
  3
simplex.shx
  4
BIGFONT.shx
  0
STYLE
  2
07500
 70
     0
 40
0.0
 41
0.75
 50
0.0
 71
     0
 42
0.2
  3
simplex.shx
  4
BIGFONT.shx
  0
STYLE
  2
ST
 70
     0
 40
0.0
 41
1.0
 50
0.0
 71
     0
 42
0.2
  3
simplex.shx
  4
BIGFONT.shx
  0
STYLE
  2
STANDARD1
 70
     0
 40
0.0
 41
1.0
 50
0.0
 71
     0
 42
3.0
  3
txt
  4

  0
ENDTAB
  0
TABLE
  2
VIEW
 70
     1
  0
VIEW
  2
ALL
 70
     0
 40
270.0
 10
220.99159663865549
 20
135.0
 41
0.0
 11
0.0
 21
0.0
 31
1.0
 12
0.0
 22
0.0
 32
0.0
 42
0.0
 43
0.0
 44
0.0
 50
0.0
 71
     0
  0
ENDTAB
  0
TABLE
  2
UCS
 70
     0
  0
ENDTAB
  0
TABLE
  2
APPID
 70
     3
  0
APPID
  2
ACAD
 70
     0
  0
APPID
  2
ACAD_MLEADERVER
 70
     0
  0
APPID
  2
ACAD_NAV_VCDISPLAY
 70
     0
  0
ENDTAB
  0
TABLE
  2
DIMSTYLE
 70
     1
  0
DIMSTYLE
  2
STANDARD
 70
     0
  3

  4

  5

  6

  7

 40
1.0
 41
0.18
 42
0.0625
 43
0.38
 44
0.18
 45
0.0
 46
0.0
 47
0.0
 48
0.0
140
0.18
141
0.09
142
0.0
143
25.399999999999999
144
1.0
145
0.0
146
1.0
147
0.09
 71
     0
 72
     0
 73
     1
 74
     1
 75
     0
 76
     0
 77
     0
 78
     0
170
     0
171
     2
172
     0
173
     0
174
     0
175
     0
176
     0
177
     0
178
     0
  0
ENDTAB
  0
ENDSEC
  0
SECTION
  2
BLOCKS
  0
BLOCK
  8
0
  2
$MODEL_SPACE
 70
     0
 10
0.0
 20
0.0
 30
0.0
  3
$MODEL_SPACE
  1

  0
ENDBLK
  5
12
  8
0
  0
BLOCK
 67
     1
  8
0
  2
$PAPER_SPACE
 70
     0
 10
0.0
 20
0.0
 30
0.0
  3
$PAPER_SPACE
  1

  0
ENDBLK
  5
1C
 67
     1
  8
0
  0
ENDSEC
  0
SECTION
  2
ENTITIES
  0
LINE
  5
71
  8
1
 10
198.55425944347101
 20
138.17822103079121
 30
0.0
 11
198.5542594434711
 21
63.678221030791178
 31
0.0
  0
LINE
  5
74
  8
1
 10
228.55425944347081
 20
138.17822103079121
 30
0.0
 11
228.55425944347121
 21
63.678221030791178
 31
0.0
  0
LINE
  5
75
  8
0
 10
208.05754834784469
 20
194.1322676701802
 30
0.0
 11
219.05097053909699
 21
194.1322676701802
 31
0.0
  0
LINE
  5
76
  8
0
 10
219.05097053909691
 20
211.1322676701802
 30
0.0
 11
208.05754834784429
 21
211.1322676701802
 31
0.0
  0
CIRCLE
  5
77
  8
0
 10
198.55425944347101
 20
202.6322676701802
 30
0.0
 40
12.75
  0
LINE
  5
78
  8
1
 10
51.054259443470933
 20
63.678221030791242
 30
0.0
 11
51.054259443470748
 21
141.67822103079109
 31
0.0
  0
LINE
  5
79
  8
0
 10
186.5542594434711
 20
132.17822103079129
 30
0.0
 11
188.28631025103971
 21
133.17822103079121
 31
0.0
  0
LINE
  5
7A
  8
0
 10
210.5542594434711
 20
132.17822103079121
 30
0.0
 11
208.822208635902
 21
133.17822103079109
 31
0.0
  0
LINE
  5
7B
  8
0
 10
186.5542594434711
 20
132.17822103079129
 30
0.0
 11
210.5542594434711
 21
132.17822103079129
 31
0.0
  0
LINE
  5
7C
  8
0
 10
188.28631025103971
 20
133.17822103079121
 30
0.0
 11
208.822208635902
 21
133.17822103079109
 31
0.0
  0
LINE
  5
7D
  8
0
 10
186.5542594434711
 20
128.67822103079121
 30
0.0
 11
186.5542594434711
 21
132.17822103079129
 31
0.0
  0
LINE
  5
7E
  8
0
 10
210.5542594434711
 20
132.17822103079129
 30
0.0
 11
210.5542594434709
 21
128.67822103079121
 31
0.0
  0
LINE
  5
7F
  8
0
 10
240.5542594434711
 20
132.17822103079121
 30
0.0
 11
240.5542594434709
 21
128.67822103079121
 31
0.0
  0
LINE
  5
80
  8
0
 10
216.5542594434711
 20
128.67822103079121
 30
0.0
 11
216.5542594434711
 21
132.17822103079121
 31
0.0
  0
LINE
  5
81
  8
0
 10
218.28631025103971
 20
133.17822103079109
 30
0.0
 11
238.82220863590209
 21
133.17822103079109
 31
0.0
  0
LINE
  5
82
  8
0
 10
216.5542594434711
 20
132.17822103079121
 30
0.0
 11
240.5542594434711
 21
132.17822103079121
 31
0.0
  0
LINE
  5
83
  8
0
 10
240.5542594434711
 20
132.17822103079109
 30
0.0
 11
238.82220863590209
 21
133.17822103079109
 31
0.0
  0
LINE
  5
84
  8
0
 10
216.5542594434711
 20
132.17822103079129
 30
0.0
 11
218.28631025103971
 21
133.17822103079109
 31
0.0
  0
LINE
  5
85
  8
0
 10
224.51280755914419
 20
209.6322676701794
 30
0.0
 11
220.47135567481661
 21
202.63226767017949
 31
0.0
  0
LINE
  5
86
  8
0
 10
220.47135567481661
 20
202.63226767017949
 30
0.0
 11
224.51280755914419
 21
195.6322676701802
 31
0.0
  0
LINE
  5
87
  8
0
 10
224.51280755914419
 20
195.6322676701802
 30
0.0
 11
232.59571132779999
 21
195.6322676701802
 31
0.0
  0
LINE
  5
88
  8
0
 10
232.59571132779999
 20
195.6322676701802
 30
0.0
 11
236.6371632121259
 21
202.6322676701802
 31
0.0
  0
LINE
  5
89
  8
0
 10
236.6371632121259
 20
202.6322676701802
 30
0.0
 11
232.59571132779769
 21
209.63226767018099
 31
0.0
  0
LINE
  5
8A
  8
0
 10
232.59571132779769
 20
209.63226767018099
 30
0.0
 11
224.51280755914419
 21
209.6322676701794
 31
0.0
  0
CIRCLE
  5
8B
  8
0
 10
228.55425944347101
 20
202.6322676701802
 30
0.0
 40
12.0
  0
LINE
  5
8C
  8
0
 10
194.51280755914419
 20
209.6322676701794
 30
0.0
 11
190.47135567481649
 21
202.63226767017949
 31
0.0
  0
LINE
  5
8D
  8
0
 10
190.47135567481649
 20
202.63226767017949
 30
0.0
 11
194.51280755914419
 21
195.6322676701802
 31
0.0
  0
LINE
  5
8E
  8
0
 10
194.51280755914419
 20
195.6322676701802
 30
0.0
 11
202.59571132779999
 21
195.6322676701802
 31
0.0
  0
LINE
  5
8F
  8
0
 10
202.59571132779999
 20
195.6322676701802
 30
0.0
 11
206.6371632121259
 21
202.6322676701802
 31
0.0
  0
LINE
  5
90
  8
0
 10
206.6371632121259
 20
202.6322676701802
 30
0.0
 11
202.5957113277978
 21
209.63226767018099
 31
0.0
  0
LINE
  5
91
  8
0
 10
202.5957113277978
 20
209.63226767018099
 30
0.0
 11
194.51280755914419
 21
209.6322676701794
 31
0.0
  0
CIRCLE
  5
92
  8
0
 10
198.55425944347101
 20
202.6322676701802
 30
0.0
 40
12.0
  0
CIRCLE
  5
93
  8
0
 10
228.55425944347101
 20
202.6322676701802
 30
0.0
 40
12.75
  0
ARC
  5
94
  8
0
 10
238.05425944347101
 20
190.6322676701802
 30
0.0
 40
8.0
 50
270.0
 51
0.0
  0
ARC
  5
95
  8
0
 10
238.05425944347101
 20
214.6322676701802
 30
0.0
 40
8.0
 50
0.0
 51
90.0
  0
LINE
  5
96
  8
0
 10
228.55425944347101
 20
189.6322676701802
 30
0.0
 11
198.55425944347101
 21
189.6322676701802
 31
0.0
  0
LINE
  5
97
  8
0
 10
198.55425944347101
 20
215.6322676701802
 30
0.0
 11
228.55425944347101
 21
215.6322676701802
 31
0.0
  0
ARC
  5
98
  8
0
 10
198.55425944347101
 20
202.6322676701802
 30
0.0
 40
13.0
 50
90.0
 51
270.0
  0
LINE
  5
99
  8
1
 10
198.55425944347101
 20
220.6322676701802
 30
0.0
 11
198.55425944347101
 21
184.6322676701802
 31
0.0
  0
ARC
  5
9A
  8
0
 10
228.55425944347101
 20
202.6322676701802
 30
0.0
 40
13.0
 50
270.0
 51
90.0
  0
LINE
  5
9B
  8
1
 10
228.55425944347101
 20
220.6322676701802
 30
0.0
 11
228.55425944347101
 21
184.6322676701802
 31
0.0
  0
ARC
  5
9C
  8
0
 10
242.05425944347101
 20
124.67822103079121
 30
0.0
 40
4.0
 50
0.0
 51
90.0
  0
LINE
  5
9E
  8
0
 10
242.05425944347101
 20
128.67822103079121
 30
0.0
 11
181.55425944347101
 21
128.67822103079121
 31
0.0
  0
LINE
  5
9F
  8
0
 10
246.05425944347101
 20
100.67822103079121
 30
0.0
 11
246.05425944347101
 21
124.67822103079121
 31
0.0
  0
LINE
  5
A0
  8
0
 10
238.05425944347101
 20
182.6322676701802
 30
0.0
 11
153.05425944347101
 21
182.6322676701802
 31
0.0
  0
LINE
  5
A1
  8
0
 10
246.05425944347101
 20
214.6322676701802
 30
0.0
 11
246.05425944347101
 21
190.6322676701802
 31
0.0
  0
LINE
  5
A3
  8
2
 10
166.05425944347101
 20
222.1322676701802
 30
0.0
 11
166.05425944347101
 21
183.1322676701802
 31
0.0
  0
LINE
  5
A6
  8
2
 10
166.05425944347101
 20
183.1322676701802
 30
0.0
 11
166.5542594434709
 21
182.6322676701802
 31
0.0
  0
LINE
  5
A7
  8
2
 10
166.05425944347101
 20
222.1322676701802
 30
0.0
 11
166.5542594434709
 21
222.6322676701802
 31
0.0
  0
LINE
  5
A8
  8
0
 10
181.05425944347101
 20
222.1322676701802
 30
0.0
 11
181.55425944347101
 21
222.6322676701802
 31
0.0
  0
LINE
  5
A9
  8
0
 10
181.05425944347101
 20
222.1322676701802
 30
0.0
 11
181.05425944347101
 21
183.1322676701802
 31
0.0
  0
LINE
  5
AA
  8
0
 10
181.05425944347101
 20
183.1322676701802
 30
0.0
 11
181.55425944347101
 21
182.6322676701802
 31
0.0
  0
LINE
  5
AB
  8
1
 10
182.05425944347101
 20
190.6322676701802
 30
0.0
 11
162.05425944347101
 21
190.6322676701802
 31
0.0
  0
LINE
  5
AC
  8
1
 10
172.05425944347101
 20
200.6322676701802
 30
0.0
 11
172.05425944347101
 21
180.6322676701802
 31
0.0
  0
LINE
  5
AD
  8
1
 10
182.05425944347101
 20
214.6322676701802
 30
0.0
 11
162.05425944347101
 21
214.6322676701802
 31
0.0
  0
LINE
  5
AE
  8
1
 10
172.05425944347101
 20
204.6322676701802
 30
0.0
 11
172.05425944347101
 21
224.6322676701802
 31
0.0
  0
LINE
  5
AF
  8
0
 10
181.05425944347101
 20
113.67822103079109
 30
0.0
 11
181.05425944347101
 21
128.17822103079109
 31
0.0
  0
ARC
  5
B0
  8
0
 10
226.05425944347101
 20
112.67822103079109
 30
0.0
 40
9.0
 50
270.0
 51
90.0
  0
ARC
  5
B1
  8
0
 10
196.05425944347101
 20
112.67822103079109
 30
0.0
 40
9.0
 50
90.0
 51
270.0
  0
LINE
  5
B2
  8
0
 10
196.05425944347101
 20
121.67822103079121
 30
0.0
 11
226.05425944347101
 21
121.67822103079121
 31
0.0
  0
LINE
  5
B3
  8
0
 10
196.05425944347101
 20
119.67822103079109
 30
0.0
 11
226.05425944347101
 21
119.67822103079109
 31
0.0
  0
LINE
  5
B4
  8
0
 10
181.55425944347101
 20
128.67822103079121
 30
0.0
 11
181.05425944347101
 21
128.17822103079109
 31
0.0
  0
ARC
  5
B5
  8
0
 10
226.05425944347101
 20
112.67822103079109
 30
0.0
 40
7.0
 50
270.0
 51
90.0
  0
ARC
  5
B6
  8
0
 10
196.0542594434711
 20
112.67822103079109
 30
0.0
 40
7.0
 50
90.0
 51
270.0
  0
LINE
  5
B7
  8
1
 10
172.05425944347101
 20
224.6322676701802
 30
0.0
 11
172.05425944347101
 21
204.6322676701802
 31
0.0
  0
LINE
  5
B8
  8
1
 10
172.05425944347101
 20
180.6322676701802
 30
0.0
 11
172.05425944347101
 21
200.6322676701802
 31
0.0
  0
CIRCLE
  5
B9
  8
0
 10
172.05425944347101
 20
214.6322676701802
 30
0.0
 40
5.5
  0
LINE
  5
BA
  8
1
 10
162.05425944347101
 20
214.6322676701802
 30
0.0
 11
182.05425944347101
 21
214.6322676701802
 31
0.0
  0
LINE
  5
BB
  8
1
 10
162.05425944347101
 20
190.6322676701802
 30
0.0
 11
182.05425944347101
 21
190.6322676701802
 31
0.0
  0
CIRCLE
  5
BC
  8
0
 10
172.05425944347101
 20
190.6322676701802
 30
0.0
 40
5.5
  0
LINE
  5
BD
  8
0
 10
180.55425944347101
 20
222.6322676701802
 30
0.0
 11
181.05425944347101
 21
222.1322676701802
 31
0.0
  0
LINE
  5
BE
  8
0
 10
180.55425944347101
 20
182.6322676701802
 30
0.0
 11
181.05425944347101
 21
183.1322676701802
 31
0.0
  0
LINE
  5
BF
  8
0
 10
181.05425944347101
 20
222.1322676701802
 30
0.0
 11
181.05425944347101
 21
183.1322676701802
 31
0.0
  0
CIRCLE
  5
C0
  8
0
 10
172.05425944347101
 20
190.6322676701802
 30
0.0
 40
5.0
  0
LINE
  5
C1
  8
0
 10
172.05425944347101
 20
193.1322676701802
 30
0.0
 11
169.8891959340099
 21
191.8822676701802
 31
0.0
  0
LINE
  5
C2
  8
0
 10
169.8891959340099
 20
191.8822676701802
 30
0.0
 11
169.8891959340099
 21
189.3822676701802
 31
0.0
  0
LINE
  5
C3
  8
0
 10
169.8891959340099
 20
189.3822676701802
 30
0.0
 11
172.05425944347101
 21
188.1322676701802
 31
0.0
  0
LINE
  5
C4
  8
0
 10
172.05425944347101
 20
188.1322676701802
 30
0.0
 11
174.21932295293209
 21
189.3822676701802
 31
0.0
  0
LINE
  5
C5
  8
0
 10
174.21932295293209
 20
189.3822676701802
 30
0.0
 11
174.21932295293209
 21
191.8822676701802
 31
0.0
  0
LINE
  5
C6
  8
0
 10
174.21932295293209
 20
191.88226767018031
 30
0.0
 11
172.0542594434709
 21
193.1322676701802
 31
0.0
  0
LINE
  5
C7
  8
0
 10
172.05425944347101
 20
212.1322676701802
 30
0.0
 11
169.8891959340099
 21
213.3822676701802
 31
0.0
  0
LINE
  5
C8
  8
0
 10
169.8891959340099
 20
213.3822676701802
 30
0.0
 11
169.8891959340099
 21
215.8822676701802
 31
0.0
  0
LINE
  5
C9
  8
0
 10
169.8891959340099
 20
215.88226767018031
 30
0.0
 11
172.05425944347101
 21
217.1322676701802
 31
0.0
  0
LINE
  5
CA
  8
0
 10
172.05425944347101
 20
217.1322676701802
 30
0.0
 11
174.21932295293209
 21
215.8822676701802
 31
0.0
  0
LINE
  5
CB
  8
0
 10
174.21932295293209
 20
215.8822676701802
 30
0.0
 11
174.21932295293209
 21
213.3822676701802
 31
0.0
  0
LINE
  5
CC
  8
0
 10
174.21932295293209
 20
213.38226767018011
 30
0.0
 11
172.0542594434709
 21
212.1322676701802
 31
0.0
  0
CIRCLE
  5
CD
  8
0
 10
172.05425944347101
 20
214.6322676701802
 30
0.0
 40
5.0
  0
LINE
  5
CE
  8
0
 10
180.55425944347101
 20
128.67822103079121
 30
0.0
 11
181.05425944347101
 21
128.17822103079109
 31
0.0
  0
LINE
  5
CF
  8
0
 10
153.200576776861
 20
220.6322676701802
 30
0.0
 11
153.200576776861
 21
204.4859503367903
 31
0.0
  0
LINE
  5
D0
  8
0
 10
153.200576776861
 20
184.6322676701802
 30
0.0
 11
153.200576776861
 21
200.77858500357021
 31
0.0
  0
LINE
  5
D1
  8
0
 10
159.89866983265421
 20
184.63226767018011
 30
0.0
 11
159.89866983265421
 21
220.6322676701802
 31
0.0
  0
LINE
  5
D2
  8
0
 10
151.05425944347101
 20
206.6322676701802
 30
0.0
 11
151.05425944347101
 21
220.6322676701802
 31
0.0
  0
LINE
  5
D3
  8
0
 10
155.05425944347081
 20
202.6322676701802
 30
0.0
 11
151.05425944347101
 21
198.63226767018011
 31
0.0
  0
LINE
  5
D4
  8
0
 10
151.05425944347101
 20
206.6322676701802
 30
0.0
 11
155.05425944347081
 21
202.6322676701802
 31
0.0
  0
ARC
  5
D5
  8
0
 10
153.05425944347101
 20
184.63226767018011
 30
0.0
 40
2.0
 50
180.0
 51
270.0
  0
ARC
  5
D6
  8
0
 10
153.05425944347101
 20
220.6322676701802
 30
0.0
 40
2.0
 50
90.0
 51
180.0
  0
LINE
  5
D7
  8
0
 10
151.05425944347101
 20
184.63226767018011
 30
0.0
 11
151.05425944347101
 21
198.63226767018011
 31
0.0
  0
LINE
  5
D8
  8
0
 10
153.05425944347101
 20
222.6322676701802
 30
0.0
 11
238.05425944347101
 21
222.6322676701802
 31
0.0
  0
LINE
  5
D9
  8
1
 10
141.05425944347101
 20
202.6322676701802
 30
0.0
 11
256.05425944347098
 21
202.6322676701802
 31
0.0
  0
ARC
  5
E2
  8
0
 10
179.55425944347101
 20
158.67822103079121
 30
0.0
 40
30.0
 50
227.16657193393331
 51
270.0
  0
LINE
  5
E5
  8
0
 10
180.55425944347101
 20
128.67822103079121
 30
0.0
 11
181.05425944347101
 21
128.17822103079109
 31
0.0
  0
LINE
  5
E6
  8
0
 10
180.55425944347101
 20
128.67822103079121
 30
0.0
 11
179.55425944347101
 21
128.67822103079121
 31
0.0
  0
POLYLINE
  5
2B4
  8
11
 66
     1
 10
0.0
 20
0.0
 30
0.0
 70
     1
1001
ACAD
1000
ASC_BOUNDS
1002
{
1070
    19
1005
0
1002
}
  0
VERTEX
  5
78D
  8
11
 10
227.1375927768037
 20
112.67822103079121
 30
0.0
 42
1.0
  0
VERTEX
  5
78E
  8
11
 10
229.7625927768037
 20
112.67822103079121
 30
0.0
 42
1.0
  0
SEQEND
  5
78F
  8
11
  0
POLYLINE
  5
2B5
  8
11
 66
     1
 10
0.0
 20
0.0
 30
0.0
 70
     1
1001
ACAD
1000
ASC_BOUNDS
1002
{
1070
    19
1005
0
1002
}
  0
VERTEX
  5
790
  8
11
 10
231.95009277680359
 20
112.67822103079121
 30
0.0
 42
1.0
  0
VERTEX
  5
791
  8
11
 10
224.9500927768037
 20
112.67822103079121
 30
0.0
 42
1.0
  0
SEQEND
  5
792
  8
11
  0
POLYLINE
  5
2B6
  8
11
 66
     1
 10
0.0
 20
0.0
 30
0.0
 70
     1
1001
ACAD
1000
ASC_BOUNDS
1002
{
1070
    19
1005
0
1002
}
  0
VERTEX
  5
793
  8
11
 10
198.97925944346991
 20
115.030876106054
 30
0.0
  0
VERTEX
  5
794
  8
11
 10
198.97925944346991
 20
116.32556595552749
 30
0.0
 42
0.1238822414942591
  0
VERTEX
  5
795
  8
11
 10
197.3066136887569
 20
115.6782210307907
 30
0.0
 42
0.1238822414942589
  0
SEQEND
  5
796
  8
11
  0
POLYLINE
  5
2B7
  8
11
 66
     1
 10
0.0
 20
0.0
 30
0.0
 70
     1
1001
ACAD
1000
ASC_BOUNDS
1002
{
1070
    19
1005
0
1002
}
  0
VERTEX
  5
797
  8
11
 10
201.55190519818359
 20
115.6782210307907
 30
0.0
 42
0.1238822414942568
  0
VERTEX
  5
798
  8
11
 10
199.87925944347049
 20
116.32556595552749
 30
0.0
  0
VERTEX
  5
799
  8
11
 10
199.87925944347049
 20
115.030876106054
 30
0.0
 42
0.1238822414942573
  0
SEQEND
  5
79A
  8
11
  0
POLYLINE
  5
2B8
  8
11
 66
     1
 10
0.0
 20
0.0
 30
0.0
 70
     1
1001
ACAD
1000
ASC_BOUNDS
1002
{
1070
    19
1005
0
1002
}
  0
VERTEX
  5
79B
  8
11
 10
203.07660436820649
 20
113.12822103079149
 30
0.0
 42
0.1517967807321736
  0
VERTEX
  5
79C
  8
11
 10
202.17915641863601
 20
115.11618978079071
 30
0.0
 42
-0.1402251973297237
  0
VERTEX
  5
79D
  8
11
 10
199.87925944347049
 20
114.2007775638105
 30
0.0
  0
VERTEX
  5
79E
  8
11
 10
199.87925944347049
 20
113.12822103079149
 30
0.0
  0
SEQEND
  5
79F
  8
11
  0
POLYLINE
  5
2B9
  8
11
 66
     1
 10
0.0
 20
0.0
 30
0.0
 70
     1
1001
ACAD
1000
ASC_BOUNDS
1002
{
1070
    19
1005
0
1002
}
  0
VERTEX
  5
7A0
  8
11
 10
210.5125927768035
 20
109.17822103079109
 30
0.0
  0
VERTEX
  5
7A1
  8
11
 10
210.5125927768035
 20
113.33447103079121
 30
0.0
 42
-1.0
  0
VERTEX
  5
7A2
  8
11
 10
211.8250927768035
 20
113.33447103079121
 30
0.0
  0
VERTEX
  5
7A3
  8
11
 10
211.8250927768035
 20
109.17822103079109
 30
0.0
  0
VERTEX
  5
7A4
  8
11
 10
214.01259277680359
 20
109.17822103079109
 30
0.0
  0
VERTEX
  5
7A5
  8
11
 10
214.01259277680359
 20
113.33447103079121
 30
0.0
 42
-1.0
  0
VERTEX
  5
7A6
  8
11
 10
215.32509277680359
 20
113.33447103079121
 30
0.0
  0
VERTEX
  5
7A7
  8
11
 10
215.32509277680359
 20
109.17822103079109
 30
0.0
  0
VERTEX
  5
7A8
  8
11
 10
217.51259277680359
 20
109.17822103079109
 30
0.0
  0
VERTEX
  5
7A9
  8
11
 10
217.51259277680359
 20
113.33447103079121
 30
0.0
 42
0.6247472440541069
  0
VERTEX
  5
7AA
  8
11
 10
212.91884277680359
 20
115.5759915108449
 30
0.0
 42
0.6247472440541069
  0
VERTEX
  5
7AB
  8
11
 10
208.3250927768035
 20
113.33447103079121
 30
0.0
  0
VERTEX
  5
7AC
  8
11
 10
208.3250927768035
 20
109.17822103079109
 30
0.0
  0
SEQEND
  5
7AD
  8
11
  0
POLYLINE
  5
2BA
  8
11
 66
     1
 10
0.0
 20
0.0
 30
0.0
 70
     1
1001
ACAD
1000
ASC_BOUNDS
1002
{
1070
    19
1005
0
1002
}
  0
VERTEX
  5
7AE
  8
11
 10
207.4500927768035
 20
116.17822103079121
 30
0.0
  0
VERTEX
  5
7AF
  8
11
 10
205.26259277680339
 20
116.17822103079121
 30
0.0
  0
VERTEX
  5
7B0
  8
11
 10
205.26259277680339
 20
109.17822103079109
 30
0.0
  0
VERTEX
  5
7B1
  8
11
 10
207.4500927768035
 20
109.17822103079109
 30
0.0
  0
SEQEND
  5
7B2
  8
11
  0
POLYLINE
  5
2BB
  8
11
 66
     1
 10
0.0
 20
0.0
 30
0.0
 70
     1
1001
ACAD
1000
ASC_BOUNDS
1002
{
1070
    19
1005
0
1002
}
  0
VERTEX
  5
7B3
  8
11
 10
220.57509277680359
 20
110.70947103079109
 30
0.0
  0
VERTEX
  5
7B4
  8
11
 10
221.88759277680359
 20
110.70947103079121
 30
0.0
  0
VERTEX
  5
7B5
  8
11
 10
221.88759277680359
 20
109.17822103079109
 30
0.0
  0
VERTEX
  5
7B6
  8
11
 10
224.07509277680359
 20
109.17822103079109
 30
0.0
  0
VERTEX
  5
7B7
  8
11
 10
224.07509277680359
 20
113.33447103079121
 30
0.0
 42
1.000000215936474
  0
VERTEX
  5
7B8
  8
11
 10
218.38759277680359
 20
113.33447103079121
 30
0.0
  0
VERTEX
  5
7B9
  8
11
 10
218.38759277680359
 20
109.17822103079109
 30
0.0
  0
VERTEX
  5
7BA
  8
11
 10
220.57509277680359
 20
109.17822103079109
 30
0.0
  0
SEQEND
  5
7BB
  8
11
  0
POLYLINE
  5
2BC
  8
11
 66
     1
 10
0.0
 20
0.0
 30
0.0
 70
     1
1001
ACAD
1000
ASC_BOUNDS
1002
{
1070
    19
1005
0
1002
}
  0
VERTEX
  5
7BC
  8
11
 10
221.88759277680359
 20
112.45947103079121
 30
0.0
  0
VERTEX
  5
7BD
  8
11
 10
221.88759277680359
 20
113.33447103079121
 30
0.0
 42
1.0000004495664849
  0
VERTEX
  5
7BE
  8
11
 10
220.57509277680359
 20
113.33447103079121
 30
0.0
  0
VERTEX
  5
7BF
  8
11
 10
220.57509277680359
 20
112.45947103079121
 30
0.0
  0
SEQEND
  5
7C0
  8
11
  0
POLYLINE
  5
2BD
  8
11
 66
     1
 10
0.0
 20
0.0
 30
0.0
 70
     1
1001
ACAD
1000
ASC_BOUNDS
1002
{
1070
    19
1005
0
1002
}
  0
VERTEX
  5
7C1
  8
11
 10
196.6793624683043
 20
115.11618978079061
 30
0.0
 42
0.1402251973297244
  0
VERTEX
  5
7C2
  8
11
 10
198.97925944346991
 20
114.2007775638105
 30
0.0
  0
VERTEX
  5
7C3
  8
11
 10
198.97925944346991
 20
113.12822103079149
 30
0.0
  0
VERTEX
  5
7C4
  8
11
 10
198.22925944347071
 20
113.12822103079149
 30
0.0
  0
VERTEX
  5
7C5
  8
11
 10
198.22925944347071
 20
112.67822103079121
 30
0.0
 42
-0.378699158263169
  0
VERTEX
  5
7C6
  8
11
 10
195.0042594434714
 20
109.0308761060549
 30
0.0
  0
VERTEX
  5
7C7
  8
11
 10
195.0042594434714
 20
108.2007775638114
 30
0.0
 42
0.1186144156091118
  0
VERTEX
  5
7C8
  8
11
 10
196.99175944347061
 20
108.8955508429474
 30
0.0
 42
1.834021909257185
  0
VERTEX
  5
7C9
  8
11
 10
196.99175944347061
 20
116.460891218635
 30
0.0
 42
1.26915442618927
  0
VERTEX
  5
7CA
  8
11
 10
194.10425944347071
 20
108.2007775638114
 30
0.0
  0
VERTEX
  5
7CB
  8
11
 10
194.10425944347071
 20
109.0308761060549
 30
0.0
 42
-0.3786991582631508
  0
VERTEX
  5
7CC
  8
11
 10
190.87925944347151
 20
112.67822103079089
 30
0.0
  0
VERTEX
  5
7CD
  8
11
 10
190.87925944347151
 20
113.12822103079149
 30
0.0
  0
VERTEX
  5
7CE
  8
11
 10
191.7042594434709
 20
113.12822103079149
 30
0.0
  0
VERTEX
  5
7CF
  8
11
 10
191.7042594434709
 20
112.67822103079141
 30
0.0
 42
0.3684995607863874
  0
VERTEX
  5
7D0
  8
11
 10
194.10425944347071
 20
109.86397157489711
 30
0.0
  0
VERTEX
  5
7D1
  8
11
 10
194.10425944347071
 20
110.703854043628
 30
0.0
 42
-0.3500011104183812
  0
VERTEX
  5
7D2
  8
11
 10
192.52925944347189
 20
112.67822103079121
 30
0.0
  0
VERTEX
  5
7D3
  8
11
 10
192.52925944347189
 20
113.12822103079149
 30
0.0
  0
VERTEX
  5
7D4
  8
11
 10
193.35425944347159
 20
113.12822103079149
 30
0.0
  0
VERTEX
  5
7D5
  8
11
 10
193.35425944347159
 20
112.67822103079109
 30
0.0
 42
0.9999989916437579
  0
VERTEX
  5
7D6
  8
11
 10
195.7542594434702
 20
112.6782201958451
 30
0.0
 42
-0.1833501526628178
  0
SEQEND
  5
7D7
  8
11
  0
LINE
  5
2BE
  8
0
 10
196.0542594434709
 20
103.67822103079121
 30
0.0
 11
226.05425944347101
 21
103.67822103079121
 31
0.0
  0
LINE
  5
2BF
  8
0
 10
196.05425944347101
 20
105.67822103079121
 30
0.0
 11
226.05425944347101
 21
105.67822103079121
 31
0.0
  0
POLYLINE
  5
2C0
  8
11
 66
     1
 10
0.0
 20
0.0
 30
0.0
 70
     1
  0
VERTEX
  5
7D8
  8
11
 10
197.40425944347149
 20
112.67822103079121
 30
0.0
  0
VERTEX
  5
7D9
  8
11
 10
197.40425944347149
 20
113.12822103079149
 30
0.0
  0
VERTEX
  5
7DA
  8
11
 10
196.57925944347019
 20
113.12822103079149
 30
0.0
  0
VERTEX
  5
7DB
  8
11
 10
196.57925944347019
 20
112.67822103079121
 30
0.0
 42
-0.3500011104183828
  0
VERTEX
  5
7DC
  8
11
 10
195.0042594434714
 20
110.703854043628
 30
0.0
  0
VERTEX
  5
7DD
  8
11
 10
195.0042594434714
 20
109.86397157489711
 30
0.0
 42
0.3684995607863695
  0
SEQEND
  5
7DE
  8
11
  0
POLYLINE
  5
2C1
  8
11
 66
     1
 10
0.0
 20
0.0
 30
0.0
 70
     1
  0
VERTEX
  5
7DF
  8
11
 10
199.87925944347069
 20
112.22822103079081
 30
0.0
  0
VERTEX
  5
7E0
  8
11
 10
199.87925944347069
 20
111.1556644977718
 30
0.0
 42
-0.1402251973297237
  0
VERTEX
  5
7E1
  8
11
 10
202.1791564186361
 20
110.24025228079169
 30
0.0
 42
0.1517967807321737
  0
VERTEX
  5
7E2
  8
11
 10
203.07660436820669
 20
112.22822103079081
 30
0.0
  0
SEQEND
  5
7E3
  8
11
  0
POLYLINE
  5
2C2
  8
11
 66
     1
 10
0.0
 20
0.0
 30
0.0
 70
     1
  0
VERTEX
  5
7E4
  8
11
 10
199.87925944347069
 20
110.3255659555283
 30
0.0
  0
VERTEX
  5
7E5
  8
11
 10
199.87925944347069
 20
109.0308761060549
 30
0.0
 42
0.1238822414942567
  0
VERTEX
  5
7E6
  8
11
 10
201.55190519818359
 20
109.6782210307916
 30
0.0
 42
0.1238822414942571
  0
SEQEND
  5
7E7
  8
11
  0
POLYLINE
  5
2C3
  8
11
 66
     1
 10
0.0
 20
0.0
 30
0.0
 70
     1
  0
VERTEX
  5
7E8
  8
11
 10
198.97925944346991
 20
111.86006762218651
 30
0.0
 42
-0.0420571628960909
  0
VERTEX
  5
7E9
  8
11
 10
198.7799560374801
 20
111.1311307634242
 30
0.0
 42
-0.0111573747896638
  0
VERTEX
  5
7EA
  8
11
 10
198.97925944346991
 20
111.1556644977718
 30
0.0
  0
SEQEND
  5
7EB
  8
11
  0
POLYLINE
  5
2C4
  8
11
 66
     1
 10
0.0
 20
0.0
 30
0.0
 70
     1
  0
VERTEX
  5
7EC
  8
11
 10
198.97925944346991
 20
110.3255659555283
 30
0.0
 42
0.0479752760773671
  0
VERTEX
  5
7ED
  8
11
 10
198.29239222209961
 20
110.17295391342741
 30
0.0
 42
-0.0528997705207019
  0
VERTEX
  5
7EE
  8
11
 10
197.6834902127016
 20
109.4443510901625
 30
0.0
 42
0.0933324906988985
  0
VERTEX
  5
7EF
  8
11
 10
198.97925944346991
 20
109.0308761060549
 30
0.0
  0
SEQEND
  5
7F0
  8
11
  0
LINE
  5
5DD
  8
0
 10
59.054259443470812
 20
98.678221030791178
 30
0.0
 11
59.054259443470933
 21
88.678221030791178
 31
0.0
  0
LINE
  5
5DE
  8
3
 10
57.971759443471058
 20
98.678221030791178
 30
0.0
 11
57.971759443470937
 21
88.678221030791178
 31
0.0
  0
LINE
  5
5DF
  8
3
 10
44.136759443470787
 20
98.678221030791178
 30
0.0
 11
44.136759443470787
 21
88.678221030791178
 31
0.0
  0
LINE
  5
5E0
  8
0
 10
43.054259443470919
 20
98.678221030791178
 30
0.0
 11
43.054259443470919
 21
88.678221030791178
 31
0.0
  0
LINE
  5
5E1
  8
0
 10
37.05425944347104
 20
71.178221030791207
 30
0.0
 11
37.05425944347104
 21
78.678221030791178
 31
0.0
  0
LINE
  5
5E2
  8
0
 10
37.05425944347104
 20
71.178221030791207
 30
0.0
 11
39.55425944347104
 21
68.678221030791207
 31
0.0
  0
LINE
  5
5E3
  8
0
 10
62.55425944347104
 20
68.678221030791207
 30
0.0
 11
39.55425944347104
 21
68.678221030791207
 31
0.0
  0
LINE
  5
5E4
  8
0
 10
62.55425944347104
 20
68.678221030791207
 30
0.0
 11
65.05425944347104
 21
71.178221030791207
 31
0.0
  0
LINE
  5
5E5
  8
0
 10
65.05425944347104
 20
78.678221030791178
 30
0.0
 11
65.05425944347104
 21
71.178221030791207
 31
0.0
  0
LINE
  5
5E6
  8
0
 10
60.05425944347104
 20
78.678221030791178
 30
0.0
 11
65.05425944347104
 21
78.678221030791178
 31
0.0
  0
LINE
  5
5E7
  8
0
 10
60.05425944347104
 20
88.678221030791178
 30
0.0
 11
60.05425944347104
 21
78.678221030791178
 31
0.0
  0
LINE
  5
5E8
  8
0
 10
42.05425944347104
 20
88.678221030791178
 30
0.0
 11
60.05425944347104
 21
88.678221030791178
 31
0.0
  0
LINE
  5
5E9
  8
0
 10
42.05425944347104
 20
78.678221030791178
 30
0.0
 11
42.05425944347104
 21
88.678221030791178
 31
0.0
  0
LINE
  5
5EA
  8
0
 10
37.05425944347104
 20
78.678221030791178
 30
0.0
 11
42.05425944347104
 21
78.678221030791178
 31
0.0
  0
LINE
  5
5F0
  8
0
 10
31.05425944347099
 20
100.67822103079121
 30
0.0
 11
32.208959981850278
 21
98.678221030791178
 31
0.0
  0
LINE
  5
5F1
  8
0
 10
31.05425944347099
 20
100.67822103079121
 30
0.0
 11
31.05425944347099
 21
132.67822103079121
 31
0.0
  0
LINE
  5
5F2
  8
0
 10
32.054259443470983
 20
100.67822103079121
 30
0.0
 11
31.05425944347099
 21
101.67822103079121
 31
0.0
  0
LINE
  5
5F3
  8
0
 10
70.054259443470983
 20
100.67822103079121
 30
0.0
 11
71.054259443470983
 21
101.67822103079121
 31
0.0
  0
LINE
  5
5F4
  8
0
 10
71.054259443470983
 20
100.67822103079121
 30
0.0
 11
69.899558905091681
 21
98.678221030791178
 31
0.0
  0
LINE
  5
5F5
  8
0
 10
32.054259443470983
 20
100.67822103079121
 30
0.0
 11
70.054259443470983
 21
100.67822103079121
 31
0.0
  0
LINE
  5
5F6
  8
0
 10
71.054259443470983
 20
100.67822103079121
 30
0.0
 11
71.054259443470983
 21
132.67822103079121
 31
0.0
  0
LINE
  5
5F7
  8
0
 10
32.208959981850278
 20
98.678221030791178
 30
0.0
 11
69.899558905091681
 21
98.678221030791178
 31
0.0
  0
LINE
  5
5F8
  8
0
 10
51.054259443470983
 20
100.67822103079121
 30
0.0
 11
51.054259443470983
 21
136.67822103079121
 31
0.0
  0
LINE
  5
5F9
  8
0
 10
69.054259443470983
 20
102.41433921231381
 30
0.0
 11
55.054259443470983
 21
102.41433921231381
 31
0.0
  0
LINE
  5
5FA
  8
0
 10
69.054259443470983
 20
101.3543392123138
 30
0.0
 11
55.054259443470983
 21
101.3543392123138
 31
0.0
  0
LINE
  5
5FB
  8
0
 10
69.054259443470983
 20
105.6656755096091
 30
0.0
 11
55.054259443470983
 21
105.6656755096091
 31
0.0
  0
LINE
  5
5FC
  8
0
 10
69.054259443470983
 20
104.6056755096091
 30
0.0
 11
55.054259443470983
 21
104.6056755096091
 31
0.0
  0
LINE
  5
5FD
  8
0
 10
69.054259443470983
 20
108.9170118069044
 30
0.0
 11
55.054259443470983
 21
108.9170118069044
 31
0.0
  0
LINE
  5
5FE
  8
0
 10
69.054259443470983
 20
107.8570118069044
 30
0.0
 11
55.054259443470983
 21
107.8570118069044
 31
0.0
  0
LINE
  5
5FF
  8
0
 10
69.054259443470983
 20
112.16834810419969
 30
0.0
 11
55.054259443470983
 21
112.16834810419969
 31
0.0
  0
LINE
  5
600
  8
0
 10
69.054259443470983
 20
111.10834810419971
 30
0.0
 11
55.054259443470983
 21
111.10834810419971
 31
0.0
  0
LINE
  5
601
  8
0
 10
69.054259443470983
 20
115.419684401495
 30
0.0
 11
55.054259443470983
 21
115.419684401495
 31
0.0
  0
LINE
  5
602
  8
0
 10
69.054259443470983
 20
114.359684401495
 30
0.0
 11
55.054259443470983
 21
114.359684401495
 31
0.0
  0
LINE
  5
603
  8
0
 10
69.054259443470983
 20
118.6710206987903
 30
0.0
 11
55.054259443470983
 21
118.6710206987903
 31
0.0
  0
LINE
  5
604
  8
0
 10
69.054259443470983
 20
117.6110206987903
 30
0.0
 11
55.054259443470983
 21
117.6110206987903
 31
0.0
  0
LINE
  5
605
  8
0
 10
69.054259443470983
 20
121.9223569960857
 30
0.0
 11
55.054259443470983
 21
121.9223569960857
 31
0.0
  0
LINE
  5
606
  8
0
 10
69.054259443470983
 20
120.86235699608559
 30
0.0
 11
55.054259443470983
 21
120.86235699608559
 31
0.0
  0
LINE
  5
607
  8
0
 10
69.054259443470983
 20
125.17369329338101
 30
0.0
 11
55.054259443470983
 21
125.17369329338101
 31
0.0
  0
LINE
  5
608
  8
0
 10
69.054259443470983
 20
124.1136932933809
 30
0.0
 11
55.054259443470983
 21
124.1136932933809
 31
0.0
  0
LINE
  5
609
  8
0
 10
69.054259443470983
 20
128.4250295906763
 30
0.0
 11
55.054259443470983
 21
128.4250295906763
 31
0.0
  0
LINE
  5
60A
  8
0
 10
69.054259443470983
 20
127.3650295906763
 30
0.0
 11
55.054259443470983
 21
127.3650295906763
 31
0.0
  0
LINE
  5
60B
  8
0
 10
69.054259443470983
 20
131.6763658879716
 30
0.0
 11
55.054259443470983
 21
131.6763658879716
 31
0.0
  0
LINE
  5
60C
  8
0
 10
69.054259443470983
 20
130.6163658879716
 30
0.0
 11
55.054259443470983
 21
130.6163658879716
 31
0.0
  0
LINE
  5
60D
  8
0
 10
69.054259443470983
 20
133.86770218526689
 30
0.0
 11
55.054259443470983
 21
133.86770218526689
 31
0.0
  0
LINE
  5
60E
  8
0
 10
55.054259443470983
 20
100.67822103079121
 30
0.0
 11
55.054259443470983
 21
136.67822103079121
 31
0.0
  0
LINE
  5
60F
  8
0
 10
69.054259443470983
 20
134.92770218526681
 30
0.0
 11
55.054259443470983
 21
134.92770218526681
 31
0.0
  0
LINE
  5
610
  8
0
 10
33.054259443470983
 20
134.92770218526681
 30
0.0
 11
47.054259443470983
 21
134.92770218526681
 31
0.0
  0
LINE
  5
611
  8
0
 10
33.054259443470983
 20
133.86770218526689
 30
0.0
 11
47.054259443470983
 21
133.86770218526689
 31
0.0
  0
LINE
  5
612
  8
0
 10
33.054259443470983
 20
130.6163658879716
 30
0.0
 11
47.054259443470983
 21
130.6163658879716
 31
0.0
  0
LINE
  5
613
  8
0
 10
33.054259443470983
 20
131.6763658879716
 30
0.0
 11
47.054259443470983
 21
131.6763658879716
 31
0.0
  0
LINE
  5
614
  8
0
 10
33.054259443470983
 20
127.3650295906763
 30
0.0
 11
47.054259443470983
 21
127.3650295906763
 31
0.0
  0
LINE
  5
615
  8
0
 10
33.054259443470983
 20
128.4250295906763
 30
0.0
 11
47.054259443470983
 21
128.4250295906763
 31
0.0
  0
LINE
  5
616
  8
0
 10
33.054259443470983
 20
124.1136932933809
 30
0.0
 11
47.054259443470983
 21
124.1136932933809
 31
0.0
  0
LINE
  5
617
  8
0
 10
33.054259443470983
 20
125.17369329338101
 30
0.0
 11
47.054259443470983
 21
125.17369329338101
 31
0.0
  0
LINE
  5
618
  8
0
 10
33.054259443470983
 20
120.86235699608559
 30
0.0
 11
47.054259443470983
 21
120.86235699608559
 31
0.0
  0
LINE
  5
619
  8
0
 10
33.054259443470983
 20
121.9223569960857
 30
0.0
 11
47.054259443470983
 21
121.9223569960857
 31
0.0
  0
LINE
  5
61A
  8
0
 10
33.054259443470983
 20
117.6110206987903
 30
0.0
 11
47.054259443470983
 21
117.6110206987903
 31
0.0
  0
LINE
  5
61B
  8
0
 10
33.054259443470983
 20
118.6710206987903
 30
0.0
 11
47.054259443470983
 21
118.6710206987903
 31
0.0
  0
LINE
  5
61C
  8
0
 10
33.054259443470983
 20
114.359684401495
 30
0.0
 11
47.054259443470983
 21
114.359684401495
 31
0.0
  0
LINE
  5
61D
  8
0
 10
33.054259443470983
 20
115.419684401495
 30
0.0
 11
47.054259443470983
 21
115.419684401495
 31
0.0
  0
LINE
  5
61E
  8
0
 10
33.054259443470983
 20
111.10834810419971
 30
0.0
 11
47.054259443470983
 21
111.10834810419971
 31
0.0
  0
LINE
  5
61F
  8
0
 10
33.054259443470983
 20
112.16834810419969
 30
0.0
 11
47.054259443470983
 21
112.16834810419969
 31
0.0
  0
LINE
  5
620
  8
0
 10
33.054259443470983
 20
107.8570118069044
 30
0.0
 11
47.054259443470983
 21
107.8570118069044
 31
0.0
  0
LINE
  5
621
  8
0
 10
33.054259443470983
 20
108.9170118069044
 30
0.0
 11
47.054259443470983
 21
108.9170118069044
 31
0.0
  0
LINE
  5
622
  8
0
 10
33.054259443470983
 20
104.6056755096091
 30
0.0
 11
47.054259443470983
 21
104.6056755096091
 31
0.0
  0
LINE
  5
623
  8
0
 10
33.054259443470983
 20
105.6656755096091
 30
0.0
 11
47.054259443470983
 21
105.6656755096091
 31
0.0
  0
LINE
  5
624
  8
0
 10
33.054259443470983
 20
101.3543392123138
 30
0.0
 11
47.054259443470983
 21
101.3543392123138
 31
0.0
  0
LINE
  5
625
  8
0
 10
33.054259443470983
 20
102.41433921231381
 30
0.0
 11
47.054259443470983
 21
102.41433921231381
 31
0.0
  0
LINE
  5
626
  8
0
 10
47.054259443470983
 20
100.67822103079121
 30
0.0
 11
47.054259443470983
 21
136.67822103079121
 31
0.0
  0
LINE
  5
627
  8
0
 10
67.054259443470983
 20
136.67822103079121
 30
0.0
 11
35.054259443470983
 21
136.67822103079121
 31
0.0
  0
ARC
  5
628
  8
0
 10
67.054259443470983
 20
132.67822103079121
 30
0.0
 40
4.0
 50
0.0
 51
90.0
  0
ARC
  5
629
  8
0
 10
35.054259443470983
 20
132.67822103079121
 30
0.0
 40
4.0
 50
90.0
 51
180.0
  0
LINE
  5
62A
  8
0
 10
151.05425944347101
 20
128.4250295906763
 30
0.0
 11
153.55425944347101
 21
130.1755484362005
 31
0.0
  0
LINE
  5
62B
  8
0
 10
153.55425944347101
 20
126.9242121389052
 30
0.0
 11
151.05425944347101
 21
127.3650295906763
 31
0.0
  0
LINE
  5
62C
  8
0
 10
151.05425944347101
 20
127.3650295906763
 30
0.0
 11
151.05425944347101
 21
128.4250295906763
 31
0.0
  0
LINE
  5
62D
  8
0
 10
151.05425944347101
 20
131.6763658879716
 30
0.0
 11
153.55425944347101
 21
133.4268847334958
 31
0.0
  0
LINE
  5
62E
  8
0
 10
153.55425944347101
 20
130.1755484362005
 30
0.0
 11
151.05425944347101
 21
130.6163658879716
 31
0.0
  0
LINE
  5
62F
  8
0
 10
151.05425944347101
 20
130.6163658879716
 30
0.0
 11
151.05425944347101
 21
131.6763658879716
 31
0.0
  0
LINE
  5
630
  8
0
 10
153.55425944347101
 20
136.67822103079121
 30
0.0
 11
159.15818138909981
 21
136.67822103079121
 31
0.0
  0
LINE
  5
631
  8
0
 10
151.05425944347101
 20
134.92770218526681
 30
0.0
 11
153.55425944347101
 21
136.67822103079121
 31
0.0
  0
LINE
  5
632
  8
0
 10
151.05425944347101
 20
133.86770218526689
 30
0.0
 11
151.05425944347101
 21
134.92770218526681
 31
0.0
  0
LINE
  5
633
  8
0
 10
153.55425944347101
 20
133.4268847334958
 30
0.0
 11
151.05425944347101
 21
133.86770218526689
 31
0.0
  0
LINE
  5
634
  8
0
 10
151.05425944347101
 20
101.3543392123138
 30
0.0
 11
154.88871619425339
 21
100.67822103079121
 31
0.0
  0
LINE
  5
635
  8
0
 10
151.05425944347101
 20
102.41433921231381
 30
0.0
 11
153.55425944347101
 21
104.164858057838
 31
0.0
  0
LINE
  5
636
  8
0
 10
151.05425944347101
 20
101.3543392123138
 30
0.0
 11
151.05425944347101
 21
102.41433921231381
 31
0.0
  0
LINE
  5
637
  8
0
 10
151.05425944347101
 20
105.6656755096091
 30
0.0
 11
153.55425944347101
 21
107.4161943551333
 31
0.0
  0
LINE
  5
638
  8
0
 10
153.55425944347101
 20
104.164858057838
 30
0.0
 11
151.05425944347101
 21
104.6056755096091
 31
0.0
  0
LINE
  5
639
  8
0
 10
151.05425944347101
 20
104.6056755096091
 30
0.0
 11
151.05425944347101
 21
105.6656755096091
 31
0.0
  0
LINE
  5
63A
  8
0
 10
151.05425944347101
 20
108.9170118069044
 30
0.0
 11
153.55425944347101
 21
110.6675306524287
 31
0.0
  0
LINE
  5
63B
  8
0
 10
153.55425944347101
 20
107.4161943551333
 30
0.0
 11
151.05425944347101
 21
107.8570118069044
 31
0.0
  0
LINE
  5
63C
  8
0
 10
151.05425944347101
 20
107.8570118069044
 30
0.0
 11
151.05425944347101
 21
108.9170118069044
 31
0.0
  0
LINE
  5
63D
  8
0
 10
151.05425944347101
 20
112.16834810419969
 30
0.0
 11
153.55425944347101
 21
113.91886694972401
 31
0.0
  0
LINE
  5
63E
  8
0
 10
153.55425944347101
 20
110.6675306524287
 30
0.0
 11
151.05425944347101
 21
111.10834810419971
 31
0.0
  0
LINE
  5
63F
  8
0
 10
151.05425944347101
 20
111.10834810419971
 30
0.0
 11
151.05425944347101
 21
112.16834810419969
 31
0.0
  0
LINE
  5
640
  8
0
 10
151.05425944347101
 20
115.419684401495
 30
0.0
 11
153.55425944347101
 21
117.1702032470193
 31
0.0
  0
LINE
  5
641
  8
0
 10
153.55425944347101
 20
113.91886694972401
 30
0.0
 11
151.05425944347101
 21
114.3596844014951
 31
0.0
  0
LINE
  5
642
  8
0
 10
151.05425944347101
 20
114.3596844014951
 30
0.0
 11
151.05425944347101
 21
115.419684401495
 31
0.0
  0
LINE
  5
643
  8
0
 10
151.05425944347101
 20
118.6710206987903
 30
0.0
 11
153.55425944347101
 21
120.4215395443146
 31
0.0
  0
LINE
  5
644
  8
0
 10
153.55425944347101
 20
117.1702032470193
 30
0.0
 11
151.05425944347101
 21
117.6110206987903
 31
0.0
  0
LINE
  5
645
  8
0
 10
151.05425944347101
 20
117.6110206987903
 30
0.0
 11
151.05425944347101
 21
118.6710206987903
 31
0.0
  0
LINE
  5
646
  8
0
 10
151.05425944347101
 20
121.9223569960857
 30
0.0
 11
153.55425944347101
 21
123.67287584160989
 31
0.0
  0
LINE
  5
647
  8
0
 10
153.55425944347101
 20
120.4215395443145
 30
0.0
 11
151.05425944347101
 21
120.86235699608559
 31
0.0
  0
LINE
  5
648
  8
0
 10
151.05425944347101
 20
120.86235699608559
 30
0.0
 11
151.05425944347101
 21
121.9223569960857
 31
0.0
  0
LINE
  5
649
  8
0
 10
151.05425944347101
 20
125.17369329338101
 30
0.0
 11
153.55425944347101
 21
126.9242121389052
 31
0.0
  0
LINE
  5
64A
  8
0
 10
153.55425944347101
 20
123.67287584160989
 30
0.0
 11
151.05425944347101
 21
124.1136932933809
 31
0.0
  0
LINE
  5
64B
  8
0
 10
151.05425944347101
 20
124.1136932933809
 30
0.0
 11
151.05425944347101
 21
125.17369329338101
 31
0.0
  0
LINE
  5
64C
  8
2
 10
155.05425944347081
 20
100.67822103079121
 30
0.0
 11
155.05425944347081
 21
136.67822103079121
 31
0.0
  0
LINE
  5
64D
  8
0
 10
182.13105436271411
 20
98.678221030791178
 30
0.0
 11
184.97746452422791
 21
98.678221030791178
 31
0.0
  0
ARC
  5
64E
  8
0
 10
181.0542594379356
 20
99.743284540252205
 30
0.0
 40
0.4
 50
29.99999999999973
 51
149.9999999999998
  0
LINE
  5
64F
  8
0
 10
182.13105436271411
 20
98.678221030791178
 30
0.0
 11
181.4006695994494
 21
99.943284540252193
 31
0.0
  0
LINE
  5
650
  8
0
 10
180.7078492764218
 20
99.943284540252193
 30
0.0
 11
179.97746452422791
 21
98.678221030791178
 31
0.0
  0
LINE
  5
651
  8
0
 10
177.13105436271411
 20
98.678221030791178
 30
0.0
 11
179.97746452422791
 21
98.678221030791178
 31
0.0
  0
ARC
  5
652
  8
0
 10
176.0542594379356
 20
99.743284540252205
 30
0.0
 40
0.4
 50
29.99999999999973
 51
149.9999999999998
  0
LINE
  5
653
  8
0
 10
177.13105436271411
 20
98.678221030791178
 30
0.0
 11
176.4006695994494
 21
99.943284540252193
 31
0.0
  0
LINE
  5
654
  8
0
 10
175.7078492764218
 20
99.943284540252193
 30
0.0
 11
174.97746452422791
 21
98.678221030791178
 31
0.0
  0
LINE
  5
655
  8
0
 10
172.13105436271411
 20
98.678221030791178
 30
0.0
 11
174.97746452422791
 21
98.678221030791178
 31
0.0
  0
ARC
  5
656
  8
0
 10
171.05425943793551
 20
99.743284540252205
 30
0.0
 40
0.4
 50
29.99999999999973
 51
149.9999999999998
  0
LINE
  5
657
  8
0
 10
172.13105436271411
 20
98.678221030791178
 30
0.0
 11
171.4006695994494
 21
99.943284540252193
 31
0.0
  0
LINE
  5
658
  8
0
 10
170.7078492764218
 20
99.943284540252193
 30
0.0
 11
169.97746452422791
 21
98.678221030791178
 31
0.0
  0
LINE
  5
659
  8
0
 10
166.05425944347101
 20
100.67822103079121
 30
0.0
 11
166.05425944347101
 21
111.67822103079121
 31
0.0
  0
LINE
  5
65A
  8
0
 10
166.05425944347101
 20
100.67822103079121
 30
0.0
 11
168.05425944347101
 21
98.678221030791178
 31
0.0
  0
LINE
  5
65B
  8
0
 10
167.05425944347101
 20
112.67822103079109
 30
0.0
 11
166.05425944347101
 21
111.67822103079121
 31
0.0
  0
LINE
  5
65C
  8
0
 10
181.05425944347101
 20
110.67822103079121
 30
0.0
 11
179.0542594434709
 21
112.67822103079121
 31
0.0
  0
LINE
  5
65D
  8
0
 10
183.0542594434709
 20
112.67822103079109
 30
0.0
 11
181.05425944347101
 21
110.67822103079121
 31
0.0
  0
LINE
  5
65E
  8
0
 10
181.05425944347101
 20
114.67822103079099
 30
0.0
 11
183.0542594434709
 21
112.67822103079099
 31
0.0
  0
LINE
  5
65F
  8
0
 10
168.05425944347101
 20
98.678221030791178
 30
0.0
 11
169.97746452422791
 21
98.678221030791178
 31
0.0
  0
LINE
  5
660
  8
0
 10
167.05425944347101
 20
112.67822103079109
 30
0.0
 11
180.0542594434709
 21
112.67822103079109
 31
0.0
  0
LINE
  5
661
  8
0
 10
164.2864924905046
 20
112.67822103079109
 30
0.0
 11
166.05425944347101
 21
114.4459879837575
 31
0.0
  0
LINE
  5
662
  8
0
 10
166.05425944347101
 20
114.4459879837575
 30
0.0
 11
167.82202639643739
 21
112.67822103079109
 31
0.0
  0
LINE
  5
663
  8
0
 10
166.05425944347101
 20
110.9104540778248
 30
0.0
 11
164.2864924905046
 21
112.67822103079109
 31
0.0
  0
LINE
  5
664
  8
0
 10
165.55425944347101
 20
100.67822103079121
 30
0.0
 11
166.05425944347101
 21
101.17822103079109
 31
0.0
  0
LINE
  5
665
  8
0
 10
181.05425944347101
 20
113.67822103079109
 30
0.0
 11
180.0542594434709
 21
112.67822103079109
 31
0.0
  0
LINE
  5
666
  8
0
 10
237.1310543627142
 20
98.678221030791178
 30
0.0
 11
239.97746452422791
 21
98.678221030791178
 31
0.0
  0
LINE
  5
667
  8
0
 10
246.05425944347101
 20
100.67822103079121
 30
0.0
 11
244.05425944347101
 21
98.678221030791178
 31
0.0
  0
LINE
  5
668
  8
0
 10
242.1310543627142
 20
98.678221030791178
 30
0.0
 11
241.4006695994494
 21
99.943284540252193
 31
0.0
  0
LINE
  5
669
  8
0
 10
240.7078492764218
 20
99.943284540252193
 30
0.0
 11
239.97746452422791
 21
98.678221030791178
 31
0.0
  0
LINE
  5
66A
  8
0
 10
242.1310543627142
 20
98.678221030791178
 30
0.0
 11
244.05425944347101
 21
98.678221030791178
 31
0.0
  0
ARC
  5
66B
  8
0
 10
241.0542594379356
 20
99.743284540252205
 30
0.0
 40
0.4
 50
29.99999999999973
 51
149.9999999999998
  0
ARC
  5
66C
  8
0
 10
236.0542594379356
 20
99.743284540252205
 30
0.0
 40
0.4
 50
29.99999999999973
 51
149.9999999999998
  0
LINE
  5
66D
  8
0
 10
237.1310543627142
 20
98.678221030791178
 30
0.0
 11
236.4006695994494
 21
99.943284540252193
 31
0.0
  0
LINE
  5
66E
  8
0
 10
235.7078492764218
 20
99.943284540252193
 30
0.0
 11
234.97746452422791
 21
98.678221030791178
 31
0.0
  0
LINE
  5
66F
  8
0
 10
232.13105436271411
 20
98.678221030791178
 30
0.0
 11
234.97746452422791
 21
98.678221030791178
 31
0.0
  0
ARC
  5
670
  8
0
 10
231.0542594379356
 20
99.743284540252205
 30
0.0
 40
0.4
 50
29.99999999999973
 51
149.9999999999998
  0
LINE
  5
671
  8
0
 10
232.13105436271411
 20
98.678221030791178
 30
0.0
 11
231.4006695994494
 21
99.943284540252193
 31
0.0
  0
LINE
  5
672
  8
0
 10
230.7078492764218
 20
99.943284540252193
 30
0.0
 11
229.97746452422791
 21
98.678221030791178
 31
0.0
  0
LINE
  5
673
  8
0
 10
227.1310543627142
 20
98.678221030791178
 30
0.0
 11
229.97746452422791
 21
98.678221030791178
 31
0.0
  0
ARC
  5
674
  8
0
 10
226.0542594379356
 20
99.743284540252205
 30
0.0
 40
0.4
 50
29.99999999999973
 51
149.9999999999998
  0
LINE
  5
675
  8
0
 10
227.1310543627142
 20
98.678221030791178
 30
0.0
 11
226.4006695994494
 21
99.943284540252193
 31
0.0
  0
LINE
  5
676
  8
0
 10
225.7078492764218
 20
99.943284540252193
 30
0.0
 11
224.97746452422791
 21
98.678221030791178
 31
0.0
  0
LINE
  5
677
  8
0
 10
222.1310543627142
 20
98.678221030791178
 30
0.0
 11
224.97746452422791
 21
98.678221030791178
 31
0.0
  0
ARC
  5
678
  8
0
 10
221.0542594379356
 20
99.743284540252205
 30
0.0
 40
0.4
 50
29.99999999999973
 51
149.9999999999998
  0
LINE
  5
679
  8
0
 10
222.1310543627142
 20
98.678221030791178
 30
0.0
 11
221.4006695994494
 21
99.943284540252193
 31
0.0
  0
LINE
  5
67A
  8
0
 10
220.7078492764218
 20
99.943284540252193
 30
0.0
 11
219.97746452422791
 21
98.678221030791178
 31
0.0
  0
LINE
  5
67B
  8
0
 10
217.1310543627142
 20
98.678221030791178
 30
0.0
 11
219.97746452422791
 21
98.678221030791178
 31
0.0
  0
ARC
  5
67C
  8
0
 10
216.0542594379356
 20
99.743284540252205
 30
0.0
 40
0.4
 50
29.99999999999973
 51
149.9999999999998
  0
LINE
  5
67D
  8
0
 10
217.1310543627142
 20
98.678221030791178
 30
0.0
 11
216.4006695994494
 21
99.943284540252193
 31
0.0
  0
LINE
  5
67E
  8
0
 10
215.7078492764218
 20
99.943284540252193
 30
0.0
 11
214.97746452422791
 21
98.678221030791178
 31
0.0
  0
LINE
  5
67F
  8
0
 10
212.1310543627142
 20
98.678221030791178
 30
0.0
 11
214.97746452422791
 21
98.678221030791178
 31
0.0
  0
ARC
  5
680
  8
0
 10
211.0542594379356
 20
99.743284540252205
 30
0.0
 40
0.4
 50
29.99999999999973
 51
149.9999999999998
  0
LINE
  5
681
  8
0
 10
212.1310543627142
 20
98.678221030791178
 30
0.0
 11
211.4006695994494
 21
99.943284540252193
 31
0.0
  0
LINE
  5
682
  8
0
 10
210.7078492764218
 20
99.943284540252193
 30
0.0
 11
209.97746452422791
 21
98.678221030791178
 31
0.0
  0
LINE
  5
683
  8
0
 10
207.13105436271411
 20
98.678221030791178
 30
0.0
 11
209.97746452422791
 21
98.678221030791178
 31
0.0
  0
ARC
  5
684
  8
0
 10
206.0542594379356
 20
99.743284540252205
 30
0.0
 40
0.4
 50
29.99999999999973
 51
149.9999999999998
  0
LINE
  5
685
  8
0
 10
207.13105436271411
 20
98.678221030791178
 30
0.0
 11
206.4006695994494
 21
99.943284540252193
 31
0.0
  0
LINE
  5
686
  8
0
 10
205.7078492764218
 20
99.943284540252193
 30
0.0
 11
204.97746452422791
 21
98.678221030791178
 31
0.0
  0
LINE
  5
687
  8
0
 10
202.1310543627142
 20
98.678221030791178
 30
0.0
 11
204.97746452422791
 21
98.678221030791178
 31
0.0
  0
ARC
  5
688
  8
0
 10
201.0542594379356
 20
99.743284540252205
 30
0.0
 40
0.4
 50
29.99999999999973
 51
149.9999999999998
  0
LINE
  5
689
  8
0
 10
202.1310543627142
 20
98.678221030791178
 30
0.0
 11
201.4006695994494
 21
99.943284540252193
 31
0.0
  0
LINE
  5
68A
  8
0
 10
200.7078492764218
 20
99.943284540252193
 30
0.0
 11
199.97746452422791
 21
98.678221030791178
 31
0.0
  0
LINE
  5
68B
  8
0
 10
197.13105436271411
 20
98.678221030791178
 30
0.0
 11
199.97746452422791
 21
98.678221030791178
 31
0.0
  0
ARC
  5
68C
  8
0
 10
196.05425943793551
 20
99.743284540252205
 30
0.0
 40
0.4
 50
29.99999999999973
 51
149.9999999999998
  0
LINE
  5
68D
  8
0
 10
197.13105436271411
 20
98.678221030791178
 30
0.0
 11
196.4006695994494
 21
99.943284540252193
 31
0.0
  0
LINE
  5
68E
  8
0
 10
195.7078492764218
 20
99.943284540252193
 30
0.0
 11
194.97746452422791
 21
98.678221030791178
 31
0.0
  0
LINE
  5
68F
  8
0
 10
192.13105436271411
 20
98.678221030791178
 30
0.0
 11
194.97746452422791
 21
98.678221030791178
 31
0.0
  0
ARC
  5
690
  8
0
 10
191.05425943793551
 20
99.743284540252205
 30
0.0
 40
0.4
 50
29.99999999999973
 51
149.9999999999998
  0
LINE
  5
691
  8
0
 10
192.13105436271411
 20
98.678221030791178
 30
0.0
 11
191.4006695994494
 21
99.943284540252193
 31
0.0
  0
LINE
  5
692
  8
0
 10
190.7078492764218
 20
99.943284540252193
 30
0.0
 11
189.97746452422791
 21
98.678221030791178
 31
0.0
  0
LINE
  5
693
  8
0
 10
187.13105436271411
 20
98.678221030791178
 30
0.0
 11
189.97746452422791
 21
98.678221030791178
 31
0.0
  0
ARC
  5
694
  8
0
 10
186.05425943793551
 20
99.743284540252205
 30
0.0
 40
0.4
 50
29.99999999999973
 51
149.9999999999998
  0
LINE
  5
695
  8
0
 10
187.13105436271411
 20
98.678221030791178
 30
0.0
 11
186.4006695994494
 21
99.943284540252193
 31
0.0
  0
LINE
  5
696
  8
0
 10
185.7078492764218
 20
99.943284540252193
 30
0.0
 11
184.97746452422791
 21
98.678221030791178
 31
0.0
  0
LINE
  5
697
  8
0
 10
196.05425944347101
 20
103.67822103079121
 30
0.0
 11
226.05425944347101
 21
103.67822103079121
 31
0.0
  0
LINE
  5
698
  8
0
 10
166.05425944347101
 20
100.67822103079099
 30
0.0
 11
246.05425944347101
 21
100.67822103079121
 31
0.0
  0
LINE
  5
699
  8
0
 10
154.88871619425339
 20
100.67822103079121
 30
0.0
 11
165.55425944347101
 21
100.67822103079121
 31
0.0
  0
LINE
  5
69A
  8
0
 10
154.88871619425339
 20
100.67822103079121
 30
0.0
 11
165.55425944347101
 21
100.67822103079121
 31
0.0
  0
LINE
  5
69B
  8
0
 10
206.5542594434707
 20
99.677259136468365
 30
0.0
 11
206.5542594434707
 21
88.678221030791178
 31
0.0
  0
LINE
  5
69C
  8
3
 10
205.471759443471
 20
99.534364944843574
 30
0.0
 11
205.471759443471
 21
88.678221030791178
 31
0.0
  0
LINE
  5
69D
  8
3
 10
191.63675944347071
 20
99.534364944844015
 30
0.0
 11
191.63675944347071
 21
88.678221030791178
 31
0.0
  0
LINE
  5
69E
  8
0
 10
190.5542594434705
 20
99.677259136467683
 30
0.0
 11
190.5542594434707
 21
88.678221030791178
 31
0.0
  0
LINE
  5
69F
  8
0
 10
220.5542594434705
 20
99.677259136467683
 30
0.0
 11
220.55425944347081
 21
88.678221030791178
 31
0.0
  0
LINE
  5
6A0
  8
3
 10
221.63675944347071
 20
99.534364944843773
 30
0.0
 11
221.63675944347071
 21
88.678221030791178
 31
0.0
  0
LINE
  5
6A1
  8
3
 10
235.471759443471
 20
99.534364944843574
 30
0.0
 11
235.471759443471
 21
88.678221030791178
 31
0.0
  0
LINE
  5
6A2
  8
0
 10
236.55425944347101
 20
99.677259136468251
 30
0.0
 11
236.55425944347081
 21
88.678221030791178
 31
0.0
  0
POLYLINE
  5
6A3
  8
0
 66
     1
 10
0.0
 20
0.0
 30
0.0
 70
     2
  0
VERTEX
  5
6A4
  8
0
 10
227.20889703876361
 20
88.678221030791178
 30
0.0
 42
0.0189246929317062
  0
VERTEX
  5
6A5
  8
0
 10
227.87973231527829
 20
88.601742061974846
 30
0.0
 42
0.0189246929317235
 70
     1
  0
VERTEX
  5
6A6
  8
0
 10
228.55443007017971
 20
88.576208938005479
 30
0.0
 42
0.0189199104228423
  0
VERTEX
  5
6A7
  8
0
 10
229.2289567099738
 20
88.60175496271097
 30
0.0
 42
0.0189199104228484
 70
     1
  0
VERTEX
  5
6A8
  8
0
 10
229.89962184817841
 20
88.678221030791178
 30
0.0
  0
SEQEND
  5
6A9
  8
0
  0
POLYLINE
  5
6AA
  8
0
 66
     1
 10
0.0
 20
0.0
 30
0.0
 70
     2
  0
VERTEX
  5
6AB
  8
0
 10
197.2088970387635
 20
88.678221030791178
 30
0.0
 42
0.0189246929317062
  0
VERTEX
  5
6AC
  8
0
 10
197.8797323152782
 20
88.601742061974846
 30
0.0
 42
0.0189246929317235
 70
     1
  0
VERTEX
  5
6AD
  8
0
 10
198.55443007017971
 20
88.576208938005479
 30
0.0
 42
0.0189199104228423
  0
VERTEX
  5
6AE
  8
0
 10
199.2289567099738
 20
88.60175496271097
 30
0.0
 42
0.0189199104228484
 70
     1
  0
VERTEX
  5
6AF
  8
0
 10
199.89962184817841
 20
88.678221030791178
 30
0.0
  0
SEQEND
  5
6B0
  8
0
  0
LINE
  5
6B1
  8
0
 10
241.05425944347101
 20
88.678221030791178
 30
0.0
 11
241.05425944347101
 21
78.678221030791178
 31
0.0
  0
LINE
  5
6B2
  8
0
 10
241.05425944347101
 20
88.678221030791178
 30
0.0
 11
229.89962184817841
 21
88.678221030791178
 31
0.0
  0
LINE
  5
6B3
  8
0
 10
227.20889703876361
 20
88.678221030791178
 30
0.0
 11
199.89962184817841
 21
88.678221030791178
 31
0.0
  0
LINE
  5
6B4
  8
0
 10
241.05425944347101
 20
71.17822103079115
 30
0.0
 11
241.05425944347101
 21
68.67822103079115
 31
0.0
  0
LINE
  5
6B5
  8
0
 10
241.05425944347101
 20
78.678221030791178
 30
0.0
 11
241.05425944347101
 21
71.17822103079115
 31
0.0
  0
LINE
  5
6B6
  8
0
 10
186.05425944347101
 20
88.678221030791178
 30
0.0
 11
186.05425944347101
 21
78.678221030791178
 31
0.0
  0
LINE
  5
6B7
  8
0
 10
197.2088970387635
 20
88.678221030791178
 30
0.0
 11
186.05425944347101
 21
88.678221030791178
 31
0.0
  0
LINE
  5
6B8
  8
0
 10
186.05425944347101
 20
68.67822103079115
 30
0.0
 11
186.05425944347101
 21
71.17822103079115
 31
0.0
  0
LINE
  5
6B9
  8
0
 10
241.05425944347101
 20
68.67822103079115
 30
0.0
 11
186.05425944347101
 21
68.67822103079115
 31
0.0
  0
LINE
  5
6BA
  8
0
 10
186.05425944347101
 20
78.678221030791178
 30
0.0
 11
186.05425944347101
 21
71.17822103079115
 31
0.0
  0
LINE
  5
6BB
  8
0
 10
186.05425944347101
 20
71.17822103079115
 30
0.0
 11
241.05425944347101
 21
71.17822103079115
 31
0.0
  0
LINE
  5
6BC
  8
0
 10
241.05425944347101
 20
78.678221030791178
 30
0.0
 11
186.05425944347101
 21
78.678221030791178
 31
0.0
  0
TEXT
  5
70D
  8
0
 62
     3
 10
0.0
 20
0.0
 30
0.0
 40
10.0
  1
BJ202-16030T
  7
STANDARD1
  0
ENDSEC
  0
EOF
