  0
SECTION
  2
HEADER
  9
$ACADVER
  1
AC1009
  9
$INSBASE
 10
0.0
 20
0.0
 30
0.0
  9
$EXTMIN
 10
0.0
 20
-2.960436562073669
 30
0.0
  9
$EXTMAX
 10
278.25284317436348
 20
130.05331996175329
 30
0.0
  9
$LIMMIN
 10
0.0
 20
0.0
  9
$LIMMAX
 10
375.0
 20
270.0
  9
$ORTHOMODE
 70
     1
  9
$REGENMODE
 70
     1
  9
$FILLMODE
 70
     1
  9
$QTEXTMODE
 70
     0
  9
$MIRRTEXT
 70
     0
  9
$DRAGMODE
 70
     2
  9
$LTSCALE
 40
10.0
  9
$OSMODE
 70
  3071
  9
$ATTMODE
 70
     1
  9
$TEXTSIZE
 40
0.2
  9
$TRACEWID
 40
0.05
  9
$TEXTSTYLE
  7
STANDARD
  9
$CLAYER
  8
0
  9
$CELTYPE
  6
BYLAYER
  9
$CECOLOR
 62
   256
  9
$DIMSCALE
 40
1.0
  9
$DIMASZ
 40
3.0
  9
$DIMEXO
 40
2.0
  9
$DIMDLI
 40
0.38
  9
$DIMRND
 40
0.0
  9
$DIMDLE
 40
0.0
  9
$DIMEXE
 40
2.0
  9
$DIMTP
 40
0.0
  9
$DIMTM
 40
0.0
  9
$DIMTXT
 40
3.2000000000000002
  9
$DIMCEN
 40
0.0
  9
$DIMTSZ
 40
0.0
  9
$DIMTOL
 70
     0
  9
$DIMLIM
 70
     0
  9
$DIMTIH
 70
     0
  9
$DIMTOH
 70
     0
  9
$DIMSE1
 70
     0
  9
$DIMSE2
 70
     0
  9
$DIMTAD
 70
     1
  9
$DIMZIN
 70
     0
  9
$DIMBLK
  1

  9
$DIMASO
 70
     0
  9
$DIMSHO
 70
     0
  9
$DIMPOST
  1

  9
$DIMAPOST
  1

  9
$DIMALT
 70
     0
  9
$DIMALTD
 70
     2
  9
$DIMALTF
 40
25.399999999999999
  9
$DIMLFAC
 40
1.0
  9
$DIMTOFL
 70
     1
  9
$DIMTVP
 40
1.6000000000000001
  9
$DIMTIX
 70
     1
  9
$DIMSOXD
 70
     0
  9
$DIMSAH
 70
     0
  9
$DIMBLK1
  1

  9
$DIMBLK2
  1

  9
$DIMSTYLE
  2
STANDARD
  9
$DIMCLRD
 70
     0
  9
$DIMCLRE
 70
     0
  9
$DIMCLRT
 70
     0
  9
$DIMTFAC
 40
1.0
  9
$DIMGAP
 40
0.09
  9
$LUNITS
 70
     2
  9
$LUPREC
 70
     4
  9
$SKETCHINC
 40
0.1
  9
$FILLETRAD
 40
0.0
  9
$AUNITS
 70
     0
  9
$AUPREC
 70
     4
  9
$MENU
  1
E:\r13\win\SUPPORT\ACAD
  9
$ELEVATION
 40
0.0
  9
$PELEVATION
 40
0.0
  9
$THICKNESS
 40
0.0
  9
$LIMCHECK
 70
     0
  9
$BLIPMODE
 70
     0
  9
$CHAMFERA
 40
0.0
  9
$CHAMFERB
 40
0.0
  9
$SKPOLY
 70
     0
  9
$TDCREATE
 40
2449839.7571875011
  9
$TDUPDATE
 40
2456597.6658365969
  9
$TDINDWG
 40
0.1524542014
  9
$TDUSRTIMER
 40
0.1524542014
  9
$USRTIMER
 70
     1
  9
$ANGBASE
 50
0.0
  9
$ANGDIR
 70
     0
  9
$PDMODE
 70
     0
  9
$PDSIZE
 40
0.0
  9
$PLINEWID
 40
0.0
  9
$COORDS
 70
     1
  9
$SPLFRAME
 70
     0
  9
$SPLINETYPE
 70
     6
  9
$SPLINESEGS
 70
     8
  9
$ATTDIA
 70
     0
  9
$ATTREQ
 70
     1
  9
$HANDLING
 70
     1
  9
$HANDSEED
  5
1506
  9
$SURFTAB1
 70
     6
  9
$SURFTAB2
 70
     6
  9
$SURFTYPE
 70
     6
  9
$SURFU
 70
     6
  9
$SURFV
 70
     6
  9
$UCSNAME
  2

  9
$UCSORG
 10
0.0
 20
0.0
 30
0.0
  9
$UCSXDIR
 10
1.0
 20
0.0
 30
0.0
  9
$UCSYDIR
 10
0.0
 20
1.0
 30
0.0
  9
$PUCSNAME
  2

  9
$PUCSORG
 10
0.0
 20
0.0
 30
0.0
  9
$PUCSXDIR
 10
1.0
 20
0.0
 30
0.0
  9
$PUCSYDIR
 10
0.0
 20
1.0
 30
0.0
  9
$USERI1
 70
     0
  9
$USERI2
 70
     1
  9
$USERI3
 70
     0
  9
$USERI4
 70
     0
  9
$USERI5
 70
     0
  9
$USERR1
 40
0.0
  9
$USERR2
 40
0.0
  9
$USERR3
 40
0.0
  9
$USERR4
 40
0.0
  9
$USERR5
 40
0.0
  9
$WORLDVIEW
 70
     1
  9
$SHADEDGE
 70
     3
  9
$SHADEDIF
 70
    70
  9
$TILEMODE
 70
     1
  9
$MAXACTVP
 70
    16
  9
$PLIMCHECK
 70
     0
  9
$PEXTMIN
 10
1.0000000000000000E+020
 20
1.0000000000000000E+020
 30
1.0000000000000000E+020
  9
$PEXTMAX
 10
-1.0000000000000000E+020
 20
-1.0000000000000000E+020
 30
-1.0000000000000000E+020
  9
$PLIMMIN
 10
0.0
 20
0.0
  9
$PLIMMAX
 10
12.0
 20
9.0
  9
$UNITMODE
 70
     0
  9
$VISRETAIN
 70
     0
  9
$PLINEGEN
 70
     0
  9
$PSLTSCALE
 70
     0
  0
ENDSEC
  0
SECTION
  2
TABLES
  0
TABLE
  2
VPORT
 70
     1
  0
VPORT
  2
*ACTIVE
 70
     0
 10
0.0
 20
0.0
 11
1.0
 21
1.0
 12
195.0581083320873
 22
133.5127261426681
 13
0.0
 23
0.0
 14
10.0
 24
10.0
 15
10.0
 25
10.0
 16
0.0
 26
0.0
 36
1.0
 17
0.0
 27
0.0
 37
0.0
 40
275.42274993631997
 41
1.831871345029239
 42
50.0
 43
0.0
 44
0.0
 50
0.0
 51
0.0
 71
     0
 72
   500
 73
     1
 74
     0
 75
     0
 76
     0
 77
     0
 78
     2
  0
ENDTAB
  0
TABLE
  2
LTYPE
 70
     3
  0
LTYPE
  2
CONTINUOUS
 70
     0
  3
Solid Line
 72
    65
 73
     0
 40
0.0
  0
LTYPE
  2
CENTER
 70
     0
  3
____ _ ____ _ ____ _ ____ _ ____ _ ____ _ ____
 72
    65
 73
     4
 40
2.0
 49
1.25
 49
-0.25
 49
0.25
 49
-0.25
  0
LTYPE
  2
PHANTOM2
 70
     0
  3
___ _ _ ___ _ _ ___ _ _ ___ _ _
 72
    65
 73
     6
 40
1.25
 49
0.625
 49
-0.125
 49
0.125
 49
-0.125
 49
0.125
 49
-0.125
  0
ENDTAB
  0
TABLE
  2
LAYER
 70
     4
  0
LAYER
  2
0
 70
     0
 62
     7
  6
CONTINUOUS
  0
LAYER
  2
1
 70
     0
 62
     1
  6
CENTER
  0
LAYER
  2
3
 70
     0
 62
     3
  6
CONTINUOUS
  0
LAYER
  2
DEFPOINTS
 70
     0
 62
     7
  6
CONTINUOUS
  0
ENDTAB
  0
TABLE
  2
STYLE
 70
     2
  0
STYLE
  2
STANDARD
 70
     0
 40
0.0
 41
1.0
 50
0.0
 71
     0
 42
0.2
  3
TXT
  4
BIGFONT
  0
STYLE
  2
STANDARD1
 70
     0
 40
0.0
 41
1.0
 50
0.0
 71
     0
 42
3.0
  3
txt
  4

  0
ENDTAB
  0
TABLE
  2
VIEW
 70
     2
  0
VIEW
  2
ALL
 70
     0
 40
179.5384664489153
 10
135.0
 20
89.769233224457665
 41
0.0
 11
0.0
 21
0.0
 31
1.0
 12
0.0
 22
0.0
 32
0.0
 42
0.0
 43
0.0
 44
0.0
 50
0.0
 71
     0
  0
VIEW
  2
OLE1
 70
     0
 40
35.722840295945673
 10
96.389172438585646
 20
96.329581661136274
 41
53.65962508589309
 11
0.0
 21
0.0
 31
1.0
 12
0.0
 22
0.0
 32
0.0
 42
50.0
 43
0.0
 44
0.0
 50
0.0
 71
     0
  0
ENDTAB
  0
TABLE
  2
UCS
 70
     0
  0
ENDTAB
  0
TABLE
  2
APPID
 70
     3
  0
APPID
  2
ACAD
 70
     0
  0
APPID
  2
ACAD_MLEADERVER
 70
     0
  0
APPID
  2
ACAD_NAV_VCDISPLAY
 70
     0
  0
ENDTAB
  0
TABLE
  2
DIMSTYLE
 70
     1
  0
DIMSTYLE
  2
STANDARD
 70
     0
  3

  4

  5

  6

  7

 40
1.0
 41
0.18
 42
0.0625
 43
0.38
 44
0.18
 45
0.0
 46
0.0
 47
0.0
 48
0.0
140
0.18
141
0.09
142
0.0
143
25.399999999999999
144
1.0
145
0.0
146
1.0
147
0.09
 71
     0
 72
     0
 73
     1
 74
     1
 75
     0
 76
     0
 77
     0
 78
     0
170
     0
171
     2
172
     0
173
     0
174
     0
175
     0
176
     0
177
     0
178
     0
  0
ENDTAB
  0
ENDSEC
  0
SECTION
  2
BLOCKS
  0
BLOCK
  8
0
  2
$MODEL_SPACE
 70
     0
 10
0.0
 20
0.0
 30
0.0
  3
$MODEL_SPACE
  1

  0
ENDBLK
  5
47D
  8
0
  0
BLOCK
 67
     1
  8
0
  2
$PAPER_SPACE
 70
     0
 10
0.0
 20
0.0
 30
0.0
  3
$PAPER_SPACE
  1

  0
ENDBLK
  5
47B
 67
     1
  8
0
  0
ENDSEC
  0
SECTION
  2
ENTITIES
  0
ARC
  5
D44
  8
0
 10
152.0953465962086
 20
107.7763030750543
 30
0.0
 40
15.0
 50
240.0
 51
300.00000000000011
  0
ARC
  5
D47
  8
0
 10
152.0953465962086
 20
107.7763030750543
 30
0.0
 40
15.0
 50
0.0000000000008142
 51
59.999999999999858
  0
ARC
  5
D4A
  8
0
 10
152.0953465962086
 20
107.7763030750543
 30
0.0
 40
15.0
 50
300.00000000000011
 51
0.0000000000008142
  0
ARC
  5
D4D
  8
0
 10
152.0953465962086
 20
107.7763030750543
 30
0.0
 40
15.0
 50
59.999999999999858
 51
119.9999999999999
  0
ARC
  5
D50
  8
0
 10
152.0953465962086
 20
107.7763030750543
 30
0.0
 40
15.0
 50
179.9999999999996
 51
240.0
  0
ARC
  5
D54
  8
0
 10
152.0953465962086
 20
107.7763030750543
 30
0.0
 40
15.0
 50
119.9999999999999
 51
179.9999999999996
  0
CIRCLE
  5
D56
  8
0
 10
152.0953465962086
 20
107.7763030750543
 30
0.0
 40
9.4999999999999716
  0
CIRCLE
  5
D57
  8
0
 10
152.0953465962086
 20
107.7763030750543
 30
0.0
 40
8.9999999999999716
  0
ARC
  5
D58
  8
0
 10
152.0953465962086
 20
107.7763030750543
 30
0.0
 40
5.5000000000000027
 50
65.380022671337613
 51
90.0
  0
ARC
  5
D59
  8
0
 10
152.0953465962086
 20
107.7763030750543
 30
0.0
 40
5.4999999999999831
 50
245.38002267134871
 51
294.61997732865132
  0
ARC
  5
D5A
  8
0
 10
152.0953465962086
 20
107.7763030750543
 30
0.0
 40
5.5000000000000124
 50
90.0
 51
114.6199773286629
  0
LINE
  5
D5D
  8
0
 10
173.09534631308659
 20
116.2763029439997
 30
0.0
 11
173.09534631308659
 21
99.27630295145029
 31
0.0
  0
LINE
  5
D5E
  8
0
 10
172.3361576312457
 20
107.776302769464
 30
0.0
 11
167.8545365446482
 21
107.776302769464
 31
0.0
  0
LINE
  5
D61
  8
0
 10
173.09534631308651
 20
99.27630295145029
 30
0.0
 11
167.0953465962086
 21
99.276302951450333
 31
0.0
  0
LINE
  5
D66
  8
0
 10
173.09534631308659
 20
116.2763029439997
 30
0.0
 11
167.0953465962086
 21
116.2763029439997
 31
0.0
  0
LINE
  5
D6F
  8
0
 10
108.09534683462719
 20
107.7763030750544
 30
0.0
 11
108.09534683462719
 21
102.7763028994127
 31
0.0
  0
LINE
  5
D70
  8
0
 10
108.09534683462719
 20
112.7763031415566
 30
0.0
 11
108.09534683462719
 21
107.7763030750544
 31
0.0
  0
LINE
  5
D71
  8
0
 10
106.59534752008059
 20
107.7763030750544
 30
0.0
 11
106.59534752008059
 21
104.2763031452819
 31
0.0
  0
LINE
  5
D72
  8
0
 10
106.59534752008069
 20
111.27630312851809
 30
0.0
 11
106.59534752008059
 21
107.7763030750544
 31
0.0
  0
LINE
  5
D73
  8
0
 10
102.0953458511505
 20
107.7763030750544
 30
0.0
 11
102.0953458511505
 21
104.2763031452819
 31
0.0
  0
LINE
  5
D74
  8
0
 10
102.0953458511506
 20
111.27630312851809
 30
0.0
 11
102.0953458511505
 21
107.7763030750544
 31
0.0
  0
LINE
  5
D8C
  8
0
 10
152.0953465962086
 20
58.782126204967319
 30
0.0
 11
152.0953465962086
 21
26.46161677308363
 31
0.0
  0
LINE
  5
D8F
  8
0
 10
167.0953462609325
 20
60.121870981454599
 30
0.0
 11
167.09534626093239
 21
25.12187098145462
 31
0.0
  0
LINE
  5
D94
  8
0
 10
137.09534693148481
 20
60.12187098145462
 30
0.0
 11
137.0953469314847
 21
25.121870981454851
 31
0.0
  0
LINE
  5
D9D
  8
0
 10
167.0953462609325
 20
60.12187098145462
 30
0.0
 11
137.0953469314847
 21
60.121870981454848
 31
0.0
  0
LINE
  5
DA2
  8
0
 10
172.3361576312457
 20
40.306915910839123
 30
0.0
 11
167.85453654464831
 21
40.306915910839123
 31
0.0
  0
LINE
  5
DA5
  8
0
 10
172.3361576312457
 20
45.214393557905261
 30
0.0
 11
167.85453654464831
 21
45.214393557905261
 31
0.0
  0
LINE
  5
DA8
  8
0
 10
172.3361576312457
 20
55.029348852037501
 30
0.0
 11
167.85453654464831
 21
55.029348852037501
 31
0.0
  0
LINE
  5
DB0
  8
0
 10
172.3361576312457
 20
59.936824636458439
 30
0.0
 11
167.85453654464831
 21
59.936824636458439
 31
0.0
  0
LINE
  5
DB2
  8
0
 10
173.0953475796853
 20
58.621871666907353
 30
0.0
 11
173.0953475796853
 21
41.621870743035359
 31
0.0
  0
LINE
  5
DB4
  8
0
 10
192.0953457021389
 20
53.621870832442667
 30
0.0
 11
192.0953457021389
 21
46.621870832442681
 31
0.0
  0
LINE
  5
DB7
  8
0
 10
102.0953458511505
 20
53.621870847344169
 30
0.0
 11
102.0953458511505
 21
46.621871562599907
 31
0.0
  0
LINE
  5
DB8
  8
1
 10
97.095345851150583
 20
50.121870832443022
 30
0.0
 11
197.0953457021389
 21
50.121870832442951
 31
0.0
  0
LINE
  5
DB9
  8
1
 10
152.0953465962086
 20
65.121870981454734
 30
0.0
 11
152.09534659620849
 21
20.12187098145473
 31
0.0
  0
LINE
  5
EE7
  8
0
 10
192.0953457021389
 20
111.276303075054
 30
0.0
 11
192.0953457021389
 21
104.276303075054
 31
0.0
  0
LINE
  5
EE8
  8
0
 10
173.09534631308659
 20
102.776303075054
 30
0.0
 11
190.5953457021389
 21
102.776303075054
 31
0.0
  0
LINE
  5
EE9
  8
3
 10
173.09534631308659
 20
103.588303075054
 30
0.0
 11
191.4073457021388
 21
103.588303075054
 31
0.0
  0
LINE
  5
EEA
  8
3
 10
173.09534631308659
 20
111.9643030750542
 30
0.0
 11
191.40734570213891
 21
111.9643030750542
 31
0.0
  0
LINE
  5
EEB
  8
0
 10
173.09534631308659
 20
112.7763030750541
 30
0.0
 11
190.59534570213901
 21
112.7763030750541
 31
0.0
  0
LINE
  5
EEC
  8
0
 10
190.59534570213901
 20
112.7763030750541
 30
0.0
 11
192.0953457021389
 21
111.276303075054
 31
0.0
  0
LINE
  5
EED
  8
0
 10
192.0953457021389
 20
104.276303075054
 30
0.0
 11
190.5953457021389
 21
102.776303075054
 31
0.0
  0
LINE
  5
EEE
  8
0
 10
190.59534570213901
 20
112.7763030750541
 30
0.0
 11
190.5953457021389
 21
102.7763030750541
 31
0.0
  0
LINE
  5
EEF
  8
1
 10
97.095345851150583
 20
107.7763030750543
 30
0.0
 11
197.0953457021389
 21
107.7763030750543
 31
0.0
  0
LINE
  5
EF0
  8
1
 10
152.0953465962086
 20
130.05331996175329
 30
0.0
 11
152.0953465962086
 21
85.412303810375704
 31
0.0
  0
LINE
  5
EF8
  8
0
 10
167.09534659620871
 20
116.4365571128986
 30
0.0
 11
167.09534659620849
 21
99.116049037209905
 31
0.0
  0
LINE
  5
EF9
  8
0
 10
137.09534659620871
 20
116.4365571128987
 30
0.0
 11
137.09534659620849
 21
99.116049037210004
 31
0.0
  0
LINE
  5
EFB
  8
0
 10
159.57866136975659
 20
112.7763030750541
 30
0.0
 11
144.61203182266061
 21
112.7763030750541
 31
0.0
  0
LINE
  5
EFC
  8
3
 10
160.06156627683509
 20
111.9643030750541
 30
0.0
 11
144.12912691558211
 21
111.9643030750541
 31
0.0
  0
LINE
  5
EFD
  8
3
 10
160.06156627683481
 20
103.5883030750539
 30
0.0
 11
144.12912691558239
 21
103.5883030750539
 31
0.0
  0
LINE
  5
EFE
  8
0
 10
159.5786613697563
 20
102.7763030750541
 30
0.0
 11
144.6120318226609
 21
102.7763030750541
 31
0.0
  0
LINE
  5
F03
  8
0
 10
108.09534683462719
 20
112.7763030750548
 30
0.0
 11
137.09534659620871
 21
112.7763030750548
 31
0.0
  0
LINE
  5
F04
  8
3
 10
107.2833471767446
 20
111.9643030750548
 30
0.0
 11
137.0953465962086
 21
111.9643030750548
 31
0.0
  0
LINE
  5
F05
  8
3
 10
107.28334724370239
 20
103.5883030750546
 30
0.0
 11
137.0953465962086
 21
103.5883030750547
 31
0.0
  0
LINE
  5
F06
  8
0
 10
108.09534683462719
 20
102.7763030750547
 30
0.0
 11
137.0953465962086
 21
102.7763030750547
 31
0.0
  0
LINE
  5
F07
  8
0
 10
108.09534683462719
 20
112.7763030750548
 30
0.0
 11
106.59534752008069
 21
111.27630312851809
 31
0.0
  0
LINE
  5
F08
  8
0
 10
106.59534752008069
 20
111.27630312851809
 30
0.0
 11
102.0953458511506
 21
111.27630312851809
 31
0.0
  0
LINE
  5
F09
  8
0
 10
102.0953458511505
 20
104.2763031452819
 30
0.0
 11
106.59534752008059
 21
104.2763031452819
 31
0.0
  0
LINE
  5
F0A
  8
0
 10
106.59534752008059
 20
104.2763031452819
 30
0.0
 11
108.09534683462719
 21
102.7763030750547
 31
0.0
  0
LINE
  5
F0B
  8
0
 10
167.09534659620871
 20
116.4365571128986
 30
0.0
 11
152.09534659620871
 21
125.09681115074309
 31
0.0
  0
LINE
  5
F0C
  8
0
 10
152.0953465962086
 20
125.09681115074321
 30
0.0
 11
137.09534659620871
 21
116.4365571128987
 31
0.0
  0
LINE
  5
F0D
  8
0
 10
167.09534659620871
 20
99.116049037210047
 30
0.0
 11
152.0953465962088
 21
90.455794999365494
 31
0.0
  0
LINE
  5
F0E
  8
0
 10
152.09534659620871
 20
90.455794999365409
 30
0.0
 11
137.09534659620871
 21
99.116049037209777
 31
0.0
  0
POLYLINE
  5
F37
  8
0
 66
     1
 10
0.0
 20
0.0
 30
0.0
 70
     2
  0
VERTEX
  5
F38
  8
0
 10
167.85453654464831
 20
116.2763029439997
 30
0.0
 42
0.0442209024015252
  0
VERTEX
  5
F3D
  8
0
 10
167.28663450633269
 20
114.1849407867212
 30
0.0
 42
0.0442209024015097
 70
     1
  0
VERTEX
  5
F39
  8
0
 10
167.09534660293039
 20
112.0263029439997
 30
0.0
 42
0.0442209041822858
  0
VERTEX
  5
F3C
  8
0
 10
167.2866344909869
 20
109.86766501265009
 30
0.0
 42
0.0442209041822721
 70
     1
  0
VERTEX
  5
F3A
  8
0
 10
167.85453654464831
 20
107.77630276946439
 30
0.0
  0
SEQEND
  5
F3B
  8
0
  0
POLYLINE
  5
F3F
  8
0
 66
     1
 10
0.0
 20
0.0
 30
0.0
 70
     2
  0
VERTEX
  5
F40
  8
0
 10
172.3361563646468
 20
116.2763029439997
 30
0.0
 42
-0.0442209024015252
  0
VERTEX
  5
F41
  8
0
 10
172.90405840296251
 20
114.1849407867212
 30
0.0
 42
-0.0442209024015097
 70
     1
  0
VERTEX
  5
F42
  8
0
 10
173.0953463063648
 20
112.0263029439997
 30
0.0
 42
-0.0442209041822858
  0
VERTEX
  5
F43
  8
0
 10
172.9040584183083
 20
109.86766501265009
 30
0.0
 42
-0.0442209041822721
 70
     1
  0
VERTEX
  5
F44
  8
0
 10
172.3361563646468
 20
107.77630276946439
 30
0.0
  0
SEQEND
  5
F45
  8
0
  0
POLYLINE
  5
F46
  8
0
 66
     1
 10
0.0
 20
0.0
 30
0.0
 70
     2
  0
VERTEX
  5
F47
  8
0
 10
172.3361563646468
 20
99.276302594928353
 30
0.0
 42
0.0442209024015252
  0
VERTEX
  5
F48
  8
0
 10
172.90405840296251
 20
101.36766475220691
 30
0.0
 42
0.0442209024015097
 70
     1
  0
VERTEX
  5
F49
  8
0
 10
173.0953463063648
 20
103.5263025949283
 30
0.0
 42
0.0442209041822858
  0
VERTEX
  5
F4A
  8
0
 10
172.9040584183083
 20
105.6849405262779
 30
0.0
 42
0.0442209041822721
 70
     1
  0
VERTEX
  5
F4B
  8
0
 10
172.3361563646468
 20
107.7763027694637
 30
0.0
  0
SEQEND
  5
F4C
  8
0
  0
POLYLINE
  5
F4D
  8
0
 66
     1
 10
0.0
 20
0.0
 30
0.0
 70
     2
  0
VERTEX
  5
F4E
  8
0
 10
167.85453654464831
 20
99.276302594928353
 30
0.0
 42
-0.0442209024015252
  0
VERTEX
  5
F4F
  8
0
 10
167.28663450633269
 20
101.36766475220691
 30
0.0
 42
-0.0442209024015097
 70
     1
  0
VERTEX
  5
F50
  8
0
 10
167.09534660293039
 20
103.5263025949283
 30
0.0
 42
-0.0442209041822858
  0
VERTEX
  5
F51
  8
0
 10
167.2866344909869
 20
105.6849405262779
 30
0.0
 42
-0.0442209041822721
 70
     1
  0
VERTEX
  5
F52
  8
0
 10
167.85453654464831
 20
107.7763027694637
 30
0.0
  0
SEQEND
  5
F53
  8
0
  0
LINE
  5
F54
  8
0
 10
106.59534752008069
 20
53.621870885906773
 30
0.0
 11
102.0953458511506
 21
53.62187088590683
 31
0.0
  0
LINE
  5
F55
  8
0
 10
108.09534683462719
 20
55.121870832443427
 30
0.0
 11
106.59534752008069
 21
53.621870885906773
 31
0.0
  0
LINE
  5
F56
  8
3
 10
107.2833471767446
 20
54.309870832443501
 30
0.0
 11
137.09534693148481
 21
54.309870832443501
 31
0.0
  0
LINE
  5
F57
  8
0
 10
108.09534683462719
 20
55.121870832443427
 30
0.0
 11
137.09534693148481
 21
55.121870832443442
 31
0.0
  0
LINE
  5
F58
  8
0
 10
106.59534752008069
 20
53.621870885906773
 30
0.0
 11
106.59534752008059
 21
50.12187083244303
 31
0.0
  0
LINE
  5
F59
  8
0
 10
108.09534683462719
 20
55.121870898945289
 30
0.0
 11
108.09534683462719
 21
50.12187083244303
 31
0.0
  0
LINE
  5
F5A
  8
0
 10
106.59534752008059
 20
46.62187090267058
 30
0.0
 11
108.09534683462719
 21
45.12187083244342
 31
0.0
  0
LINE
  5
F5B
  8
0
 10
102.0953458511505
 20
46.621870902670601
 30
0.0
 11
106.59534752008059
 21
46.62187090267058
 31
0.0
  0
LINE
  5
F5C
  8
0
 10
108.09534683462719
 20
45.12187083244342
 30
0.0
 11
137.0953469314847
 21
45.12187083244342
 31
0.0
  0
LINE
  5
F5D
  8
3
 10
107.28334724370239
 20
45.933870832443318
 30
0.0
 11
137.09534693148481
 21
45.933870832443333
 31
0.0
  0
LINE
  5
F5E
  8
0
 10
106.59534752008059
 20
50.12187083244303
 30
0.0
 11
106.59534752008059
 21
46.62187090267058
 31
0.0
  0
LINE
  5
F5F
  8
0
 10
108.09534683462719
 20
50.12187083244303
 30
0.0
 11
108.09534683462719
 21
45.12187065680142
 31
0.0
  0
LINE
  5
F60
  8
0
 10
190.59534570213901
 20
55.121870832442752
 30
0.0
 11
190.5953457021389
 21
45.121870832442731
 31
0.0
  0
LINE
  5
F61
  8
0
 10
190.59534570213901
 20
55.121870832442717
 30
0.0
 11
192.0953457021389
 21
53.621870832442717
 31
0.0
  0
LINE
  5
F62
  8
0
 10
173.0953475796853
 20
55.121870832442752
 30
0.0
 11
190.59534570213901
 21
55.121870832442717
 31
0.0
  0
LINE
  5
F63
  8
3
 10
173.0953475796853
 20
54.309870832442819
 30
0.0
 11
191.40734570213891
 21
54.309870832442819
 31
0.0
  0
LINE
  5
F64
  8
0
 10
192.0953457021389
 20
46.621870832442717
 30
0.0
 11
190.5953457021389
 21
45.121870832442717
 31
0.0
  0
LINE
  5
F65
  8
3
 10
173.0953475796853
 20
45.933870832442629
 30
0.0
 11
191.4073457021388
 21
45.933870832442651
 31
0.0
  0
LINE
  5
F66
  8
0
 10
173.0953475796853
 20
45.121870832442731
 30
0.0
 11
190.5953457021389
 21
45.121870832442717
 31
0.0
  0
POLYLINE
  5
F69
  8
0
 66
     1
 10
0.0
 20
0.0
 30
0.0
 70
     2
  0
VERTEX
  5
F6A
  8
0
 10
167.85453654464831
 20
55.029348852037387
 30
0.0
 42
0.0383898310637963
  0
VERTEX
  5
F6F
  8
0
 10
167.28626626688359
 20
52.60479821931699
 30
0.0
 42
0.0383898310638014
 70
     1
  0
VERTEX
  5
F6B
  8
0
 10
167.09534659620871
 20
50.121871204971349
 30
0.0
 42
0.0383898310638395
  0
VERTEX
  5
F6E
  8
0
 10
167.28626626688381
 20
47.638944190626027
 30
0.0
 42
0.0383898310638406
 70
     1
  0
VERTEX
  5
F6C
  8
0
 10
167.85453654464831
 20
45.214393557905368
 30
0.0
  0
SEQEND
  5
F6D
  8
0
  0
POLYLINE
  5
F71
  8
0
 66
     1
 10
0.0
 20
0.0
 30
0.0
 70
     2
  0
VERTEX
  5
F72
  8
0
 10
167.85453654464831
 20
59.936824636458653
 30
0.0
 42
0.0751558649079036
  0
VERTEX
  5
F77
  8
0
 10
167.289481292266
 20
58.767337848014343
 30
0.0
 42
0.0751558649079176
 70
     1
  0
VERTEX
  5
F73
  8
0
 10
167.09534659620871
 20
57.483087675198107
 30
0.0
 42
0.0751559187762242
  0
VERTEX
  5
F76
  8
0
 10
167.28948101709841
 20
56.198836529836399
 30
0.0
 42
0.0751559187762519
 70
     1
  0
VERTEX
  5
F74
  8
0
 10
167.8545365446484
 20
55.029348852037501
 30
0.0
  0
SEQEND
  5
F75
  8
0
  0
LINE
  5
F78
  8
0
 10
167.09534659620871
 20
58.621871666907353
 30
0.0
 11
167.85453654464831
 21
59.936824636458439
 31
0.0
  0
POLYLINE
  5
F79
  8
0
 66
     1
 10
0.0
 20
0.0
 30
0.0
 70
     2
  0
VERTEX
  5
F7A
  8
0
 10
172.3361576312457
 20
55.029348852037387
 30
0.0
 42
-0.0383898310637963
  0
VERTEX
  5
F7B
  8
0
 10
172.90442790901039
 20
52.60479821931699
 30
0.0
 42
-0.0383898310638014
 70
     1
  0
VERTEX
  5
F7C
  8
0
 10
173.0953475796853
 20
50.121871204971349
 30
0.0
 42
-0.0383898310638395
  0
VERTEX
  5
F7D
  8
0
 10
172.9044279090102
 20
47.638944190626027
 30
0.0
 42
-0.0383898310638406
 70
     1
  0
VERTEX
  5
F7E
  8
0
 10
172.3361576312457
 20
45.214393557905368
 30
0.0
  0
SEQEND
  5
F7F
  8
0
  0
LINE
  5
F80
  8
0
 10
173.0953475796853
 20
58.621871666907353
 30
0.0
 11
172.3361576312457
 21
59.936824636458439
 31
0.0
  0
POLYLINE
  5
F81
  8
0
 66
     1
 10
0.0
 20
0.0
 30
0.0
 70
     2
  0
VERTEX
  5
F82
  8
0
 10
172.3361576312457
 20
59.936824636458653
 30
0.0
 42
-0.0751558649079036
  0
VERTEX
  5
F83
  8
0
 10
172.90121288362801
 20
58.767337848014343
 30
0.0
 42
-0.0751558649079176
 70
     1
  0
VERTEX
  5
F84
  8
0
 10
173.0953475796853
 20
57.483087675198107
 30
0.0
 42
-0.0751559187762242
  0
VERTEX
  5
F85
  8
0
 10
172.90121315879551
 20
56.198836529836399
 30
0.0
 42
-0.0751559187762519
 70
     1
  0
VERTEX
  5
F86
  8
0
 10
172.33615763124561
 20
55.029348852037501
 30
0.0
  0
SEQEND
  5
F87
  8
0
  0
POLYLINE
  5
F88
  8
0
 66
     1
 10
0.0
 20
0.0
 30
0.0
 70
     2
  0
VERTEX
  5
F89
  8
0
 10
172.33615763124561
 20
40.306917028425957
 30
0.0
 42
0.0751558649079036
  0
VERTEX
  5
F8A
  8
0
 10
172.90121288362801
 20
41.476403816870267
 30
0.0
 42
0.0751558649079176
 70
     1
  0
VERTEX
  5
F8B
  8
0
 10
173.0953475796853
 20
42.760653989686503
 30
0.0
 42
0.0751559187762242
  0
VERTEX
  5
F8C
  8
0
 10
172.90121315879551
 20
44.044905135048197
 30
0.0
 42
0.0751559187762519
 70
     1
  0
VERTEX
  5
F8D
  8
0
 10
172.33615763124561
 20
45.214392812847109
 30
0.0
  0
SEQEND
  5
F8E
  8
0
  0
LINE
  5
F8F
  8
0
 10
173.09534757968521
 20
41.62186999797725
 30
0.0
 11
172.33615763124561
 21
40.30691702842617
 31
0.0
  0
LINE
  5
F90
  8
0
 10
172.3361576312457
 20
40.30691702842617
 30
0.0
 11
167.8545365446482
 21
40.306917028426192
 31
0.0
  0
LINE
  5
F91
  8
0
 10
167.0953465962086
 20
41.621869997977292
 30
0.0
 11
167.85453654464831
 21
40.306917028426192
 31
0.0
  0
POLYLINE
  5
F92
  8
0
 66
     1
 10
0.0
 20
0.0
 30
0.0
 70
     2
  0
VERTEX
  5
F93
  8
0
 10
167.85453654464831
 20
40.306917028425993
 30
0.0
 42
-0.0751558649079036
  0
VERTEX
  5
F94
  8
0
 10
167.28948129226589
 20
41.47640381687031
 30
0.0
 42
-0.0751558649079176
 70
     1
  0
VERTEX
  5
F95
  8
0
 10
167.09534659620871
 20
42.760653989686531
 30
0.0
 42
-0.0751559187762242
  0
VERTEX
  5
F96
  8
0
 10
167.28948101709841
 20
44.044905135048239
 30
0.0
 42
-0.0751559187762519
 70
     1
  0
VERTEX
  5
F97
  8
0
 10
167.8545365446484
 20
45.21439281284713
 30
0.0
  0
SEQEND
  5
F98
  8
0
  0
POLYLINE
  5
F99
  8
0
 66
     1
 10
0.0
 20
0.0
 30
0.0
 70
     2
  0
VERTEX
  5
F9A
  8
0
 10
137.09534693148481
 20
58.782124982046497
 30
0.0
 42
-0.0442208492406205
  0
VERTEX
  5
F9F
  8
0
 10
140.7859859855526
 20
59.78430408096542
 30
0.0
 42
-0.0442208492406234
 70
     1
  0
VERTEX
  5
F9B
  8
0
 10
144.5953465962086
 20
60.121870832443058
 30
0.0
 42
-0.044220849916041
  0
VERTEX
  5
F9E
  8
0
 10
148.4047073212281
 20
59.784304712376553
 30
0.0
 42
-0.0442208499160433
 70
     1
  0
VERTEX
  5
F9C
  8
0
 10
152.0953465962086
 20
58.782126204967319
 30
0.0
  0
SEQEND
  5
F9D
  8
0
  0
POLYLINE
  5
FA0
  8
0
 66
     1
 10
0.0
 20
0.0
 30
0.0
 70
     2
  0
VERTEX
  5
FA1
  8
0
 10
167.0953462609323
 20
58.782124982045801
 30
0.0
 42
0.0442208492406205
  0
VERTEX
  5
FA2
  8
0
 10
163.40470720686449
 20
59.784304080964901
 30
0.0
 42
0.0442208492406234
 70
     1
  0
VERTEX
  5
FA3
  8
0
 10
159.59534659620849
 20
60.121870832442703
 30
0.0
 42
0.044220849916041
  0
VERTEX
  5
FA4
  8
0
 10
155.78598587118901
 20
59.784304712376382
 30
0.0
 42
0.0442208499160433
 70
     1
  0
VERTEX
  5
FA5
  8
0
 10
152.09534659620849
 20
58.782126204967319
 30
0.0
  0
SEQEND
  5
FA6
  8
0
  0
POLYLINE
  5
FA7
  8
0
 66
     1
 10
0.0
 20
0.0
 30
0.0
 70
     2
  0
VERTEX
  5
FA8
  8
0
 10
137.09534693148481
 20
26.461616980862971
 30
0.0
 42
0.0442208492406205
  0
VERTEX
  5
FA9
  8
0
 10
140.7859859855526
 20
25.459437881944041
 30
0.0
 42
0.0442208492406234
 70
     1
  0
VERTEX
  5
FAA
  8
0
 10
144.5953465962086
 20
25.121871130466399
 30
0.0
 42
0.044220849916041
  0
VERTEX
  5
FAB
  8
0
 10
148.4047073212281
 20
25.459437250532911
 30
0.0
 42
0.0442208499160433
 70
     1
  0
VERTEX
  5
FAC
  8
0
 10
152.0953465962086
 20
26.461615757942141
 30
0.0
  0
SEQEND
  5
FAD
  8
0
  0
POLYLINE
  5
FAF
  8
0
 66
     1
 10
0.0
 20
0.0
 30
0.0
 70
     2
  0
VERTEX
  5
FB0
  8
0
 10
167.0953462609323
 20
26.461616980863671
 30
0.0
 42
-0.0442208492406205
  0
VERTEX
  5
FB1
  8
0
 10
163.40470720686449
 20
25.45943788194457
 30
0.0
 42
-0.0442208492406234
 70
     1
  0
VERTEX
  5
FB2
  8
0
 10
159.59534659620849
 20
25.121871130466751
 30
0.0
 42
-0.044220849916041
  0
VERTEX
  5
FB3
  8
0
 10
155.78598587118901
 20
25.459437250533089
 30
0.0
 42
-0.0442208499160433
 70
     1
  0
VERTEX
  5
FB4
  8
0
 10
152.09534659620849
 20
26.461615757942141
 30
0.0
  0
SEQEND
  5
FB5
  8
0
  0
LINE
  5
FB6
  8
0
 10
167.09534626093219
 20
25.12187098145462
 30
0.0
 11
137.09534693148441
 21
25.121870981454851
 31
0.0
  0
LINE
  5
FC2
  8
0
 10
58.25835809374265
 20
25.12187098145515
 30
0.0
 11
28.25835809374243
 21
25.12187098145537
 31
0.0
  0
LINE
  5
1021
  8
1
 10
43.258358093742707
 20
65.12187098145526
 30
0.0
 11
43.258358093742601
 21
20.12187098145526
 31
0.0
  0
LINE
  5
1022
  8
1
 10
33.258358093742892
 20
50.121870832443499
 30
0.0
 11
53.25835809374243
 21
50.121870832443491
 31
0.0
  0
LINE
  5
102A
  8
0
 10
58.258358093742771
 20
60.121870981455132
 30
0.0
 11
28.258358093742661
 21
60.121870981455359
 31
0.0
  0
CIRCLE
  5
102E
  8
3
 10
43.25835809374265
 20
50.121870832443499
 30
0.0
 40
4.1879999999998674
  0
CIRCLE
  5
102F
  8
0
 10
43.25835809374265
 20
50.121870832443499
 30
0.0
 40
4.9999999999997788
  0
LINE
  5
1080
  8
0
 10
60.578866169431564
 20
58.782126204967518
 30
0.0
 11
60.578866169431727
 21
26.461615757942951
 31
0.0
  0
LINE
  5
1081
  8
0
 10
25.937850018053808
 20
58.782126204967931
 30
0.0
 11
25.937850018053808
 21
26.461615757942681
 31
0.0
  0
LINE
  5
1082
  8
0
 10
51.918612131587018
 20
26.461615757942621
 30
0.0
 11
51.918612131587139
 21
58.782126204967881
 31
0.0
  0
LINE
  5
1083
  8
0
 10
34.598104055898347
 20
26.461615757942649
 30
0.0
 11
34.59810405589829
 21
58.782126204967881
 31
0.0
  0
POLYLINE
  5
108C
  8
0
 66
     1
 10
0.0
 20
0.0
 30
0.0
 70
     2
  0
VERTEX
  5
108D
  8
0
 10
34.598104055898347
 20
58.782126204967888
 30
0.0
 42
-0.0383897719593791
  0
VERTEX
  5
1092
  8
0
 10
38.87672266658425
 20
59.784954472749931
 30
0.0
 42
-0.0383897719593772
 70
     1
  0
VERTEX
  5
108E
  8
0
 10
43.258358093742771
 20
60.12187098145526
 30
0.0
 42
-0.0383897719593768
  0
VERTEX
  5
1091
  8
0
 10
47.639993520901299
 20
59.784954472749909
 30
0.0
 42
-0.0383897719593777
 70
     1
  0
VERTEX
  5
108F
  8
0
 10
51.918612131587082
 20
58.782126204967888
 30
0.0
  0
SEQEND
  5
1090
  8
0
  0
POLYLINE
  5
10AB
  8
0
 66
     1
 10
0.0
 20
0.0
 30
0.0
 70
     2
  0
VERTEX
  5
10AC
  8
0
 10
34.59810405589824
 20
26.461615757942681
 30
0.0
 42
0.0383897719593791
  0
VERTEX
  5
10AD
  8
0
 10
38.876722666584129
 20
25.458787490160631
 30
0.0
 42
0.0383897719593772
 70
     1
  0
VERTEX
  5
10AE
  8
0
 10
43.25835809374265
 20
25.121870981455281
 30
0.0
 42
0.0383897719593768
  0
VERTEX
  5
10AF
  8
0
 10
47.639993520901179
 20
25.458787490160599
 30
0.0
 42
0.0383897719593777
 70
     1
  0
VERTEX
  5
10B0
  8
0
 10
51.918612131586968
 20
26.461615757942589
 30
0.0
  0
SEQEND
  5
10B1
  8
0
  0
LINE
  5
10C8
  8
0
 10
263.43233509704578
 20
51.565246502362562
 30
0.0
 11
263.43233509704578
 21
48.678495158295462
 31
0.0
  0
LINE
  5
10C9
  8
0
 10
258.43233510030183
 20
48.678495160644729
 30
0.0
 11
258.43233510030183
 21
51.565246504713109
 31
0.0
  0
LINE
  5
10CA
  8
0
 10
258.43233510050533
 20
51.565246504595642
 30
0.0
 11
260.93233509867451
 21
53.008622176513029
 31
0.0
  0
LINE
  5
10CB
  8
0
 10
263.4323350952144
 20
48.678495159352821
 30
0.0
 11
260.93233509867451
 21
47.235119488374792
 31
0.0
  0
LINE
  5
10CC
  8
0
 10
260.93233509867463
 20
47.235119488375553
 30
0.0
 11
258.43233510009821
 21
48.678495160527177
 31
0.0
  0
LINE
  5
10CD
  8
0
 10
260.93233509867463
 20
53.008622176510691
 30
0.0
 11
263.4323350988775
 21
51.565246503420028
 31
0.0
  0
LINE
  5
1105
  8
0
 10
269.59258913651882
 20
26.461615757942631
 30
0.0
 11
269.592589136519
 21
58.782126204967852
 31
0.0
  0
LINE
  5
1106
  8
0
 10
252.27208106083009
 20
26.461615757942688
 30
0.0
 11
252.27208106083009
 21
58.782126204967931
 31
0.0
  0
LINE
  5
1107
  8
0
 10
278.25284317436348
 20
58.782126204967597
 30
0.0
 11
278.25284317436331
 21
26.461615757942869
 31
0.0
  0
LINE
  5
1108
  8
0
 10
243.61182702298569
 20
58.782126204967852
 30
0.0
 11
243.61182702298549
 21
26.461615757942809
 31
0.0
  0
CIRCLE
  5
1109
  8
0
 10
260.93233509867463
 20
50.121870832443527
 30
0.0
 40
4.9999999999997788
  0
CIRCLE
  5
110A
  8
3
 10
260.93233509867463
 20
50.121870832443527
 30
0.0
 40
4.1879999999998674
  0
LINE
  5
110C
  8
1
 10
270.9323350986744
 20
50.121870832443477
 30
0.0
 11
250.9323350986748
 21
50.121870832443562
 31
0.0
  0
LINE
  5
110D
  8
1
 10
260.93233509867451
 20
65.121870981454734
 30
0.0
 11
260.93233509867429
 21
20.12187098145473
 31
0.0
  0
CIRCLE
  5
1165
  8
0
 10
43.258358093742487
 20
50.121870832443499
 30
0.0
 40
3.5001952105223082
  0
LINE
  5
1168
  8
0
 10
58.258358093742721
 20
60.121870981455132
 30
0.0
 11
60.57886616943162
 21
58.782126204967533
 31
0.0
  0
LINE
  5
1169
  8
0
 10
28.258358093742721
 20
60.121870981455359
 30
0.0
 11
25.937850018053808
 21
58.782126204967888
 31
0.0
  0
LINE
  5
116A
  8
0
 10
58.258358093742537
 20
25.12187098145515
 30
0.0
 11
60.578866169431564
 21
26.461615757942951
 31
0.0
  0
LINE
  5
116B
  8
0
 10
25.937850018053702
 20
26.461615757942731
 30
0.0
 11
28.25835809374254
 21
25.121870981455281
 31
0.0
  0
POLYLINE
  5
116C
  8
0
 66
     1
 10
0.0
 20
0.0
 30
0.0
  0
VERTEX
  5
116D
  8
0
 10
26.95307172358255
 20
59.368264211212527
 30
0.0
 42
-0.0367715702942372
  0
VERTEX
  5
116E
  8
0
 10
28.00165203456968
 20
59.779281172903751
 30
0.0
 42
-0.0751557539733314
  0
VERTEX
  5
116F
  8
0
 10
30.267977036976081
 20
60.121870981455359
 30
0.0
 42
-0.07515575397334
  0
VERTEX
  5
1170
  8
0
 10
32.534302039382311
 20
59.779281172903737
 30
0.0
 42
-0.0751557539733461
  0
VERTEX
  5
1171
  8
0
 10
34.598104055898347
 20
58.782126204967888
 30
0.0
  0
SEQEND
  5
1172
  8
0
  0
POLYLINE
  5
1173
  8
0
 66
     1
 10
0.0
 20
0.0
 30
0.0
  0
VERTEX
  5
1174
  8
0
 10
59.563644463902989
 20
59.3682642112121
 30
0.0
 42
0.0367715702942382
  0
VERTEX
  5
1175
  8
0
 10
58.515064152915869
 20
59.779281172903389
 30
0.0
 42
0.0751557539733314
  0
VERTEX
  5
1176
  8
0
 10
56.248739150509472
 20
60.121870981455046
 30
0.0
 42
0.07515575397334
  0
VERTEX
  5
1177
  8
0
 10
53.982414148103231
 20
59.779281172903481
 30
0.0
 42
0.0751557539733461
  0
VERTEX
  5
1178
  8
0
 10
51.918612131587139
 20
58.782126204967689
 30
0.0
  0
SEQEND
  5
1179
  8
0
  0
POLYLINE
  5
117A
  8
0
 66
     1
 10
0.0
 20
0.0
 30
0.0
  0
VERTEX
  5
117B
  8
0
 10
59.563644463904183
 20
25.875477751698941
 30
0.0
 42
-0.0367715702942859
  0
VERTEX
  5
117C
  8
0
 10
58.515064152915748
 20
25.46446079000706
 30
0.0
 42
-0.0751557539733314
  0
VERTEX
  5
117D
  8
0
 10
56.248739150509351
 20
25.121870981455409
 30
0.0
 42
-0.07515575397334
  0
VERTEX
  5
117E
  8
0
 10
53.982414148103111
 20
25.464460790006999
 30
0.0
 42
-0.0751557539733461
  0
VERTEX
  5
117F
  8
0
 10
51.918612131587018
 20
26.461615757942798
 30
0.0
  0
SEQEND
  5
1180
  8
0
  0
POLYLINE
  5
1181
  8
0
 66
     1
 10
0.0
 20
0.0
 30
0.0
  0
VERTEX
  5
1182
  8
0
 10
26.953071723582269
 20
25.875477751698192
 30
0.0
 42
0.036771570294245
  0
VERTEX
  5
1183
  8
0
 10
28.00165203456956
 20
25.464460790006861
 30
0.0
 42
0.0751557539733314
  0
VERTEX
  5
1184
  8
0
 10
30.26797703697596
 20
25.121870981455238
 30
0.0
 42
0.07515575397334
  0
VERTEX
  5
1185
  8
0
 10
32.534302039382197
 20
25.46446079000685
 30
0.0
 42
0.0751557539733461
  0
VERTEX
  5
1186
  8
0
 10
34.59810405589824
 20
26.461615757942681
 30
0.0
  0
SEQEND
  5
1187
  8
0
  0
POLYLINE
  5
1189
  8
0
 66
     1
 10
0.0
 20
0.0
 30
0.0
  0
VERTEX
  5
118A
  8
0
 10
277.2376214688349
 20
59.368264211212143
 30
0.0
 42
0.0367715702942382
  0
VERTEX
  5
118B
  8
0
 10
276.18904115784778
 20
59.77928117290341
 30
0.0
 42
0.0751557539733314
  0
VERTEX
  5
118C
  8
0
 10
273.92271615544138
 20
60.121870981455068
 30
0.0
 42
0.07515575397334
  0
VERTEX
  5
118D
  8
0
 10
271.65639115303509
 20
59.779281172903502
 30
0.0
 42
0.0751557539733461
  0
VERTEX
  5
118E
  8
0
 10
269.592589136519
 20
58.78212620496771
 30
0.0
  0
SEQEND
  5
118F
  8
0
  0
POLYLINE
  5
1190
  8
0
 66
     1
 10
0.0
 20
0.0
 30
0.0
  0
VERTEX
  5
1191
  8
0
 10
244.6270487285145
 20
59.368264211212548
 30
0.0
 42
-0.0367715702942372
  0
VERTEX
  5
1192
  8
0
 10
245.67562903950159
 20
59.779281172903779
 30
0.0
 42
-0.0751557539733314
  0
VERTEX
  5
1193
  8
0
 10
247.94195404190799
 20
60.121870981455373
 30
0.0
 42
-0.07515575397334
  0
VERTEX
  5
1194
  8
0
 10
250.2082790443142
 20
59.779281172903751
 30
0.0
 42
-0.0751557539733461
  0
VERTEX
  5
1195
  8
0
 10
252.27208106083029
 20
58.782126204967909
 30
0.0
  0
SEQEND
  5
1196
  8
0
  0
LINE
  5
1197
  8
0
 10
245.9323350986746
 20
60.12187098145538
 30
0.0
 11
243.61182702298569
 21
58.782126204967909
 31
0.0
  0
LINE
  5
1198
  8
0
 10
275.93233509867463
 20
60.12187098145516
 30
0.0
 11
278.25284317436348
 21
58.782126204967533
 31
0.0
  0
POLYLINE
  5
1199
  8
0
 66
     1
 10
0.0
 20
0.0
 30
0.0
 70
     2
  0
VERTEX
  5
119A
  8
0
 10
252.27208106083029
 20
58.782126204967909
 30
0.0
 42
-0.0383897719593791
  0
VERTEX
  5
119B
  8
0
 10
256.55069967151621
 20
59.784954472749938
 30
0.0
 42
-0.0383897719593772
 70
     1
  0
VERTEX
  5
119C
  8
0
 10
260.93233509867468
 20
60.121870981455281
 30
0.0
 42
-0.0383897719593768
  0
VERTEX
  5
119D
  8
0
 10
265.31397052583321
 20
59.784954472749938
 30
0.0
 42
-0.0383897719593777
 70
     1
  0
VERTEX
  5
119E
  8
0
 10
269.592589136519
 20
58.782126204967909
 30
0.0
  0
SEQEND
  5
119F
  8
0
  0
LINE
  5
11A0
  8
0
 10
275.93233509867468
 20
60.12187098145516
 30
0.0
 11
245.9323350986746
 21
60.121870981455373
 31
0.0
  0
POLYLINE
  5
11A1
  8
0
 66
     1
 10
0.0
 20
0.0
 30
0.0
  0
VERTEX
  5
11A2
  8
0
 10
244.62704872851421
 20
25.87547775169821
 30
0.0
 42
0.036771570294245
  0
VERTEX
  5
11A3
  8
0
 10
245.6756290395015
 20
25.464460790006878
 30
0.0
 42
0.0751557539733314
  0
VERTEX
  5
11A4
  8
0
 10
247.94195404190791
 20
25.12187098145527
 30
0.0
 42
0.07515575397334
  0
VERTEX
  5
11A5
  8
0
 10
250.20827904431411
 20
25.464460790006878
 30
0.0
 42
0.0751557539733461
  0
VERTEX
  5
11A6
  8
0
 10
252.27208106083009
 20
26.461615757942699
 30
0.0
  0
SEQEND
  5
11A7
  8
0
  0
POLYLINE
  5
11A8
  8
0
 66
     1
 10
0.0
 20
0.0
 30
0.0
  0
VERTEX
  5
11A9
  8
0
 10
277.2376214688361
 20
25.875477751698959
 30
0.0
 42
-0.0367715702942859
  0
VERTEX
  5
11AA
  8
0
 10
276.18904115784773
 20
25.464460790007081
 30
0.0
 42
-0.0751557539733314
  0
VERTEX
  5
11AB
  8
0
 10
273.92271615544132
 20
25.12187098145543
 30
0.0
 42
-0.07515575397334
  0
VERTEX
  5
11AC
  8
0
 10
271.65639115303497
 20
25.464460790007021
 30
0.0
 42
-0.0751557539733461
  0
VERTEX
  5
11AD
  8
0
 10
269.592589136519
 20
26.46161575794282
 30
0.0
  0
SEQEND
  5
11AE
  8
0
  0
LINE
  5
11AF
  8
0
 10
243.61182702298561
 20
26.461615757942759
 30
0.0
 11
245.9323350986744
 21
25.121870981455299
 31
0.0
  0
LINE
  5
11B0
  8
0
 10
275.93233509867451
 20
25.121870981455171
 30
0.0
 11
278.25284317436348
 21
26.461615757942969
 31
0.0
  0
POLYLINE
  5
11B1
  8
0
 66
     1
 10
0.0
 20
0.0
 30
0.0
 70
     2
  0
VERTEX
  5
11B2
  8
0
 10
252.27208106083009
 20
26.461615757942699
 30
0.0
 42
0.0383897719593791
  0
VERTEX
  5
11B3
  8
0
 10
256.5506996715161
 20
25.458787490160649
 30
0.0
 42
0.0383897719593772
 70
     1
  0
VERTEX
  5
11B4
  8
0
 10
260.93233509867463
 20
25.121870981455299
 30
0.0
 42
0.0383897719593768
  0
VERTEX
  5
11B5
  8
0
 10
265.3139705258331
 20
25.458787490160621
 30
0.0
 42
0.0383897719593777
 70
     1
  0
VERTEX
  5
11B6
  8
0
 10
269.59258913651888
 20
26.46161575794261
 30
0.0
  0
SEQEND
  5
11B7
  8
0
  0
LINE
  5
11B8
  8
0
 10
275.93233509867463
 20
25.121870981455171
 30
0.0
 11
245.9323350986744
 21
25.121870981455402
 31
0.0
  0
LINE
  5
11C0
  8
0
 10
260.93233509867451
 20
59.936824636459122
 30
0.0
 11
269.43233491668832
 21
55.029348852038183
 31
0.0
  0
LINE
  5
11C1
  8
0
 10
269.43233491668832
 20
55.029348852038183
 30
0.0
 11
269.43233491668832
 21
45.21439355790595
 31
0.0
  0
LINE
  5
11C2
  8
0
 10
269.43233491668832
 20
45.21439355790595
 30
0.0
 11
260.93233509867451
 21
40.306917028426867
 31
0.0
  0
LINE
  5
11C3
  8
0
 10
260.93233509867451
 20
40.306917028426867
 30
0.0
 11
252.4323349241389
 21
45.21439355790595
 31
0.0
  0
LINE
  5
11C4
  8
0
 10
252.4323349241389
 20
45.21439355790595
 30
0.0
 11
252.4323349241389
 21
55.029348852038183
 31
0.0
  0
LINE
  5
11C5
  8
0
 10
252.4323349241389
 20
55.029348852038183
 30
0.0
 11
260.93233509867451
 21
59.936824636459122
 31
0.0
  0
CIRCLE
  5
11C6
  8
0
 10
260.9323350986744
 20
50.12187120497228
 30
0.0
 40
8.5000004619359828
  0
TEXT
  5
1473
  8
0
 62
     3
 10
0.0
 20
0.0
 30
0.0
 40
10.0
  1
BJ210-10025S
  7
STANDARD1
  0
ENDSEC
  0
EOF
