  0
SECTION
  2
HEADER
  9
$ACADVER
  1
AC1009
  9
$INSBASE
 10
0.0
 20
0.0
 30
0.0
  9
$EXTMIN
 10
0.0
 20
-2.960436562073669
 30
0.0
  9
$EXTMAX
 10
354.5275754842429
 20
169.002615678425
 30
0.0
  9
$LIMMIN
 10
0.0
 20
0.0
  9
$LIMMAX
 10
375.0
 20
270.0
  9
$ORTHOMODE
 70
     1
  9
$REGENMODE
 70
     1
  9
$FILLMODE
 70
     1
  9
$QTEXTMODE
 70
     0
  9
$MIRRTEXT
 70
     0
  9
$DRAGMODE
 70
     2
  9
$LTSCALE
 40
10.0
  9
$OSMODE
 70
  3071
  9
$ATTMODE
 70
     1
  9
$TEXTSIZE
 40
0.2
  9
$TRACEWID
 40
0.05
  9
$TEXTSTYLE
  7
STANDARD
  9
$CLAYER
  8
0
  9
$CELTYPE
  6
BYLAYER
  9
$CECOLOR
 62
   256
  9
$DIMSCALE
 40
1.0
  9
$DIMASZ
 40
3.0
  9
$DIMEXO
 40
2.0
  9
$DIMDLI
 40
0.38
  9
$DIMRND
 40
0.0
  9
$DIMDLE
 40
0.0
  9
$DIMEXE
 40
2.0
  9
$DIMTP
 40
0.0
  9
$DIMTM
 40
0.0
  9
$DIMTXT
 40
3.2000000000000002
  9
$DIMCEN
 40
0.0
  9
$DIMTSZ
 40
0.0
  9
$DIMTOL
 70
     0
  9
$DIMLIM
 70
     0
  9
$DIMTIH
 70
     0
  9
$DIMTOH
 70
     0
  9
$DIMSE1
 70
     0
  9
$DIMSE2
 70
     0
  9
$DIMTAD
 70
     1
  9
$DIMZIN
 70
     0
  9
$DIMBLK
  1

  9
$DIMASO
 70
     0
  9
$DIMSHO
 70
     0
  9
$DIMPOST
  1

  9
$DIMAPOST
  1

  9
$DIMALT
 70
     0
  9
$DIMALTD
 70
     2
  9
$DIMALTF
 40
25.399999999999999
  9
$DIMLFAC
 40
1.0
  9
$DIMTOFL
 70
     1
  9
$DIMTVP
 40
1.6000000000000001
  9
$DIMTIX
 70
     1
  9
$DIMSOXD
 70
     0
  9
$DIMSAH
 70
     0
  9
$DIMBLK1
  1

  9
$DIMBLK2
  1

  9
$DIMSTYLE
  2
STANDARD
  9
$DIMCLRD
 70
     0
  9
$DIMCLRE
 70
     0
  9
$DIMCLRT
 70
     0
  9
$DIMTFAC
 40
1.0
  9
$DIMGAP
 40
0.09
  9
$LUNITS
 70
     2
  9
$LUPREC
 70
     4
  9
$SKETCHINC
 40
0.1
  9
$FILLETRAD
 40
0.0
  9
$AUNITS
 70
     0
  9
$AUPREC
 70
     4
  9
$MENU
  1
E:\r13\win\SUPPORT\ACAD
  9
$ELEVATION
 40
0.0
  9
$PELEVATION
 40
0.0
  9
$THICKNESS
 40
0.0
  9
$LIMCHECK
 70
     0
  9
$BLIPMODE
 70
     0
  9
$CHAMFERA
 40
0.0
  9
$CHAMFERB
 40
0.0
  9
$SKPOLY
 70
     0
  9
$TDCREATE
 40
2449839.7571875011
  9
$TDUPDATE
 40
2456597.6658728942
  9
$TDINDWG
 40
0.1713825231
  9
$TDUSRTIMER
 40
0.1713825231
  9
$USRTIMER
 70
     1
  9
$ANGBASE
 50
0.0
  9
$ANGDIR
 70
     0
  9
$PDMODE
 70
     0
  9
$PDSIZE
 40
0.0
  9
$PLINEWID
 40
0.0
  9
$COORDS
 70
     1
  9
$SPLFRAME
 70
     0
  9
$SPLINETYPE
 70
     6
  9
$SPLINESEGS
 70
     8
  9
$ATTDIA
 70
     0
  9
$ATTREQ
 70
     1
  9
$HANDLING
 70
     1
  9
$HANDSEED
  5
1B43
  9
$SURFTAB1
 70
     6
  9
$SURFTAB2
 70
     6
  9
$SURFTYPE
 70
     6
  9
$SURFU
 70
     6
  9
$SURFV
 70
     6
  9
$UCSNAME
  2

  9
$UCSORG
 10
0.0
 20
0.0
 30
0.0
  9
$UCSXDIR
 10
1.0
 20
0.0
 30
0.0
  9
$UCSYDIR
 10
0.0
 20
1.0
 30
0.0
  9
$PUCSNAME
  2

  9
$PUCSORG
 10
0.0
 20
0.0
 30
0.0
  9
$PUCSXDIR
 10
1.0
 20
0.0
 30
0.0
  9
$PUCSYDIR
 10
0.0
 20
1.0
 30
0.0
  9
$USERI1
 70
     0
  9
$USERI2
 70
     1
  9
$USERI3
 70
     0
  9
$USERI4
 70
     0
  9
$USERI5
 70
     0
  9
$USERR1
 40
0.0
  9
$USERR2
 40
0.0
  9
$USERR3
 40
0.0
  9
$USERR4
 40
0.0
  9
$USERR5
 40
0.0
  9
$WORLDVIEW
 70
     1
  9
$SHADEDGE
 70
     3
  9
$SHADEDIF
 70
    70
  9
$TILEMODE
 70
     1
  9
$MAXACTVP
 70
    16
  9
$PLIMCHECK
 70
     0
  9
$PEXTMIN
 10
1.0000000000000000E+020
 20
1.0000000000000000E+020
 30
1.0000000000000000E+020
  9
$PEXTMAX
 10
-1.0000000000000000E+020
 20
-1.0000000000000000E+020
 30
-1.0000000000000000E+020
  9
$PLIMMIN
 10
0.0
 20
0.0
  9
$PLIMMAX
 10
12.0
 20
9.0
  9
$UNITMODE
 70
     0
  9
$VISRETAIN
 70
     0
  9
$PLINEGEN
 70
     0
  9
$PSLTSCALE
 70
     0
  0
ENDSEC
  0
SECTION
  2
TABLES
  0
TABLE
  2
VPORT
 70
     1
  0
VPORT
  2
*ACTIVE
 70
     0
 10
0.0
 20
0.0
 11
1.0
 21
1.0
 12
195.0581083320873
 22
133.5127261426681
 13
0.0
 23
0.0
 14
10.0
 24
10.0
 15
10.0
 25
10.0
 16
0.0
 26
0.0
 36
1.0
 17
0.0
 27
0.0
 37
0.0
 40
275.42274993631997
 41
1.831871345029239
 42
50.0
 43
0.0
 44
0.0
 50
0.0
 51
0.0
 71
     0
 72
   500
 73
     1
 74
     0
 75
     0
 76
     0
 77
     0
 78
     2
  0
ENDTAB
  0
TABLE
  2
LTYPE
 70
     3
  0
LTYPE
  2
CONTINUOUS
 70
     0
  3
Solid Line
 72
    65
 73
     0
 40
0.0
  0
LTYPE
  2
CENTER
 70
     0
  3
____ _ ____ _ ____ _ ____ _ ____ _ ____ _ ____
 72
    65
 73
     4
 40
2.0
 49
1.25
 49
-0.25
 49
0.25
 49
-0.25
  0
LTYPE
  2
PHANTOM2
 70
     0
  3
___ _ _ ___ _ _ ___ _ _ ___ _ _
 72
    65
 73
     6
 40
1.25
 49
0.625
 49
-0.125
 49
0.125
 49
-0.125
 49
0.125
 49
-0.125
  0
ENDTAB
  0
TABLE
  2
LAYER
 70
     4
  0
LAYER
  2
0
 70
     0
 62
     7
  6
CONTINUOUS
  0
LAYER
  2
1
 70
     0
 62
     1
  6
CENTER
  0
LAYER
  2
3
 70
     0
 62
     3
  6
CONTINUOUS
  0
LAYER
  2
DEFPOINTS
 70
     0
 62
     7
  6
CONTINUOUS
  0
ENDTAB
  0
TABLE
  2
STYLE
 70
     2
  0
STYLE
  2
STANDARD
 70
     0
 40
0.0
 41
1.0
 50
0.0
 71
     0
 42
0.2
  3
TXT
  4
BIGFONT
  0
STYLE
  2
STANDARD1
 70
     0
 40
0.0
 41
1.0
 50
0.0
 71
     0
 42
3.0
  3
txt
  4

  0
ENDTAB
  0
TABLE
  2
VIEW
 70
     2
  0
VIEW
  2
ALL
 70
     0
 40
179.5384664489153
 10
135.0
 20
89.769233224457665
 41
0.0
 11
0.0
 21
0.0
 31
1.0
 12
0.0
 22
0.0
 32
0.0
 42
0.0
 43
0.0
 44
0.0
 50
0.0
 71
     0
  0
VIEW
  2
OLE1
 70
     0
 40
35.722840295945673
 10
96.389172438585646
 20
96.329581661136274
 41
53.65962508589309
 11
0.0
 21
0.0
 31
1.0
 12
0.0
 22
0.0
 32
0.0
 42
50.0
 43
0.0
 44
0.0
 50
0.0
 71
     0
  0
ENDTAB
  0
TABLE
  2
UCS
 70
     0
  0
ENDTAB
  0
TABLE
  2
APPID
 70
     3
  0
APPID
  2
ACAD
 70
     0
  0
APPID
  2
ACAD_MLEADERVER
 70
     0
  0
APPID
  2
ACAD_NAV_VCDISPLAY
 70
     0
  0
ENDTAB
  0
TABLE
  2
DIMSTYLE
 70
     1
  0
DIMSTYLE
  2
STANDARD
 70
     0
  3

  4

  5

  6

  7

 40
1.0
 41
0.18
 42
0.0625
 43
0.38
 44
0.18
 45
0.0
 46
0.0
 47
0.0
 48
0.0
140
0.18
141
0.09
142
0.0
143
25.399999999999999
144
1.0
145
0.0
146
1.0
147
0.09
 71
     0
 72
     0
 73
     1
 74
     1
 75
     0
 76
     0
 77
     0
 78
     0
170
     0
171
     2
172
     0
173
     0
174
     0
175
     0
176
     0
177
     0
178
     0
  0
ENDTAB
  0
ENDSEC
  0
SECTION
  2
BLOCKS
  0
BLOCK
  8
0
  2
$MODEL_SPACE
 70
     0
 10
0.0
 20
0.0
 30
0.0
  3
$MODEL_SPACE
  1

  0
ENDBLK
  5
47D
  8
0
  0
BLOCK
 67
     1
  8
0
  2
$PAPER_SPACE
 70
     0
 10
0.0
 20
0.0
 30
0.0
  3
$PAPER_SPACE
  1

  0
ENDBLK
  5
47B
 67
     1
  8
0
  0
ENDSEC
  0
SECTION
  2
ENTITIES
  0
LINE
  5
1521
  8
1
 10
134.02686817800711
 20
72.082423401503149
 30
0.0
 11
244.0268696681232
 21
72.082423401503021
 31
0.0
  0
LINE
  5
1522
  8
1
 10
196.0268682078094
 20
89.082423163084627
 30
0.0
 11
196.0268682078094
 21
35.082423401503213
 31
0.0
  0
LINE
  5
1523
  8
0
 10
139.02686817800711
 20
76.582422865061346
 30
0.0
 11
139.02686817800711
 21
67.582423252491523
 31
0.0
  0
LINE
  5
1527
  8
0
 10
221.0268685803384
 20
81.582421821980105
 30
0.0
 11
221.0268685803384
 21
62.582424295572856
 31
0.0
  0
LINE
  5
152C
  8
0
 10
220.17836293434809
 20
83.052078647045718
 30
0.0
 11
214.87537307893939
 21
83.052078647045718
 31
0.0
  0
LINE
  5
1532
  8
0
 10
220.17836293434809
 20
77.567251784233704
 30
0.0
 11
214.87537307893939
 21
77.567251784233704
 31
0.0
  0
LINE
  5
1535
  8
0
 10
220.17836293434809
 20
66.597596195964471
 30
0.0
 11
214.87537307893939
 21
66.597596195964471
 31
0.0
  0
LINE
  5
1538
  8
0
 10
220.17836293434809
 20
61.112767470507251
 30
0.0
 11
214.87537307893939
 21
61.112767470507251
 31
0.0
  0
LINE
  5
153F
  8
0
 10
178.02686898266981
 20
40.082423401503149
 30
0.0
 11
214.02686743294899
 21
40.082423401503149
 31
0.0
  0
LINE
  5
1543
  8
0
 10
214.02686743294899
 20
84.082423163084613
 30
0.0
 11
178.02686898266981
 21
84.082423163084655
 31
0.0
  0
LINE
  5
1546
  8
0
 10
178.02686898266981
 20
84.082423163084584
 30
0.0
 11
178.0268689826699
 21
40.082423401503149
 31
0.0
  0
LINE
  5
154B
  8
0
 10
214.02686743294899
 20
84.082423163084584
 30
0.0
 11
214.02686743294899
 21
40.082423401503149
 31
0.0
  0
LINE
  5
154E
  8
0
 10
196.02686820780929
 20
82.474729431299835
 30
0.0
 11
196.02686820780929
 21
41.690118530271903
 31
0.0
  0
LINE
  5
1566
  8
0
 10
139.02686817800711
 20
147.71800597214451
 30
0.0
 11
139.02686817800711
 21
143.2180059875987
 31
0.0
  0
LINE
  5
1567
  8
0
 10
139.02686817800711
 20
143.2180059875987
 30
0.0
 11
139.02686817800711
 21
138.71800589391341
 31
0.0
  0
LINE
  5
156A
  8
0
 10
145.02686916148369
 20
138.71800589391341
 30
0.0
 11
145.02686916148369
 21
147.71800597214451
 31
0.0
  0
LINE
  5
156B
  8
0
 10
145.8928948477477
 20
137.2180061137056
 30
0.0
 11
145.8928948477477
 21
143.2180059875987
 31
0.0
  0
LINE
  5
156C
  8
0
 10
145.8928948477477
 20
143.2180059875987
 30
0.0
 11
145.8928948477477
 21
149.2180062180137
 31
0.0
  0
LINE
  5
1570
  8
0
 10
221.0268685803382
 20
152.718006326047
 30
0.0
 11
221.0268685803382
 21
133.71800600567201
 31
0.0
  0
LINE
  5
1575
  8
0
 10
221.02686858033829
 20
133.71800600567201
 30
0.0
 11
214.0268682078094
 21
133.71800600567201
 31
0.0
  0
LINE
  5
1579
  8
0
 10
221.0268685803382
 20
152.71800632604689
 30
0.0
 11
214.0268682078094
 21
152.718006326047
 31
0.0
  0
LINE
  5
157C
  8
0
 10
220.1783637092085
 20
143.2180059875985
 30
0.0
 11
214.8753738537998
 21
143.2180059875985
 31
0.0
  0
ARC
  5
157F
  8
0
 10
196.0268682078094
 20
143.21800598759839
 30
0.0
 40
7.0000000000000107
 50
90.0
 51
121.0027154726498
  0
ARC
  5
1580
  8
0
 10
196.0268682078094
 20
143.21800598759839
 30
0.0
 40
6.9999999999999938
 50
238.99727886216249
 51
301.0027211378374
  0
ARC
  5
1581
  8
0
 10
196.0268682078094
 20
143.21800598759839
 30
0.0
 40
7.0000000000000151
 50
58.99728452764883
 51
90.0
  0
CIRCLE
  5
1582
  8
0
 10
196.0268682078094
 20
143.21800598759839
 30
0.0
 40
9.9999999999999716
  0
CIRCLE
  5
1583
  8
0
 10
196.0268682078094
 20
143.21800598759839
 30
0.0
 40
10.99999999999997
  0
ARC
  5
1585
  8
0
 10
196.0268682078094
 20
143.21800598759839
 30
0.0
 40
18.000000000000021
 50
120.0
 51
179.9999999999996
  0
ARC
  5
1589
  8
0
 10
196.0268682078094
 20
143.21800598759839
 30
0.0
 40
18.0
 50
179.9999999999996
 51
240.0000000000002
  0
ARC
  5
158C
  8
0
 10
196.0268682078094
 20
143.21800598759839
 30
0.0
 40
18.0
 50
0.0000000000008142
 51
59.999999999999972
  0
ARC
  5
158F
  8
0
 10
196.0268682078094
 20
143.21800598759839
 30
0.0
 40
18.000000000000021
 50
59.999999999999972
 51
120.0
  0
ARC
  5
1592
  8
0
 10
196.0268682078094
 20
143.21800598759839
 30
0.0
 40
18.0
 50
300.00000000000011
 51
0.0000000000008142
  0
ARC
  5
1595
  8
0
 10
196.0268682078094
 20
143.21800598759839
 30
0.0
 40
18.0
 50
240.0000000000002
 51
300.00000000000011
  0
LINE
  5
16B2
  8
1
 10
134.02686817800711
 20
143.2180059875987
 30
0.0
 11
244.0268696681232
 21
143.21800598759819
 31
0.0
  0
LINE
  5
16B5
  8
1
 10
196.0268682078094
 20
169.002615678425
 30
0.0
 11
196.02686820780929
 21
117.4333962967719
 31
0.0
  0
LINE
  5
16E1
  8
0
 10
196.0268682078094
 20
164.002615678425
 30
0.0
 11
214.02686820780951
 21
153.6103108330116
 31
0.0
  0
LINE
  5
16E2
  8
0
 10
214.02686820780951
 20
153.6103108330116
 30
0.0
 11
214.02686820780951
 21
132.8257011421851
 31
0.0
  0
LINE
  5
16E3
  8
0
 10
214.02686820780951
 20
132.8257011421851
 30
0.0
 11
196.0268682078094
 21
122.4333962967719
 31
0.0
  0
LINE
  5
16E4
  8
0
 10
178.0268682078092
 20
132.8257011421851
 30
0.0
 11
196.02686820780929
 21
122.4333962967719
 31
0.0
  0
LINE
  5
16E5
  8
0
 10
178.0268682078092
 20
153.6103108330116
 30
0.0
 11
178.0268682078092
 21
132.8257011421851
 31
0.0
  0
LINE
  5
16E6
  8
0
 10
196.0268682078092
 20
164.002615678425
 30
0.0
 11
178.0268682078092
 21
153.6103108330116
 31
0.0
  0
LINE
  5
16FA
  8
0
 10
239.0268696681232
 20
147.2180059875983
 30
0.0
 11
239.0268696681232
 21
139.2180059875983
 31
0.0
  0
LINE
  5
16FB
  8
0
 10
188.0268682078094
 20
137.21800598759839
 30
0.0
 11
204.02686820780929
 21
137.2180059875983
 31
0.0
  0
LINE
  5
16FC
  8
3
 10
187.3974307406277
 20
138.16500598759831
 30
0.0
 11
204.65630567499099
 21
138.16500598759831
 31
0.0
  0
LINE
  5
16FD
  8
3
 10
187.39743074062761
 20
148.27100598759839
 30
0.0
 11
204.6563056749911
 21
148.27100598759839
 31
0.0
  0
LINE
  5
16FE
  8
0
 10
188.02686820780929
 20
149.2180059875983
 30
0.0
 11
204.02686820780951
 21
149.2180059875983
 31
0.0
  0
LINE
  5
16FF
  8
0
 10
239.0268696681232
 20
147.2180059875983
 30
0.0
 11
237.02686966812331
 21
149.2180059875983
 31
0.0
  0
LINE
  5
1700
  8
0
 10
239.0268696681232
 20
139.2180059875983
 30
0.0
 11
237.02686966812311
 21
137.2180059875983
 31
0.0
  0
LINE
  5
1701
  8
0
 10
237.0268696681232
 20
149.2180059875983
 30
0.0
 11
237.02686966812311
 21
137.2180059875983
 31
0.0
  0
LINE
  5
1703
  8
0
 10
221.0268685803382
 20
149.2180059875983
 30
0.0
 11
237.02686966812331
 21
149.2180059875983
 31
0.0
  0
LINE
  5
1704
  8
3
 10
221.0268685803382
 20
148.27100598759839
 30
0.0
 11
237.9738696681232
 21
148.2710059875983
 31
0.0
  0
LINE
  5
1705
  8
3
 10
221.0268685803382
 20
138.16500598759831
 30
0.0
 11
237.97386966812309
 21
138.16500598759831
 31
0.0
  0
LINE
  5
1706
  8
0
 10
221.0268685803382
 20
137.2180059875983
 30
0.0
 11
237.02686966812311
 21
137.2180059875983
 31
0.0
  0
LINE
  5
1707
  8
3
 10
145.34614392107551
 20
148.27100598759839
 30
0.0
 11
178.0268682078092
 21
148.2710059875983
 31
0.0
  0
LINE
  5
1708
  8
0
 10
145.89289471471739
 20
149.2180059875983
 30
0.0
 11
178.0268682078092
 21
149.2180059875983
 31
0.0
  0
LINE
  5
1709
  8
0
 10
145.8928948477477
 20
137.2180061137056
 30
0.0
 11
178.0268682078092
 21
137.21800595247649
 31
0.0
  0
LINE
  5
170A
  8
3
 10
145.34614395718009
 20
138.16500598759831
 30
0.0
 11
178.0268682078092
 21
138.16500598759831
 31
0.0
  0
LINE
  5
170B
  8
0
 10
139.02686817800711
 20
138.71800589391341
 30
0.0
 11
145.02686916148369
 21
138.71800589391341
 31
0.0
  0
LINE
  5
170C
  8
0
 10
145.02686916148369
 20
138.71800589391341
 30
0.0
 11
145.8928948477477
 21
137.2180061137056
 31
0.0
  0
LINE
  5
170D
  8
0
 10
139.02686817800711
 20
147.71800597214451
 30
0.0
 11
145.02686916148369
 21
147.71800597214451
 31
0.0
  0
LINE
  5
170E
  8
0
 10
145.02686916148369
 20
147.71800597214451
 30
0.0
 11
145.89289471471739
 21
149.2180059875983
 31
0.0
  0
POLYLINE
  5
1711
  8
0
 66
     1
 10
0.0
 20
0.0
 30
0.0
 70
     2
  0
VERTEX
  5
1712
  8
0
 10
214.8753738537998
 20
152.718006326047
 30
0.0
 42
0.0442208651380326
  0
VERTEX
  5
1717
  8
0
 10
214.24066035488451
 20
150.38060134011371
 30
0.0
 42
0.0442208651380312
 70
     1
  0
VERTEX
  5
1713
  8
0
 10
214.0268682078094
 20
147.96800601312259
 30
0.0
 42
0.0442208625144169
  0
VERTEX
  5
1716
  8
0
 10
214.24066038015411
 20
145.55541083207089
 30
0.0
 42
0.0442208625144191
 70
     1
  0
VERTEX
  5
1714
  8
0
 10
214.8753738537998
 20
143.2180059875985
 30
0.0
  0
SEQEND
  5
1715
  8
0
  0
POLYLINE
  5
1718
  8
0
 66
     1
 10
0.0
 20
0.0
 30
0.0
 70
     2
  0
VERTEX
  5
1719
  8
0
 10
220.1783629343478
 20
152.718006326047
 30
0.0
 42
-0.0442208651380326
  0
VERTEX
  5
171A
  8
0
 10
220.81307643326321
 20
150.38060134011371
 30
0.0
 42
-0.0442208651380312
 70
     1
  0
VERTEX
  5
171B
  8
0
 10
221.0268685803382
 20
147.96800601312259
 30
0.0
 42
-0.0442208625144169
  0
VERTEX
  5
171C
  8
0
 10
220.81307640799349
 20
145.55541083207089
 30
0.0
 42
-0.0442208625144191
 70
     1
  0
VERTEX
  5
171D
  8
0
 10
220.1783629343478
 20
143.2180059875985
 30
0.0
  0
SEQEND
  5
171E
  8
0
  0
POLYLINE
  5
171F
  8
0
 66
     1
 10
0.0
 20
0.0
 30
0.0
 70
     2
  0
VERTEX
  5
1720
  8
0
 10
220.17836293434769
 20
133.71800564915
 30
0.0
 42
0.0442208651380326
  0
VERTEX
  5
1721
  8
0
 10
220.81307643326301
 20
136.05541063508321
 30
0.0
 42
0.0442208651380312
 70
     1
  0
VERTEX
  5
1722
  8
0
 10
221.0268685803382
 20
138.4680059620743
 30
0.0
 42
0.0442208625144169
  0
VERTEX
  5
1723
  8
0
 10
220.81307640799349
 20
140.88060114312611
 30
0.0
 42
0.0442208625144191
 70
     1
  0
VERTEX
  5
1724
  8
0
 10
220.1783629343478
 20
143.21800598759839
 30
0.0
  0
SEQEND
  5
1725
  8
0
  0
POLYLINE
  5
1726
  8
0
 66
     1
 10
0.0
 20
0.0
 30
0.0
 70
     2
  0
VERTEX
  5
1727
  8
0
 10
214.8753738537996
 20
133.71800564915009
 30
0.0
 42
-0.0442208651380326
  0
VERTEX
  5
1728
  8
0
 10
214.2406603548844
 20
136.05541063508329
 30
0.0
 42
-0.0442208651380312
 70
     1
  0
VERTEX
  5
1729
  8
0
 10
214.0268682078094
 20
138.46800596207439
 30
0.0
 42
-0.0442208625144169
  0
VERTEX
  5
172A
  8
0
 10
214.24066038015411
 20
140.8806011431262
 30
0.0
 42
-0.0442208625144191
 70
     1
  0
VERTEX
  5
172B
  8
0
 10
214.8753738537998
 20
143.2180059875985
 30
0.0
  0
SEQEND
  5
172C
  8
0
  0
LINE
  5
172D
  8
0
 10
145.02686916148369
 20
76.582423043322649
 30
0.0
 11
145.89289471471739
 21
78.082423058776484
 31
0.0
  0
LINE
  5
172E
  8
0
 10
139.02686817800711
 20
76.582423043322677
 30
0.0
 11
145.02686916148369
 21
76.582423043322649
 31
0.0
  0
LINE
  5
172F
  8
0
 10
145.02686916148369
 20
67.582422965091581
 30
0.0
 11
145.8928948477477
 21
66.08242318488368
 31
0.0
  0
LINE
  5
1730
  8
0
 10
139.02686817800711
 20
67.582422965091581
 30
0.0
 11
145.02686916148369
 21
67.582422965091581
 31
0.0
  0
LINE
  5
1731
  8
3
 10
145.34614395718009
 20
67.029423058776445
 30
0.0
 11
178.02686898266981
 21
67.029423058776445
 31
0.0
  0
LINE
  5
1732
  8
0
 10
145.8928948477477
 20
66.08242318488368
 30
0.0
 11
178.02686898266981
 21
66.082423023654627
 31
0.0
  0
LINE
  5
1733
  8
0
 10
145.89289471471739
 20
78.082423058776484
 30
0.0
 11
178.02686898266981
 21
78.082423058776399
 31
0.0
  0
LINE
  5
1734
  8
3
 10
145.34614392107551
 20
77.135423058776553
 30
0.0
 11
178.02686898266981
 21
77.135423058776439
 31
0.0
  0
LINE
  5
1735
  8
0
 10
145.8928948477477
 20
72.082423058776783
 30
0.0
 11
145.8928948477477
 21
78.082423289191809
 31
0.0
  0
LINE
  5
1736
  8
0
 10
145.8928948477477
 20
66.08242318488368
 30
0.0
 11
145.8928948477477
 21
72.082423058776783
 31
0.0
  0
LINE
  5
1737
  8
0
 10
145.02686916148369
 20
67.582422965091553
 30
0.0
 11
145.02686916148369
 21
76.582423043322649
 31
0.0
  0
LINE
  5
173A
  8
0
 10
221.0268685803384
 20
66.08242305877647
 30
0.0
 11
237.02686966812311
 21
66.082423058776442
 31
0.0
  0
LINE
  5
173B
  8
3
 10
221.0268685803384
 20
67.02942305877643
 30
0.0
 11
237.97386966812309
 21
67.029423058776416
 31
0.0
  0
LINE
  5
173C
  8
3
 10
221.0268685803384
 20
77.135423058776524
 30
0.0
 11
237.9738696681232
 21
77.135423058776468
 31
0.0
  0
LINE
  5
173D
  8
0
 10
221.0268685803384
 20
78.082423058776484
 30
0.0
 11
237.02686966812331
 21
78.082423058776442
 31
0.0
  0
LINE
  5
173E
  8
0
 10
237.0268696681232
 20
78.082423058776456
 30
0.0
 11
237.02686966812311
 21
66.082423058776413
 31
0.0
  0
LINE
  5
173F
  8
0
 10
239.0268696681232
 20
68.082423058776442
 30
0.0
 11
237.02686966812311
 21
66.082423058776442
 31
0.0
  0
LINE
  5
1740
  8
0
 10
239.0268696681232
 20
76.082423058776442
 30
0.0
 11
237.02686966812331
 21
78.082423058776442
 31
0.0
  0
LINE
  5
1741
  8
0
 10
239.0268696681232
 20
76.082423058776442
 30
0.0
 11
239.0268696681232
 21
68.082423058776442
 31
0.0
  0
POLYLINE
  5
1742
  8
0
 66
     1
 10
0.0
 20
0.0
 30
0.0
 70
     2
  0
VERTEX
  5
1743
  8
0
 10
178.02686898266981
 20
82.474728505203601
 30
0.0
 42
-0.044204905893693
  0
VERTEX
  5
1748
  8
0
 10
182.4540049789199
 20
83.677052155839533
 30
0.0
 42
-0.0442049058936932
 70
     1
  0
VERTEX
  5
1744
  8
0
 10
187.0235552452655
 20
84.082423163084627
 30
0.0
 42
-0.0442368334561769
  0
VERTEX
  5
1747
  8
0
 10
191.5964705049127
 20
83.677634678559897
 30
0.0
 42
-0.0442368334561782
 70
     1
  0
VERTEX
  5
1745
  8
0
 10
196.0268682078094
 20
82.474728246916627
 30
0.0
  0
SEQEND
  5
1746
  8
0
  0
POLYLINE
  5
1749
  8
0
 66
     1
 10
0.0
 20
0.0
 30
0.0
 70
     2
  0
VERTEX
  5
174A
  8
0
 10
214.02686743294899
 20
82.474728505203601
 30
0.0
 42
0.044204905893693
  0
VERTEX
  5
174B
  8
0
 10
209.59973143669879
 20
83.677052155839533
 30
0.0
 42
0.0442049058936932
 70
     1
  0
VERTEX
  5
174C
  8
0
 10
205.0301811703533
 20
84.082423163084627
 30
0.0
 42
0.0442368334561769
  0
VERTEX
  5
174D
  8
0
 10
200.4572659107061
 20
83.677634678559897
 30
0.0
 42
0.0442368334561782
 70
     1
  0
VERTEX
  5
174E
  8
0
 10
196.0268682078094
 20
82.474728246916627
 30
0.0
  0
SEQEND
  5
174F
  8
0
  0
POLYLINE
  5
1750
  8
0
 66
     1
 10
0.0
 20
0.0
 30
0.0
 70
     2
  0
VERTEX
  5
1751
  8
0
 10
214.02686743294899
 20
41.690119456368123
 30
0.0
 42
-0.044204905893693
  0
VERTEX
  5
1752
  8
0
 10
209.59973143669879
 20
40.487795805732191
 30
0.0
 42
-0.0442049058936932
 70
     1
  0
VERTEX
  5
1753
  8
0
 10
205.0301811703533
 20
40.082424798487096
 30
0.0
 42
-0.0442368334561769
  0
VERTEX
  5
1754
  8
0
 10
200.4572659107061
 20
40.487213283011833
 30
0.0
 42
-0.0442368334561782
 70
     1
  0
VERTEX
  5
1755
  8
0
 10
196.0268682078094
 20
41.690119714655097
 30
0.0
  0
SEQEND
  5
1756
  8
0
  0
POLYLINE
  5
1757
  8
0
 66
     1
 10
0.0
 20
0.0
 30
0.0
 70
     2
  0
VERTEX
  5
1758
  8
0
 10
178.02686898266981
 20
41.690119456368123
 30
0.0
 42
0.044204905893693
  0
VERTEX
  5
1759
  8
0
 10
182.4540049789199
 20
40.487795805732191
 30
0.0
 42
0.0442049058936932
 70
     1
  0
VERTEX
  5
175A
  8
0
 10
187.0235552452655
 20
40.082424798487096
 30
0.0
 42
0.0442368334561769
  0
VERTEX
  5
175B
  8
0
 10
191.5964705049127
 20
40.487213283011833
 30
0.0
 42
0.0442368334561782
 70
     1
  0
VERTEX
  5
175C
  8
0
 10
196.0268682078094
 20
41.690119714655097
 30
0.0
  0
SEQEND
  5
175D
  8
0
  0
LINE
  5
175E
  8
0
 10
214.02686743294899
 20
81.582421821980105
 30
0.0
 11
214.87537307893939
 21
83.052078647045718
 31
0.0
  0
LINE
  5
175F
  8
0
 10
221.0268685803384
 20
81.582421821980105
 30
0.0
 11
220.17836293434809
 21
83.052078647045718
 31
0.0
  0
POLYLINE
  5
1769
  8
0
 66
     1
 10
0.0
 20
0.0
 30
0.0
  0
VERTEX
  5
176A
  8
0
 10
214.50414951888371
 20
82.409099733187986
 30
0.0
 42
0.0367712945855846
  0
VERTEX
  5
176B
  8
0
 10
214.24384114508209
 20
81.745004309724635
 30
0.0
 42
0.07515581490909
  0
VERTEX
  5
176C
  8
0
 10
214.02686743294899
 20
80.309665215639711
 30
0.0
 42
0.0751558149090691
  0
VERTEX
  5
176D
  8
0
 10
214.243841145082
 20
78.874326121554745
 30
0.0
 42
0.0751558149090568
  0
VERTEX
  5
176E
  8
0
 10
214.87537307893939
 20
77.567251784233719
 30
0.0
  0
SEQEND
  5
176F
  8
0
  0
POLYLINE
  5
1771
  8
0
 66
     1
 10
0.0
 20
0.0
 30
0.0
 70
     2
  0
VERTEX
  5
1772
  8
0
 10
214.87537307893939
 20
77.567251784233704
 30
0.0
 42
0.0383897915804445
  0
VERTEX
  5
1777
  8
0
 10
214.24024811751909
 20
74.857460385437648
 30
0.0
 42
0.038389791580431
 70
     1
  0
VERTEX
  5
1773
  8
0
 10
214.02686743294899
 20
72.082424921690261
 30
0.0
 42
0.038389804430105
  0
VERTEX
  5
1776
  8
0
 10
214.2402479750956
 20
69.307388515399893
 30
0.0
 42
0.0383898044301036
 70
     1
  0
VERTEX
  5
1774
  8
0
 10
214.87537307893939
 20
66.597596195964584
 30
0.0
  0
SEQEND
  5
1775
  8
0
  0
POLYLINE
  5
1778
  8
0
 66
     1
 10
0.0
 20
0.0
 30
0.0
  0
VERTEX
  5
1779
  8
0
 10
220.5495864944038
 20
82.409099733187986
 30
0.0
 42
-0.0367712945855846
  0
VERTEX
  5
177A
  8
0
 10
220.80989486820539
 20
81.745004309724635
 30
0.0
 42
-0.07515581490909
  0
VERTEX
  5
177B
  8
0
 10
221.0268685803384
 20
80.309665215639711
 30
0.0
 42
-0.0751558149090691
  0
VERTEX
  5
177C
  8
0
 10
220.80989486820539
 20
78.874326121554745
 30
0.0
 42
-0.0751558149090568
  0
VERTEX
  5
177D
  8
0
 10
220.17836293434809
 20
77.567251784233719
 30
0.0
  0
SEQEND
  5
177E
  8
0
  0
POLYLINE
  5
177F
  8
0
 66
     1
 10
0.0
 20
0.0
 30
0.0
 70
     2
  0
VERTEX
  5
1780
  8
0
 10
220.17836293434809
 20
77.567251784233704
 30
0.0
 42
-0.0383897915804445
  0
VERTEX
  5
1781
  8
0
 10
220.8134878957683
 20
74.857460385437648
 30
0.0
 42
-0.038389791580431
 70
     1
  0
VERTEX
  5
1782
  8
0
 10
221.0268685803384
 20
72.082424921690261
 30
0.0
 42
-0.038389804430105
  0
VERTEX
  5
1783
  8
0
 10
220.81348803819179
 20
69.307388515399893
 30
0.0
 42
-0.0383898044301036
 70
     1
  0
VERTEX
  5
1784
  8
0
 10
220.17836293434809
 20
66.597596195964584
 30
0.0
  0
SEQEND
  5
1785
  8
0
  0
POLYLINE
  5
1786
  8
0
 66
     1
 10
0.0
 20
0.0
 30
0.0
  0
VERTEX
  5
1787
  8
0
 10
220.5495864944038
 20
61.755747069818298
 30
0.0
 42
0.0367712945855846
  0
VERTEX
  5
1788
  8
0
 10
220.80989486820539
 20
62.419842493281621
 30
0.0
 42
0.07515581490909
  0
VERTEX
  5
1789
  8
0
 10
221.0268685803384
 20
63.855181587366559
 30
0.0
 42
0.0751558149090691
  0
VERTEX
  5
178A
  8
0
 10
220.80989486820539
 20
65.290520681451525
 30
0.0
 42
0.0751558149090568
  0
VERTEX
  5
178B
  8
0
 10
220.17836293434809
 20
66.597595018772552
 30
0.0
  0
SEQEND
  5
178C
  8
0
  0
POLYLINE
  5
178D
  8
0
 66
     1
 10
0.0
 20
0.0
 30
0.0
  0
VERTEX
  5
178E
  8
0
 10
214.50414951888371
 20
61.755747069818298
 30
0.0
 42
-0.0367712945855846
  0
VERTEX
  5
178F
  8
0
 10
214.24384114508209
 20
62.419842493281621
 30
0.0
 42
-0.07515581490909
  0
VERTEX
  5
1790
  8
0
 10
214.02686743294899
 20
63.855181587366559
 30
0.0
 42
-0.0751558149090691
  0
VERTEX
  5
1791
  8
0
 10
214.243841145082
 20
65.290520681451525
 30
0.0
 42
-0.0751558149090568
  0
VERTEX
  5
1792
  8
0
 10
214.87537307893939
 20
66.597595018772552
 30
0.0
  0
SEQEND
  5
1793
  8
0
  0
LINE
  5
1794
  8
0
 10
214.02686743294899
 20
62.582424981026193
 30
0.0
 11
214.87537307893939
 21
61.112768155960559
 31
0.0
  0
LINE
  5
1795
  8
0
 10
221.0268685803384
 20
62.582424981026151
 30
0.0
 11
220.178362934348
 21
61.112768155960531
 31
0.0
  0
LINE
  5
1801
  8
0
 10
76.310770622202597
 20
84.082423163084613
 30
0.0
 11
40.31077062220259
 21
84.082423163084655
 31
0.0
  0
LINE
  5
1802
  8
0
 10
40.31077062220259
 20
40.082423401503149
 30
0.0
 11
76.310770622202597
 21
40.082423401503149
 31
0.0
  0
LINE
  5
1809
  8
1
 10
58.31077062220259
 20
89.082423163084627
 30
0.0
 11
58.31077062220259
 21
35.082423401503213
 31
0.0
  0
LINE
  5
180A
  8
1
 10
47.310770964929191
 20
72.082423401503107
 30
0.0
 11
69.310770279476003
 21
72.082423401503064
 31
0.0
  0
CIRCLE
  5
180B
  8
3
 10
58.31077062220259
 20
72.082423401503078
 30
0.0
 40
5.0529996572734666
  0
CIRCLE
  5
180C
  8
0
 10
58.31077062220259
 20
72.082423401503078
 30
0.0
 40
5.9999996572734133
  0
LINE
  5
1813
  8
0
 10
336.74296579178753
 20
73.81447420813339
 30
0.0
 11
336.74296579178753
 21
70.35037259487288
 31
0.0
  0
LINE
  5
1814
  8
0
 10
330.74296579504352
 20
70.350372594875097
 30
0.0
 11
330.74296579504352
 21
73.81447420813096
 31
0.0
  0
LINE
  5
1815
  8
0
 10
330.74296579504482
 20
73.81447420813322
 30
0.0
 11
333.7429657934162
 21
75.546525014762224
 31
0.0
  0
LINE
  5
1816
  8
0
 10
333.74296579341609
 20
75.546525014759794
 30
0.0
 11
336.74296579178889
 21
73.814474208131074
 31
0.0
  0
LINE
  5
1817
  8
0
 10
336.74296579178952
 20
70.350372594876234
 30
0.0
 11
333.74296579341609
 21
68.618321788244572
 31
0.0
  0
LINE
  5
1818
  8
0
 10
333.7429657934162
 20
68.618321788245566
 30
0.0
 11
330.74296579504431
 21
70.350372594873846
 31
0.0
  0
LINE
  5
1869
  8
0
 10
79.095380313029239
 20
41.690119456368137
 30
0.0
 11
79.095380313029239
 21
82.474727108219611
 31
0.0
  0
LINE
  5
186A
  8
0
 10
37.526160931375962
 20
41.690119456368137
 30
0.0
 11
37.526160931375962
 21
82.474727108219611
 31
0.0
  0
LINE
  5
186B
  8
0
 10
68.703075467615747
 20
41.69011945636813
 30
0.0
 11
68.703075467615747
 21
82.474728505203601
 31
0.0
  0
LINE
  5
186C
  8
0
 10
47.918465776789219
 20
41.69011945636813
 30
0.0
 11
47.918465776789219
 21
82.474728505203601
 31
0.0
  0
POLYLINE
  5
186E
  8
0
 66
     1
 10
0.0
 20
0.0
 30
0.0
 70
     2
  0
VERTEX
  5
1878
  8
0
 10
47.918465776789219
 20
82.474728505203601
 30
0.0
 42
-0.0383897937491441
  0
VERTEX
  5
187D
  8
0
 10
53.052808038820501
 20
83.678123117039689
 30
0.0
 42
-0.0383897937491432
 70
     1
  0
VERTEX
  5
1879
  8
0
 10
58.310770622202369
 20
84.082423163084627
 30
0.0
 42
-0.038389793749147
  0
VERTEX
  5
187C
  8
0
 10
63.568733205584351
 20
83.678123117039675
 30
0.0
 42
-0.0383897937491479
 70
     1
  0
VERTEX
  5
187A
  8
0
 10
68.703075467615747
 20
82.474728505203601
 30
0.0
  0
SEQEND
  5
187B
  8
0
  0
POLYLINE
  5
1885
  8
0
 66
     1
 10
0.0
 20
0.0
 30
0.0
 70
     2
  0
VERTEX
  5
1886
  8
0
 10
47.918465776789219
 20
41.690118059384233
 30
0.0
 42
0.0383897937491441
  0
VERTEX
  5
1887
  8
0
 10
53.052808038820501
 20
40.486723447548137
 30
0.0
 42
0.0383897937491432
 70
     1
  0
VERTEX
  5
1888
  8
0
 10
58.310770622202369
 20
40.082423401503199
 30
0.0
 42
0.038389793749147
  0
VERTEX
  5
1889
  8
0
 10
63.568733205584351
 20
40.486723447548151
 30
0.0
 42
0.0383897937491479
 70
     1
  0
VERTEX
  5
188A
  8
0
 10
68.703075467615747
 20
41.690118059384233
 30
0.0
  0
SEQEND
  5
188B
  8
0
  0
LINE
  5
189D
  8
0
 10
79.095380313029239
 20
82.474728505203601
 30
0.0
 11
76.310770622202597
 21
84.082423163084613
 31
0.0
  0
LINE
  5
189E
  8
0
 10
40.31077062220259
 20
84.082423163084655
 30
0.0
 11
37.526160931375962
 21
82.474728505203515
 31
0.0
  0
LINE
  5
189F
  8
0
 10
37.526160931375962
 20
41.690119456368137
 30
0.0
 11
40.31077062220259
 21
40.082423401503149
 31
0.0
  0
LINE
  5
18A0
  8
0
 10
79.095380313029239
 20
41.690118059384218
 30
0.0
 11
76.310770622202597
 21
40.082423401503149
 31
0.0
  0
POLYLINE
  5
18A1
  8
0
 66
     1
 10
0.0
 20
0.0
 30
0.0
  0
VERTEX
  5
18A2
  8
0
 10
68.703075467615747
 20
82.474728505203601
 30
0.0
 42
-0.075155794867103
  0
VERTEX
  5
18A3
  8
0
 10
71.179637750568816
 20
83.671315145899797
 30
0.0
 42
-0.0751557948671039
  0
VERTEX
  5
18A4
  8
0
 10
73.899227890322493
 20
84.082423163084613
 30
0.0
 42
-0.0751557948671142
  0
VERTEX
  5
18A5
  8
0
 10
76.618818030076056
 20
83.671315145899825
 30
0.0
 42
-0.0367715730219255
  0
VERTEX
  5
18A6
  8
0
 10
77.877113815257019
 20
83.178094778328287
 30
0.0
  0
SEQEND
  5
18A7
  8
0
  0
POLYLINE
  5
18A8
  8
0
 66
     1
 10
0.0
 20
0.0
 30
0.0
  0
VERTEX
  5
18A9
  8
0
 10
47.918465776789553
 20
82.474728505203601
 30
0.0
 42
0.075155794867103
  0
VERTEX
  5
18AA
  8
0
 10
45.441903493836492
 20
83.671315145899797
 30
0.0
 42
0.0751557948671039
  0
VERTEX
  5
18AB
  8
0
 10
42.722313354082807
 20
84.082423163084613
 30
0.0
 42
0.0751557948671142
  0
VERTEX
  5
18AC
  8
0
 10
40.002723214329251
 20
83.671315145899825
 30
0.0
 42
0.0367715730219576
  0
VERTEX
  5
18AD
  8
0
 10
38.744427429147272
 20
83.178094778327804
 30
0.0
  0
SEQEND
  5
18AE
  8
0
  0
POLYLINE
  5
18AF
  8
0
 66
     1
 10
0.0
 20
0.0
 30
0.0
  0
VERTEX
  5
18B0
  8
0
 10
47.918465776789553
 20
41.690118059384233
 30
0.0
 42
-0.075155794867103
  0
VERTEX
  5
18B1
  8
0
 10
45.441903493836492
 20
40.493531418688029
 30
0.0
 42
-0.0751557948671039
  0
VERTEX
  5
18B2
  8
0
 10
42.722313354082807
 20
40.08242340150322
 30
0.0
 42
-0.0751557948671142
  0
VERTEX
  5
18B3
  8
0
 10
40.002723214329251
 20
40.493531418688008
 30
0.0
 42
-0.0367713308159681
  0
VERTEX
  5
18B4
  8
0
 10
38.744435456274857
 20
40.986747937596647
 30
0.0
  0
SEQEND
  5
18B5
  8
0
  0
POLYLINE
  5
18B6
  8
0
 66
     1
 10
0.0
 20
0.0
 30
0.0
  0
VERTEX
  5
18B7
  8
0
 10
68.703075467615747
 20
41.690118059384233
 30
0.0
 42
0.075155794867103
  0
VERTEX
  5
18B8
  8
0
 10
71.179637750568816
 20
40.493531418688029
 30
0.0
 42
0.0751557948671039
  0
VERTEX
  5
18B9
  8
0
 10
73.899227890322493
 20
40.08242340150322
 30
0.0
 42
0.0751557948671142
  0
VERTEX
  5
18BA
  8
0
 10
76.618818030076056
 20
40.493531418688008
 30
0.0
 42
0.0367715730219623
  0
VERTEX
  5
18BB
  8
0
 10
77.877113815258156
 20
40.986751786260058
 30
0.0
  0
SEQEND
  5
18BC
  8
0
  0
POLYLINE
  5
18BD
  8
0
 66
     1
 10
0.0
 20
0.0
 30
0.0
  0
VERTEX
  5
18BE
  8
0
 10
323.35066094800311
 20
41.690118059384233
 30
0.0
 42
-0.075155794867103
  0
VERTEX
  5
18BF
  8
0
 10
320.87409866504998
 20
40.493531418688029
 30
0.0
 42
-0.0751557948671039
  0
VERTEX
  5
18C0
  8
0
 10
318.15450852529631
 20
40.08242340150322
 30
0.0
 42
-0.0751557948671142
  0
VERTEX
  5
18C1
  8
0
 10
315.4349183855428
 20
40.493531418688008
 30
0.0
 42
-0.0367715730219623
  0
VERTEX
  5
18C2
  8
0
 10
314.17662260036059
 20
40.986751786260058
 30
0.0
  0
SEQEND
  5
18C3
  8
0
  0
POLYLINE
  5
18C4
  8
0
 66
     1
 10
0.0
 20
0.0
 30
0.0
  0
VERTEX
  5
18C5
  8
0
 10
344.13527063882918
 20
41.690118059384233
 30
0.0
 42
0.075155794867103
  0
VERTEX
  5
18C6
  8
0
 10
346.61183292178231
 20
40.493531418688029
 30
0.0
 42
0.0751557948671039
  0
VERTEX
  5
18C7
  8
0
 10
349.33142306153599
 20
40.08242340150322
 30
0.0
 42
0.0751557948671142
  0
VERTEX
  5
18C8
  8
0
 10
352.05101320128949
 20
40.493531418688008
 30
0.0
 42
0.0367713308159681
  0
VERTEX
  5
18C9
  8
0
 10
353.30930095934389
 20
40.986747937596647
 30
0.0
  0
SEQEND
  5
18CA
  8
0
  0
POLYLINE
  5
18CB
  8
0
 66
     1
 10
0.0
 20
0.0
 30
0.0
  0
VERTEX
  5
18CC
  8
0
 10
344.13527063882918
 20
82.474728505203601
 30
0.0
 42
-0.075155794867103
  0
VERTEX
  5
18CD
  8
0
 10
346.61183292178231
 20
83.671315145899797
 30
0.0
 42
-0.0751557948671039
  0
VERTEX
  5
18CE
  8
0
 10
349.33142306153599
 20
84.082423163084613
 30
0.0
 42
-0.0751557948671142
  0
VERTEX
  5
18CF
  8
0
 10
352.05101320128949
 20
83.671315145899825
 30
0.0
 42
-0.0367715730219576
  0
VERTEX
  5
18D0
  8
0
 10
353.30930898647148
 20
83.178094778327804
 30
0.0
  0
SEQEND
  5
18D1
  8
0
  0
POLYLINE
  5
18D2
  8
0
 66
     1
 10
0.0
 20
0.0
 30
0.0
  0
VERTEX
  5
18D3
  8
0
 10
323.35066094800311
 20
82.474728505203601
 30
0.0
 42
0.075155794867103
  0
VERTEX
  5
18D4
  8
0
 10
320.87409866504998
 20
83.671315145899797
 30
0.0
 42
0.0751557948671039
  0
VERTEX
  5
18D5
  8
0
 10
318.15450852529631
 20
84.082423163084613
 30
0.0
 42
0.0751557948671142
  0
VERTEX
  5
18D6
  8
0
 10
315.4349183855428
 20
83.671315145899825
 30
0.0
 42
0.0367715730219255
  0
VERTEX
  5
18D7
  8
0
 10
314.17662260036178
 20
83.178094778328287
 30
0.0
  0
SEQEND
  5
18D8
  8
0
  0
LINE
  5
18D9
  8
0
 10
312.95835610258962
 20
41.690118059384218
 30
0.0
 11
315.7429657934162
 21
40.082423401503149
 31
0.0
  0
LINE
  5
18DA
  8
0
 10
354.5275754842429
 20
41.690119456368137
 30
0.0
 11
351.7429657934162
 21
40.082423401503149
 31
0.0
  0
LINE
  5
18DB
  8
0
 10
351.7429657934162
 20
84.082423163084655
 30
0.0
 11
354.5275754842429
 21
82.474728505203515
 31
0.0
  0
LINE
  5
18DC
  8
0
 10
312.95835610258962
 20
82.474728505203601
 30
0.0
 11
315.7429657934162
 21
84.082423163084613
 31
0.0
  0
POLYLINE
  5
18DD
  8
0
 66
     1
 10
0.0
 20
0.0
 30
0.0
 70
     2
  0
VERTEX
  5
18DE
  8
0
 10
344.13527063882958
 20
41.690118059384233
 30
0.0
 42
-0.0383897937491441
  0
VERTEX
  5
18DF
  8
0
 10
339.0009283767983
 20
40.486723447548137
 30
0.0
 42
-0.0383897937491432
 70
     1
  0
VERTEX
  5
18E0
  8
0
 10
333.74296579341637
 20
40.082423401503199
 30
0.0
 42
-0.038389793749147
  0
VERTEX
  5
18E1
  8
0
 10
328.48500321003451
 20
40.486723447548151
 30
0.0
 42
-0.0383897937491479
 70
     1
  0
VERTEX
  5
18E2
  8
0
 10
323.35066094800311
 20
41.690118059384233
 30
0.0
  0
SEQEND
  5
18E3
  8
0
  0
POLYLINE
  5
18E4
  8
0
 66
     1
 10
0.0
 20
0.0
 30
0.0
 70
     2
  0
VERTEX
  5
18E5
  8
0
 10
344.13527063882958
 20
82.474728505203601
 30
0.0
 42
0.0383897937491441
  0
VERTEX
  5
18E6
  8
0
 10
339.0009283767983
 20
83.678123117039689
 30
0.0
 42
0.0383897937491432
 70
     1
  0
VERTEX
  5
18E7
  8
0
 10
333.74296579341637
 20
84.082423163084627
 30
0.0
 42
0.038389793749147
  0
VERTEX
  5
18E8
  8
0
 10
328.48500321003451
 20
83.678123117039675
 30
0.0
 42
0.0383897937491479
 70
     1
  0
VERTEX
  5
18E9
  8
0
 10
323.35066094800311
 20
82.474728505203601
 30
0.0
  0
SEQEND
  5
18EA
  8
0
  0
LINE
  5
18EB
  8
0
 10
344.13527063882958
 20
41.69011945636813
 30
0.0
 11
344.13527063882958
 21
82.474728505203601
 31
0.0
  0
LINE
  5
18EC
  8
0
 10
323.35066094800311
 20
41.69011945636813
 30
0.0
 11
323.35066094800311
 21
82.474728505203601
 31
0.0
  0
LINE
  5
18ED
  8
0
 10
354.5275754842429
 20
41.690119456368137
 30
0.0
 11
354.5275754842429
 21
82.474727108219611
 31
0.0
  0
LINE
  5
18EE
  8
0
 10
312.95835610258962
 20
41.690119456368137
 30
0.0
 11
312.95835610258962
 21
82.474727108219611
 31
0.0
  0
CIRCLE
  5
1939
  8
0
 10
333.7429657934162
 20
72.082423401503078
 30
0.0
 40
5.9999996572734133
  0
CIRCLE
  5
193A
  8
3
 10
333.7429657934162
 20
72.082423401503078
 30
0.0
 40
5.0529996572734666
  0
LINE
  5
193B
  8
1
 10
344.74296545068961
 20
72.082423401503107
 30
0.0
 11
322.7429661361428
 21
72.082423401503064
 31
0.0
  0
LINE
  5
193C
  8
1
 10
333.7429657934162
 20
89.082423163084627
 30
0.0
 11
333.7429657934162
 21
35.082423401503213
 31
0.0
  0
LINE
  5
193D
  8
0
 10
351.7429657934162
 20
40.082423401503149
 30
0.0
 11
315.7429657934162
 21
40.082423401503149
 31
0.0
  0
LINE
  5
193E
  8
0
 10
315.7429657934162
 20
84.082423163084613
 30
0.0
 11
351.7429657934162
 21
84.082423163084655
 31
0.0
  0
CIRCLE
  5
1941
  8
0
 10
58.31077062220259
 20
72.082423401503092
 30
0.0
 40
4.4999996418195627
  0
LINE
  5
1949
  8
0
 10
333.74296579341637
 20
83.052078647045676
 30
0.0
 11
343.2429657753425
 21
77.567251784233662
 31
0.0
  0
LINE
  5
194A
  8
0
 10
343.2429657753425
 20
77.567251784233662
 30
0.0
 11
343.2429657753425
 21
66.597596195964414
 31
0.0
  0
LINE
  5
194B
  8
0
 10
343.2429657753425
 20
66.597596195964414
 30
0.0
 11
333.7429657934162
 21
61.112767470507201
 31
0.0
  0
LINE
  5
194C
  8
0
 10
333.7429657934162
 20
61.112767470507201
 30
0.0
 11
324.2429654549677
 21
66.597596195964414
 31
0.0
  0
LINE
  5
194D
  8
0
 10
324.2429654549677
 20
66.597596195964414
 30
0.0
 11
324.2429654549677
 21
77.567251784233662
 31
0.0
  0
LINE
  5
194E
  8
0
 10
324.2429654549677
 20
77.567251784233662
 30
0.0
 11
333.7429657934162
 21
83.052078647045676
 31
0.0
  0
CIRCLE
  5
1955
  8
0
 10
333.7429657934162
 20
72.082423401503092
 30
0.0
 40
9.4999984204769774
  0
TEXT
  5
1AB0
  8
0
 62
     3
 10
0.0
 20
0.0
 30
0.0
 40
10.0
  1
BJ210-12032S
  7
STANDARD1
  0
ENDSEC
  0
EOF
