  0
SECTION
  2
HEADER
  9
$ACADVER
  1
AC1009
  9
$INSBASE
 10
0.0
 20
0.0
 30
0.0
  9
$EXTMIN
 10
0.0
 20
-2.960436562073669
 30
0.0
  9
$EXTMAX
 10
211.49999999999989
 20
159.4792606673754
 30
0.0
  9
$LIMMIN
 10
0.0
 20
0.0
  9
$LIMMAX
 10
375.0
 20
270.0
  9
$ORTHOMODE
 70
     1
  9
$REGENMODE
 70
     1
  9
$FILLMODE
 70
     1
  9
$QTEXTMODE
 70
     0
  9
$MIRRTEXT
 70
     0
  9
$DRAGMODE
 70
     2
  9
$LTSCALE
 40
10.0
  9
$OSMODE
 70
    37
  9
$ATTMODE
 70
     1
  9
$TEXTSIZE
 40
0.2
  9
$TRACEWID
 40
0.05
  9
$TEXTSTYLE
  7
STANDARD
  9
$CLAYER
  8
0
  9
$CELTYPE
  6
BYLAYER
  9
$CECOLOR
 62
   256
  9
$DIMSCALE
 40
1.0
  9
$DIMASZ
 40
3.0
  9
$DIMEXO
 40
2.0
  9
$DIMDLI
 40
0.38
  9
$DIMRND
 40
0.0
  9
$DIMDLE
 40
0.0
  9
$DIMEXE
 40
2.0
  9
$DIMTP
 40
0.0
  9
$DIMTM
 40
0.0
  9
$DIMTXT
 40
3.2000000000000002
  9
$DIMCEN
 40
0.0
  9
$DIMTSZ
 40
0.0
  9
$DIMTOL
 70
     0
  9
$DIMLIM
 70
     0
  9
$DIMTIH
 70
     0
  9
$DIMTOH
 70
     0
  9
$DIMSE1
 70
     0
  9
$DIMSE2
 70
     0
  9
$DIMTAD
 70
     1
  9
$DIMZIN
 70
     0
  9
$DIMBLK
  1

  9
$DIMASO
 70
     0
  9
$DIMSHO
 70
     0
  9
$DIMPOST
  1

  9
$DIMAPOST
  1

  9
$DIMALT
 70
     0
  9
$DIMALTD
 70
     2
  9
$DIMALTF
 40
25.399999999999999
  9
$DIMLFAC
 40
1.0
  9
$DIMTOFL
 70
     1
  9
$DIMTVP
 40
1.6000000000000001
  9
$DIMTIX
 70
     1
  9
$DIMSOXD
 70
     0
  9
$DIMSAH
 70
     0
  9
$DIMBLK1
  1

  9
$DIMBLK2
  1

  9
$DIMSTYLE
  2
STANDARD
  9
$DIMCLRD
 70
     0
  9
$DIMCLRE
 70
     0
  9
$DIMCLRT
 70
     0
  9
$DIMTFAC
 40
1.0
  9
$DIMGAP
 40
0.09
  9
$LUNITS
 70
     2
  9
$LUPREC
 70
     1
  9
$SKETCHINC
 40
0.1
  9
$FILLETRAD
 40
0.0
  9
$AUNITS
 70
     0
  9
$AUPREC
 70
     1
  9
$MENU
  1
E:\r13\win\SUPPORT\ACAD
  9
$ELEVATION
 40
0.0
  9
$PELEVATION
 40
0.0
  9
$THICKNESS
 40
0.0
  9
$LIMCHECK
 70
     0
  9
$BLIPMODE
 70
     0
  9
$CHAMFERA
 40
0.0
  9
$CHAMFERB
 40
0.0
  9
$SKPOLY
 70
     0
  9
$TDCREATE
 40
2449839.7572453702
  9
$TDUPDATE
 40
2459675.6371439011
  9
$TDINDWG
 40
0.0789530324
  9
$TDUSRTIMER
 40
0.0789530324
  9
$USRTIMER
 70
     1
  9
$ANGBASE
 50
0.0
  9
$ANGDIR
 70
     0
  9
$PDMODE
 70
     0
  9
$PDSIZE
 40
0.0
  9
$PLINEWID
 40
0.0
  9
$COORDS
 70
     1
  9
$SPLFRAME
 70
     0
  9
$SPLINETYPE
 70
     6
  9
$SPLINESEGS
 70
     8
  9
$ATTDIA
 70
     0
  9
$ATTREQ
 70
     1
  9
$HANDLING
 70
     1
  9
$HANDSEED
  5
578
  9
$SURFTAB1
 70
     6
  9
$SURFTAB2
 70
     6
  9
$SURFTYPE
 70
     6
  9
$SURFU
 70
     6
  9
$SURFV
 70
     6
  9
$UCSNAME
  2

  9
$UCSORG
 10
0.0
 20
0.0
 30
0.0
  9
$UCSXDIR
 10
1.0
 20
0.0
 30
0.0
  9
$UCSYDIR
 10
0.0
 20
1.0
 30
0.0
  9
$PUCSNAME
  2

  9
$PUCSORG
 10
0.0
 20
0.0
 30
0.0
  9
$PUCSXDIR
 10
1.0
 20
0.0
 30
0.0
  9
$PUCSYDIR
 10
0.0
 20
1.0
 30
0.0
  9
$USERI1
 70
     0
  9
$USERI2
 70
     1
  9
$USERI3
 70
     0
  9
$USERI4
 70
     0
  9
$USERI5
 70
     0
  9
$USERR1
 40
0.0
  9
$USERR2
 40
0.0
  9
$USERR3
 40
0.0
  9
$USERR4
 40
0.0
  9
$USERR5
 40
0.0
  9
$WORLDVIEW
 70
     1
  9
$SHADEDGE
 70
     3
  9
$SHADEDIF
 70
    70
  9
$TILEMODE
 70
     1
  9
$MAXACTVP
 70
    16
  9
$PLIMCHECK
 70
     0
  9
$PEXTMIN
 10
1.0000000000000000E+020
 20
1.0000000000000000E+020
 30
1.0000000000000000E+020
  9
$PEXTMAX
 10
-1.0000000000000000E+020
 20
-1.0000000000000000E+020
 30
-1.0000000000000000E+020
  9
$PLIMMIN
 10
0.0
 20
0.0
  9
$PLIMMAX
 10
12.0
 20
9.0
  9
$UNITMODE
 70
     0
  9
$VISRETAIN
 70
     0
  9
$PLINEGEN
 70
     0
  9
$PSLTSCALE
 70
     0
  0
ENDSEC
  0
SECTION
  2
TABLES
  0
TABLE
  2
VPORT
 70
     1
  0
VPORT
  2
*ACTIVE
 70
     0
 10
0.0
 20
0.0
 11
1.0
 21
1.0
 12
94.701979221279984
 22
-25.852437157031058
 13
0.0
 23
0.0
 14
10.0
 24
10.0
 15
10.0
 25
10.0
 16
0.0
 26
0.0
 36
1.0
 17
190.00354962487381
 27
150.85243715703101
 37
0.0
 40
250.0
 41
2.2776442307692299
 42
50.0
 43
0.0
 44
0.0
 50
0.0
 51
0.0
 71
     0
 72
   500
 73
     1
 74
     0
 75
     0
 76
     0
 77
     0
 78
     2
  0
ENDTAB
  0
TABLE
  2
LTYPE
 70
     8
  0
LTYPE
  2
CONTINUOUS
 70
     0
  3
Solid Line
 72
    65
 73
     0
 40
0.0
  0
LTYPE
  2
CENTER
 70
     0
  3
____ _ ____ _ ____ _ ____ _ ____ _ ____ _ ____
 72
    65
 73
     4
 40
2.0
 49
1.25
 49
-0.25
 49
0.25
 49
-0.25
  0
LTYPE
  2
HIDDEN
 70
     0
  3
Hidden __ __ __ __ __ __ __ __ __ __ __ __ __ _
 72
    65
 73
     2
 40
0.375
 49
0.25
 49
-0.125
  0
LTYPE
  2
PHANTOM2
 70
     0
  3
Phantom (.5x) ___ _ _ ___ _ _ ___ _ _ ___ _ _
 72
    65
 73
     6
 40
1.25
 49
0.625
 49
-0.125
 49
0.125
 49
-0.125
 49
0.125
 49
-0.125
  0
LTYPE
  2
AMCONSTR
 70
     0
  3
_______________________
 72
    65
 73
     2
 40
9999.0
 49
9999.0
 49
0.0
  0
LTYPE
  2
CENTER2
 70
     0
  3
Center (.5x) ___ _ ___ _ ___ _ ___ _ ___ _ ___
 72
    65
 73
     4
 40
1.125
 49
0.75
 49
-0.125
 49
0.125
 49
-0.125
  0
LTYPE
  2
HIDDEN2
 70
     0
  3
Hidden (.5x) _ _ _ _ _ _ _ _ _ _ _ _ _ _ _ _ _
 72
    65
 73
     2
 40
0.1875
 49
0.125
 49
-0.0625
  0
LTYPE
  2
AMZIGZAG2
 70
     0
  3
/\/-/\/-/\/-/\/-/\/-/\/
 72
    65
 73
     2
 40
0.4401
 49
0.0001
 49
-0.4400000000000001
  0
ENDTAB
  0
TABLE
  2
LAYER
 70
     3
  0
LAYER
  2
0
 70
     0
 62
     7
  6
CONTINUOUS
  0
LAYER
  2
1
 70
     0
 62
     1
  6
CENTER
  0
LAYER
  2
3
 70
     0
 62
     3
  6
CONTINUOUS
  0
ENDTAB
  0
TABLE
  2
STYLE
 70
     3
  0
STYLE
  2
STANDARD
 70
     0
 40
0.0
 41
1.0
 50
0.0
 71
     0
 42
0.2
  3
TXT
  4
BIGFONT
  0
STYLE
  2

 70
     1
 40
0.0
 41
1.0
 50
0.0
 71
     0
 42
0.2
  3
ltypeshp.shx
  4

  0
STYLE
  2
STANDARD1
 70
     0
 40
0.0
 41
1.0
 50
0.0
 71
     0
 42
3.0
  3
txt
  4

  0
ENDTAB
  0
TABLE
  2
VIEW
 70
     1
  0
VIEW
  2
ALL
 70
     0
 40
270.0
 10
220.99159663865549
 20
135.0
 41
0.0
 11
0.0
 21
0.0
 31
1.0
 12
0.0
 22
0.0
 32
0.0
 42
0.0
 43
0.0
 44
0.0
 50
0.0
 71
     0
  0
ENDTAB
  0
TABLE
  2
UCS
 70
     0
  0
ENDTAB
  0
TABLE
  2
APPID
 70
    17
  0
APPID
  2
ACAD
 70
     0
  0
APPID
  2
GENIUS_GENDIM_13
 70
     0
  0
APPID
  2
GENIUS_GENDTOL_13
 70
     0
  0
APPID
  2
GENIUS_GE3DTOL_13
 70
     0
  0
APPID
  2
MCAD_NO_VIS
 70
     0
  0
APPID
  2
ACAD_TEMP_GRAPHIC
 70
     0
  0
APPID
  2
AD_DRAW
 70
     0
  0
APPID
  2
ACATTRIBSERVICES
 70
     0
  0
APPID
  2
ASURF_PCURVE_APPNAME
 70
     0
  0
APPID
  2
DESIGNERASSEMBLIES
 70
     0
  0
APPID
  2
ACADM_DIM_EDIT
 70
     0
  0
APPID
  2
AMDT_DM_ADJ
 70
     0
  0
APPID
  2
ACAD_MLEADERVER
 70
     0
  0
APPID
  2
ACAD_NAV_VCDISPLAY
 70
     0
  0
APPID
  2
ACAD_EXEMPT_FROM_CAD_STANDARDS
 70
     0
  0
APPID
  2
ACAD_DSTYLE_DIMJAG
 70
     0
  0
APPID
  2
ACAD_DSTYLE_DIMTALN
 70
     0
  0
ENDTAB
  0
TABLE
  2
DIMSTYLE
 70
     1
  0
DIMSTYLE
  2
STANDARD
 70
     0
  3

  4

  5

  6

  7

 40
1.0
 41
0.18
 42
0.0625
 43
0.38
 44
0.18
 45
0.0
 46
0.0
 47
0.0
 48
0.0
140
0.18
141
0.09
142
0.0
143
25.399999999999999
144
1.0
145
0.0
146
1.0
147
0.09
 71
     0
 72
     0
 73
     1
 74
     1
 75
     0
 76
     0
 77
     0
 78
     0
170
     0
171
     2
172
     0
173
     0
174
     0
175
     0
176
     0
177
     0
178
     0
  0
ENDTAB
  0
ENDSEC
  0
SECTION
  2
BLOCKS
  0
BLOCK
  8
0
  2
$MODEL_SPACE
 70
     0
 10
0.0
 20
0.0
 30
0.0
  3
$MODEL_SPACE
  1

  0
ENDBLK
  5
19E
  8
0
  0
BLOCK
 67
     1
  8
0
  2
$PAPER_SPACE
 70
     0
 10
0.0
 20
0.0
 30
0.0
  3
$PAPER_SPACE
  1

  0
ENDBLK
  5
19C
 67
     1
  8
0
  0
BLOCK
  8
0
  2
*U0
 70
     1
 10
0.0
 20
0.0
 30
0.0
  3
*U0
  1

  0
ENDBLK
  5
263
  8
0
  0
ENDSEC
  0
SECTION
  2
ENTITIES
  0
TEXT
  5
347
  8
0
 62
     3
 10
0.0
 20
0.0
 30
0.0
 40
10.0
  1
BJ211-08001
  7
STANDARD1
  0
LINE
  5
3A8
  8
0
 10
189.9999999999998
 20
90.499999999999972
 30
0.0
 11
189.9999999999998
 21
96.258330249196845
 31
0.0
  0
CIRCLE
  5
3A9
  8
3
 10
196.49999999999989
 20
97.999999999999972
 30
0.0
 40
4.0
  0
CIRCLE
  5
3AA
  8
0
 10
196.49999999999989
 20
97.999999999999972
 30
0.0
 40
3.5
  0
LINE
  5
3AB
  8
1
 10
196.49999999999989
 20
107.5922205438066
 30
0.0
 11
196.49999999999989
 21
88.612915407854857
 31
0.0
  0
LINE
  5
3AC
  8
1
 10
206.9833836858005
 20
97.999999999999972
 30
0.0
 11
186.25830815709961
 21
97.999999999999972
 31
0.0
  0
LINE
  5
3AD
  8
1
 10
181.49999999999989
 20
97.999999999999972
 30
0.0
 11
211.49999999999989
 21
97.999999999999972
 31
0.0
  0
LINE
  5
3AE
  8
0
 10
202.49999999999989
 20
89.999999999999986
 30
0.0
 11
202.99999999999989
 21
90.499999999999972
 31
0.0
  0
LINE
  5
3AF
  8
0
 10
189.9999999999998
 20
90.499999999999972
 30
0.0
 11
190.49999999999989
 21
89.999999999999986
 31
0.0
  0
LINE
  5
3B0
  8
0
 10
190.49999999999989
 20
106.0
 30
0.0
 11
189.9999999999998
 21
105.4999999999999
 31
0.0
  0
LINE
  5
3B1
  8
0
 10
202.49999999999989
 20
106.0
 30
0.0
 11
202.99999999999989
 21
105.4999999999999
 31
0.0
  0
ARC
  5
3B2
  8
0
 10
196.49999932565751
 20
102.9464260667352
 30
0.0
 40
12.946426066735279
 50
239.86302069665959
 51
300.13697930328772
  0
ARC
  5
3B3
  8
0
 10
196.49999932565751
 20
93.053573933264687
 30
0.0
 40
12.946426066735279
 50
59.863020696712312
 51
120.1369793033403
  0
LINE
  5
3B4
  8
1
 10
196.49999999999989
 20
113.04310040860391
 30
0.0
 11
196.49999999999989
 21
43.59904641128761
 31
0.0
  0
LINE
  5
3B5
  8
3
 10
193.00000000000421
 20
85.000000000000654
 30
0.0
 11
192.49999999999989
 21
85.866025403792463
 31
0.0
  0
LINE
  5
3B6
  8
3
 10
199.99999999999579
 20
85.000000000000654
 30
0.0
 11
200.49999999999989
 21
85.866025403792463
 31
0.0
  0
LINE
  5
3B7
  8
3
 10
193.00000000000401
 20
85.000000000000654
 30
0.0
 11
193.00000000000401
 21
74.999999999999787
 31
0.0
  0
LINE
  5
3B8
  8
3
 10
199.99999999999579
 20
85.000000000000654
 30
0.0
 11
199.99999999999579
 21
74.999999999999787
 31
0.0
  0
LINE
  5
3B9
  8
0
 10
200.49999999999989
 20
85.000000000000654
 30
0.0
 11
192.49999999999989
 21
85.000000000000654
 31
0.0
  0
LINE
  5
3BA
  8
0
 10
192.49999999999989
 20
50.999999999999972
 30
0.0
 11
200.49999999999989
 21
50.999999999999972
 31
0.0
  0
LINE
  5
3BB
  8
0
 10
199.49999999999989
 20
49.999999999999972
 30
0.0
 11
200.49999999999989
 21
50.999999999999972
 31
0.0
  0
LINE
  5
3BC
  8
0
 10
192.49999999999989
 20
50.999999999999972
 30
0.0
 11
193.49999999999989
 21
49.999999999999972
 31
0.0
  0
LINE
  5
3BD
  8
0
 10
200.49999999999989
 20
50.999999999999972
 30
0.0
 11
200.49999999999989
 21
70.0
 31
0.0
  0
LINE
  5
3BE
  8
0
 10
193.49999999999989
 20
49.999999999999972
 30
0.0
 11
199.49999999999989
 21
49.999999999999972
 31
0.0
  0
LINE
  5
3BF
  8
0
 10
192.49999999999989
 20
89.999999999999986
 30
0.0
 11
192.49999999999989
 21
74.999999999999773
 31
0.0
  0
LINE
  5
3C0
  8
0
 10
202.99999999999989
 20
105.4999999999999
 30
0.0
 11
203.00000000000011
 21
99.741669750804107
 31
0.0
  0
LINE
  5
3C1
  8
0
 10
202.49999999999989
 20
89.999999999999986
 30
0.0
 11
190.49999999999989
 21
89.999999999999986
 31
0.0
  0
LINE
  5
3C2
  8
0
 10
190.49999999999989
 20
106.0
 30
0.0
 11
202.49999999999989
 21
106.0
 31
0.0
  0
LINE
  5
3C4
  8
0
 10
192.74722325026701
 20
91.499999999999957
 30
0.0
 11
200.25277674973299
 21
91.499999999999957
 31
0.0
  0
LINE
  5
3C5
  8
0
 10
200.25277674973299
 20
91.499999999999957
 30
0.0
 11
204.00555349946589
 21
98.000000000000654
 31
0.0
  0
LINE
  5
3C6
  8
0
 10
204.00555349946589
 20
98.000000000000654
 30
0.0
 11
200.25277674973299
 21
104.50000000000129
 31
0.0
  0
LINE
  5
3C7
  8
0
 10
200.25277674973299
 20
104.50000000000129
 30
0.0
 11
192.74722325026701
 21
104.50000000000129
 31
0.0
  0
LINE
  5
3C8
  8
0
 10
192.74722325026701
 20
104.50000000000129
 30
0.0
 11
188.9944465005338
 21
98.000000000000654
 31
0.0
  0
LINE
  5
3C9
  8
0
 10
188.9944465005338
 20
98.000000000000654
 30
0.0
 11
192.74722325026701
 21
91.499999999999957
 31
0.0
  0
CIRCLE
  5
3CA
  8
0
 10
196.49999999999989
 20
97.999999999999972
 30
0.0
 40
6.25
  0
LINE
  5
3CB
  8
0
 10
203.00000000000031
 20
96.258330249197485
 30
0.0
 11
203.00000000000051
 21
90.500000000000568
 31
0.0
  0
LINE
  5
3CC
  8
0
 10
189.9999999999998
 20
99.741669750804448
 30
0.0
 11
189.9999999999998
 21
105.4999999999999
 31
0.0
  0
LINE
  5
3CD
  8
0
 10
196.49999999999989
 20
74.275105849099646
 30
0.0
 11
196.49999999999989
 21
70.724894150899672
 31
0.0
  0
LINE
  5
3CE
  8
0
 10
189.99999999999829
 20
74.599999999999909
 30
0.0
 11
189.99999999999829
 21
70.399999999999864
 31
0.0
  0
LINE
  5
3CF
  8
0
 10
190.39999999999841
 20
70.0
 30
0.0
 11
202.5999999999998
 21
70.0
 31
0.0
  0
LINE
  5
3D0
  8
0
 10
202.99999999999989
 20
70.399999999999864
 30
0.0
 11
202.99999999999989
 21
74.599999999999909
 31
0.0
  0
LINE
  5
3D1
  8
0
 10
202.5999999999998
 20
74.999999999999773
 30
0.0
 11
190.39999999999841
 21
74.999999999999773
 31
0.0
  0
LINE
  5
3D2
  8
0
 10
190.39999999999841
 20
74.999999999999773
 30
0.0
 11
189.99999999999829
 21
74.599999999999909
 31
0.0
  0
LINE
  5
3D3
  8
0
 10
189.99999999999829
 20
70.399999999999864
 30
0.0
 11
190.39999999999841
 21
70.0
 31
0.0
  0
LINE
  5
3D4
  8
0
 10
202.5999999999998
 20
70.0
 30
0.0
 11
202.99999999999989
 21
70.399999999999864
 31
0.0
  0
LINE
  5
3D5
  8
0
 10
202.5999999999998
 20
74.999999999999773
 30
0.0
 11
202.99999999999989
 21
74.599999999999909
 31
0.0
  0
ARC
  5
3D6
  8
0
 10
193.2499999999992
 20
67.352006485188213
 30
0.0
 40
7.6479935148115441
 50
64.852624233381491
 51
115.1473757666185
  0
ARC
  5
3D7
  8
0
 10
199.7500000000006
 20
67.352006485188213
 30
0.0
 40
7.6479935148115441
 50
64.852624233381491
 51
115.1473757666185
  0
ARC
  5
3D8
  8
0
 10
193.2499999999992
 20
77.64799351481156
 30
0.0
 40
7.6479935148115441
 50
244.85262423338139
 51
295.1473757666185
  0
ARC
  5
3D9
  8
0
 10
199.7500000000006
 20
77.64799351481156
 30
0.0
 40
7.6479935148115441
 50
244.85262423338139
 51
295.1473757666185
  0
LINE
  5
3DA
  8
0
 10
196.49999999999989
 20
74.2751058491001
 30
0.0
 11
196.49999999999989
 21
70.724894150899885
 31
0.0
  0
LINE
  5
3DB
  8
0
 10
200.49999999999989
 20
74.999999999999773
 30
0.0
 11
200.49999999999989
 21
89.999999999999986
 31
0.0
  0
LINE
  5
3DC
  8
3
 10
199.99999999999579
 20
70.0
 30
0.0
 11
199.99999999999579
 21
50.499999999995879
 31
0.0
  0
LINE
  5
3DD
  8
3
 10
193.00000000000401
 20
70.0
 30
0.0
 11
193.00000000000401
 21
50.499999999995879
 31
0.0
  0
LINE
  5
3DE
  8
0
 10
192.49999999999989
 20
70.0
 30
0.0
 11
192.49999999999989
 21
50.999999999999972
 31
0.0
  0
LINE
  5
3DF
  8
0
 10
132.99999999999989
 20
90.5
 30
0.0
 11
132.99999999999989
 21
105.5
 31
0.0
  0
LINE
  5
3E0
  8
0
 10
132.49999999999989
 20
90.0
 30
0.0
 11
132.99999999999989
 21
90.5
 31
0.0
  0
LINE
  5
3E1
  8
0
 10
119.9999999999999
 20
90.5
 30
0.0
 11
120.4999999999999
 21
90.0
 31
0.0
  0
LINE
  5
3E2
  8
0
 10
120.4999999999999
 20
106.0
 30
0.0
 11
119.9999999999999
 21
105.5
 31
0.0
  0
LINE
  5
3E3
  8
0
 10
132.49999999999989
 20
106.0
 30
0.0
 11
132.99999999999989
 21
105.5
 31
0.0
  0
ARC
  5
3E4
  8
0
 10
126.4999993256575
 20
102.9464260667353
 30
0.0
 40
12.946426066735279
 50
239.8630206966595
 51
300.13697930328772
  0
ARC
  5
3E5
  8
0
 10
126.4999993256575
 20
93.053573933264715
 30
0.0
 40
12.946426066735279
 50
59.863020696712212
 51
120.1369793033405
  0
LINE
  5
3E6
  8
1
 10
126.4999999999999
 20
113.043100408604
 30
0.0
 11
126.4999999999999
 21
43.599046411287659
 31
0.0
  0
LINE
  5
3E7
  8
3
 10
123.00000000000389
 20
85.000000000000696
 30
0.0
 11
122.4999999999999
 21
85.866025403792491
 31
0.0
  0
LINE
  5
3E8
  8
3
 10
129.99999999999579
 20
85.000000000000696
 30
0.0
 11
130.49999999999989
 21
85.866025403792491
 31
0.0
  0
LINE
  5
3E9
  8
3
 10
123.00000000000389
 20
85.000000000000696
 30
0.0
 11
123.00000000000389
 21
74.999999999999773
 31
0.0
  0
LINE
  5
3EA
  8
3
 10
129.99999999999579
 20
85.000000000000696
 30
0.0
 11
129.99999999999579
 21
74.999999999999773
 31
0.0
  0
LINE
  5
3EB
  8
0
 10
130.49999999999989
 20
85.000000000000696
 30
0.0
 11
122.4999999999999
 21
85.000000000000696
 31
0.0
  0
LINE
  5
3EC
  8
0
 10
122.4999999999999
 20
51.000000000000007
 30
0.0
 11
130.49999999999989
 21
51.000000000000007
 31
0.0
  0
LINE
  5
3ED
  8
0
 10
129.49999999999989
 20
50.000000000000007
 30
0.0
 11
130.49999999999989
 21
51.000000000000007
 31
0.0
  0
LINE
  5
3EE
  8
0
 10
122.4999999999999
 20
51.000000000000007
 30
0.0
 11
123.4999999999999
 21
50.000000000000007
 31
0.0
  0
LINE
  5
3EF
  8
0
 10
130.49999999999989
 20
51.000000000000007
 30
0.0
 11
130.49999999999989
 21
69.999999999999787
 31
0.0
  0
LINE
  5
3F0
  8
0
 10
123.4999999999999
 20
50.000000000000007
 30
0.0
 11
129.49999999999989
 21
50.000000000000007
 31
0.0
  0
LINE
  5
3F1
  8
0
 10
122.4999999999999
 20
90.0
 30
0.0
 11
122.4999999999999
 21
74.999999999999787
 31
0.0
  0
LINE
  5
3F2
  8
0
 10
119.9999999999999
 20
90.5
 30
0.0
 11
119.9999999999999
 21
105.5
 31
0.0
  0
LINE
  5
3F3
  8
0
 10
132.49999999999989
 20
90.0
 30
0.0
 11
120.4999999999999
 21
90.0
 31
0.0
  0
LINE
  5
3F4
  8
0
 10
120.4999999999999
 20
106.0
 30
0.0
 11
132.49999999999989
 21
106.0
 31
0.0
  0
LINE
  5
3F5
  8
0
 10
137.2751058490995
 20
98.0
 30
0.0
 11
133.7248941508995
 21
98.0
 31
0.0
  0
LINE
  5
3F6
  8
0
 10
137.5999999999998
 20
104.50000000000161
 30
0.0
 11
133.39999999999969
 21
104.50000000000161
 31
0.0
  0
LINE
  5
3F8
  8
0
 10
133.39999999999969
 20
91.5
 30
0.0
 11
137.5999999999998
 21
91.5
 31
0.0
  0
LINE
  5
3F9
  8
0
 10
137.9999999999996
 20
91.900000000000105
 30
0.0
 11
137.9999999999996
 21
104.1000000000015
 31
0.0
  0
LINE
  5
3FA
  8
0
 10
137.9999999999996
 20
104.1000000000015
 30
0.0
 11
137.5999999999998
 21
104.50000000000161
 31
0.0
  0
LINE
  5
3FB
  8
0
 10
133.39999999999969
 20
104.50000000000161
 30
0.0
 11
132.99999999999989
 21
104.1000000000015
 31
0.0
  0
LINE
  5
3FC
  8
0
 10
132.99999999999989
 20
91.900000000000105
 30
0.0
 11
133.39999999999969
 21
91.5
 31
0.0
  0
LINE
  5
3FD
  8
0
 10
137.9999999999996
 20
91.900000000000105
 30
0.0
 11
137.5999999999998
 21
91.5
 31
0.0
  0
ARC
  5
3FE
  8
0
 10
130.3520064851881
 20
101.2500000000007
 30
0.0
 40
7.6479935148115441
 50
334.85262423337571
 51
25.147375766624371
  0
ARC
  5
3FF
  8
0
 10
130.3520064851881
 20
94.749999999999318
 30
0.0
 40
7.6479935148115441
 50
334.85262423337571
 51
25.147375766624371
  0
ARC
  5
400
  8
0
 10
140.64799351481139
 20
101.2500000000007
 30
0.0
 40
7.6479935148115441
 50
154.85262423337559
 51
205.14737576662441
  0
ARC
  5
401
  8
0
 10
140.64799351481139
 20
94.749999999999318
 30
0.0
 40
7.6479935148115441
 50
154.85262423337559
 51
205.14737576662441
  0
LINE
  5
402
  8
0
 10
137.27510584909999
 20
98.0
 30
0.0
 11
133.72489415089979
 21
98.0
 31
0.0
  0
LINE
  5
403
  8
3
 10
145.99999999999781
 20
94.499997663982398
 30
0.0
 11
137.9999999999996
 21
94.499997663982398
 31
0.0
  0
LINE
  5
404
  8
3
 10
145.99999999999781
 20
101.49999766398651
 30
0.0
 11
137.99999999999969
 21
101.49999766398651
 31
0.0
  0
LINE
  5
405
  8
0
 10
107.4999999999999
 20
101.9999976639872
 30
0.0
 11
119.9999999999999
 21
101.9999976639872
 31
0.0
  0
LINE
  5
406
  8
0
 10
107.4999999999999
 20
93.999997663984459
 30
0.0
 11
119.9999999999999
 21
93.999997663984459
 31
0.0
  0
LINE
  5
407
  8
0
 10
107.4999999999999
 20
101.9999976639872
 30
0.0
 11
107.4999999999999
 21
93.999997663984459
 31
0.0
  0
LINE
  5
408
  8
0
 10
106.4999999999999
 20
94.999997663984445
 30
0.0
 11
107.4999999999999
 21
93.999997663984459
 31
0.0
  0
LINE
  5
409
  8
0
 10
106.4999999999999
 20
100.9999976639872
 30
0.0
 11
106.4999999999999
 21
94.999997663984445
 31
0.0
  0
LINE
  5
40A
  8
0
 10
107.4999999999999
 20
101.9999976639872
 30
0.0
 11
106.4999999999999
 21
100.9999976639872
 31
0.0
  0
LINE
  5
40B
  8
1
 10
103.6602351533259
 20
98.0
 30
0.0
 11
149.48433570520581
 21
98.0
 31
0.0
  0
LINE
  5
40C
  8
0
 10
146.49999999999989
 20
100.9999976639872
 30
0.0
 11
146.49999999999989
 21
94.999997663984445
 31
0.0
  0
LINE
  5
40D
  8
0
 10
145.49999999999989
 20
101.9999976639872
 30
0.0
 11
146.49999999999989
 21
100.9999976639872
 31
0.0
  0
LINE
  5
40E
  8
0
 10
146.49999999999989
 20
94.999997663984445
 30
0.0
 11
145.49999999999989
 21
93.999997663984459
 31
0.0
  0
LINE
  5
40F
  8
0
 10
145.49999999999989
 20
101.9999976639872
 30
0.0
 11
145.49999999999989
 21
93.999997663984459
 31
0.0
  0
LINE
  5
410
  8
3
 10
119.9999999999999
 20
101.49999766398651
 30
0.0
 11
106.9999999999992
 21
101.49999766398651
 31
0.0
  0
LINE
  5
411
  8
0
 10
137.9999999999996
 20
101.9999976639872
 30
0.0
 11
145.49999999999989
 21
101.9999976639872
 31
0.0
  0
LINE
  5
413
  8
3
 10
119.9999999999999
 20
94.499997663982398
 30
0.0
 11
107.0000000000019
 21
94.499997663982398
 31
0.0
  0
LINE
  5
415
  8
0
 10
137.9999999999996
 20
93.999997663984459
 30
0.0
 11
145.49999999999989
 21
93.999997663984459
 31
0.0
  0
LINE
  5
417
  8
0
 10
130.49999999999989
 20
74.999999999999787
 30
0.0
 11
130.49999999999989
 21
90.0
 31
0.0
  0
LINE
  5
418
  8
3
 10
129.99999999999579
 20
69.999999999999787
 30
0.0
 11
129.99999999999579
 21
50.499999999995921
 31
0.0
  0
LINE
  5
419
  8
3
 10
123.00000000000389
 20
69.999999999999773
 30
0.0
 11
123.00000000000389
 21
50.499999999995921
 31
0.0
  0
LINE
  5
41A
  8
0
 10
122.4999999999999
 20
69.999999999999787
 30
0.0
 11
122.4999999999999
 21
51.000000000000007
 31
0.0
  0
ARC
  5
41B
  8
0
 10
126.4999999999999
 20
80.076508994608275
 30
0.0
 40
10.076508994607311
 50
248.13454724159419
 51
291.8654527584057
  0
ARC
  5
41C
  8
0
 10
126.4999999999999
 20
64.923491005392407
 30
0.0
 40
10.076508994607311
 50
68.134547241594234
 51
111.8654527584057
  0
LINE
  5
41D
  8
0
 10
122.747223250267
 20
74.275105849101465
 30
0.0
 11
122.747223250267
 21
70.724894150899217
 31
0.0
  0
LINE
  5
41E
  8
0
 10
130.25277674973211
 20
74.27510584910101
 30
0.0
 11
130.25277674973299
 21
70.724894150899217
 31
0.0
  0
LINE
  5
41F
  8
0
 10
120.2500000000019
 20
69.999999999999773
 30
0.0
 11
132.74999999999989
 21
69.999999999999773
 31
0.0
  0
LINE
  5
420
  8
0
 10
132.74999999999989
 20
74.999999999999773
 30
0.0
 11
120.2500000000001
 21
74.999999999999773
 31
0.0
  0
ARC
  5
421
  8
0
 10
120.8708348754004
 20
72.081344410876
 30
0.0
 40
2.8867668040867791
 50
49.458660551153777
 51
109.4586605511377
  0
LINE
  5
422
  8
0
 10
118.9944465005338
 20
74.27510584910101
 30
0.0
 11
120.2500000000001
 21
74.999999999999773
 31
0.0
  0
LINE
  5
423
  8
0
 10
120.2500000000019
 20
69.999999999999773
 30
0.0
 11
118.9944465005341
 21
70.724894150899672
 31
0.0
  0
LINE
  5
424
  8
0
 10
118.9944465005341
 20
70.724894150899672
 30
0.0
 11
118.9944465005338
 21
74.27510584910101
 31
0.0
  0
LINE
  5
425
  8
0
 10
118.9944465005338
 20
70.724894150899672
 30
0.0
 11
120.2500000000001
 21
70.000000000000909
 31
0.0
  0
ARC
  5
426
  8
0
 10
120.8708348754004
 20
72.918655589124683
 30
0.0
 40
2.8867668040867791
 50
250.5413394488622
 51
310.5413394488462
  0
ARC
  5
427
  8
0
 10
132.1291651245993
 20
72.918655589124683
 30
0.0
 40
2.8867668040867791
 50
229.4586605511538
 51
289.45866055114669
  0
LINE
  5
428
  8
0
 10
134.00555349946589
 20
70.724894150899672
 30
0.0
 11
132.74999999999989
 21
70.000000000000909
 31
0.0
  0
LINE
  5
429
  8
0
 10
134.00555349946589
 20
70.724894150899672
 30
0.0
 11
134.00555349946589
 21
74.27510584910101
 31
0.0
  0
LINE
  5
42A
  8
0
 10
132.7499999999981
 20
69.999999999999773
 30
0.0
 11
134.00555349946589
 21
70.724894150899672
 31
0.0
  0
LINE
  5
42B
  8
0
 10
134.00555349946589
 20
74.27510584910101
 30
0.0
 11
132.74999999999989
 21
74.999999999999773
 31
0.0
  0
ARC
  5
42C
  8
0
 10
132.1291651245993
 20
72.081344410876
 30
0.0
 40
2.8867668040867791
 50
70.541339448854487
 51
130.5413394488462
  0
LINE
  5
42D
  8
0
 10
63.000000000000341
 20
105.4999999999995
 30
0.0
 11
63.000000000000107
 21
90.5
 31
0.0
  0
CIRCLE
  5
42E
  8
3
 10
56.499999999999879
 20
98.0
 30
0.0
 40
4.0
  0
CIRCLE
  5
42F
  8
0
 10
56.499999999999879
 20
98.0
 30
0.0
 40
3.5
  0
LINE
  5
430
  8
1
 10
56.499999999999879
 20
107.5922205438066
 30
0.0
 11
56.499999999999879
 21
88.612915407854871
 31
0.0
  0
LINE
  5
431
  8
1
 10
66.983383685800504
 20
98.0
 30
0.0
 11
46.25830815709957
 21
98.0
 31
0.0
  0
LINE
  5
432
  8
0
 10
62.500000000000107
 20
90.0
 30
0.0
 11
63.000000000000107
 21
90.5
 31
0.0
  0
LINE
  5
433
  8
0
 10
50.000000000000107
 20
90.5
 30
0.0
 11
50.500000000000107
 21
90.0
 31
0.0
  0
LINE
  5
434
  8
0
 10
50.499999999999893
 20
106.0
 30
0.0
 11
49.999999999999893
 21
105.5
 31
0.0
  0
LINE
  5
435
  8
0
 10
62.500000000000107
 20
106.0
 30
0.0
 11
63.000000000000341
 21
105.4999999999995
 31
0.0
  0
ARC
  5
436
  8
0
 10
56.499999325657761
 20
102.9464260667353
 30
0.0
 40
12.946426066735279
 50
239.86302069665859
 51
300.136979303283
  0
ARC
  5
437
  8
0
 10
56.499999325657761
 20
93.053573933264715
 30
0.0
 40
12.946426066735279
 50
59.863020696717001
 51
120.13697930334131
  0
LINE
  5
438
  8
1
 10
56.499999999999879
 20
113.043100408604
 30
0.0
 11
56.499999999999879
 21
43.599046411287418
 31
0.0
  0
LINE
  5
439
  8
3
 10
53.000000000004199
 20
85.000000000000696
 30
0.0
 11
52.499999999999893
 21
85.866025403792491
 31
0.0
  0
LINE
  5
43A
  8
3
 10
59.999999999995786
 20
85.000000000000696
 30
0.0
 11
60.499999999999893
 21
85.866025403792491
 31
0.0
  0
LINE
  5
43B
  8
3
 10
53.000000000004199
 20
85.000000000000696
 30
0.0
 11
53.000000000004199
 21
74.999999999999773
 31
0.0
  0
LINE
  5
43C
  8
3
 10
59.999999999995786
 20
85.000000000000696
 30
0.0
 11
59.999999999995786
 21
74.999999999999773
 31
0.0
  0
LINE
  5
43D
  8
0
 10
60.499999999999893
 20
85.000000000000696
 30
0.0
 11
52.499999999999893
 21
85.000000000000696
 31
0.0
  0
LINE
  5
43E
  8
0
 10
52.499999999999893
 20
51.0
 30
0.0
 11
60.499999999999893
 21
51.0
 31
0.0
  0
LINE
  5
43F
  8
0
 10
59.499999999999879
 20
50.0
 30
0.0
 11
60.499999999999893
 21
51.0
 31
0.0
  0
LINE
  5
440
  8
0
 10
52.499999999999893
 20
51.0
 30
0.0
 11
53.499999999999879
 21
50.0
 31
0.0
  0
LINE
  5
441
  8
0
 10
60.499999999999893
 20
51.0
 30
0.0
 11
60.499999999999893
 21
70.0
 31
0.0
  0
LINE
  5
442
  8
0
 10
53.499999999999879
 20
50.0
 30
0.0
 11
59.499999999999879
 21
50.0
 31
0.0
  0
LINE
  5
443
  8
0
 10
52.499999999999893
 20
90.0
 30
0.0
 11
52.499999999999901
 21
74.999999999999758
 31
0.0
  0
LINE
  5
444
  8
0
 10
50.000000000000107
 20
90.5
 30
0.0
 11
49.999999999999893
 21
105.5
 31
0.0
  0
LINE
  5
445
  8
0
 10
62.500000000000107
 20
90.0
 30
0.0
 11
50.500000000000107
 21
90.0
 31
0.0
  0
LINE
  5
446
  8
0
 10
50.499999999999893
 20
106.0
 30
0.0
 11
62.500000000000107
 21
106.0
 31
0.0
  0
LINE
  5
447
  8
1
 10
41.499999999999879
 20
98.0
 30
0.0
 11
71.499999999999886
 21
98.0
 31
0.0
  0
LINE
  5
448
  8
0
 10
56.500000000000107
 20
74.275105849099646
 30
0.0
 11
56.500000000000107
 21
70.724894150899672
 31
0.0
  0
LINE
  5
449
  8
0
 10
49.999999999998522
 20
74.599999999999909
 30
0.0
 11
49.999999999998522
 21
70.399999999999864
 31
0.0
  0
LINE
  5
44A
  8
0
 10
50.399999999998613
 20
70.0
 30
0.0
 11
62.600000000000023
 21
70.0
 31
0.0
  0
LINE
  5
44B
  8
0
 10
63.000000000000107
 20
70.399999999999864
 30
0.0
 11
63.000000000000107
 21
74.599999999999909
 31
0.0
  0
LINE
  5
44C
  8
0
 10
62.600000000000023
 20
74.999999999999773
 30
0.0
 11
50.399999999998613
 21
74.999999999999773
 31
0.0
  0
LINE
  5
44D
  8
0
 10
50.399999999998613
 20
74.999999999999773
 30
0.0
 11
49.999999999998522
 21
74.599999999999909
 31
0.0
  0
LINE
  5
44E
  8
0
 10
49.999999999998522
 20
70.399999999999864
 30
0.0
 11
50.399999999998613
 21
70.0
 31
0.0
  0
LINE
  5
44F
  8
0
 10
62.600000000000023
 20
70.0
 30
0.0
 11
63.000000000000107
 21
70.399999999999864
 31
0.0
  0
LINE
  5
450
  8
0
 10
62.600000000000023
 20
74.999999999999773
 30
0.0
 11
63.000000000000107
 21
74.599999999999909
 31
0.0
  0
ARC
  5
451
  8
0
 10
53.249999999999432
 20
67.352006485188213
 30
0.0
 40
7.6479935148115441
 50
64.852624233375678
 51
115.14737576662429
  0
ARC
  5
452
  8
0
 10
59.750000000000789
 20
67.352006485188213
 30
0.0
 40
7.6479935148115441
 50
64.852624233375678
 51
115.14737576662429
  0
ARC
  5
453
  8
0
 10
53.249999999999432
 20
77.64799351481156
 30
0.0
 40
7.6479935148115441
 50
244.85262423337559
 51
295.14737576662429
  0
ARC
  5
454
  8
0
 10
59.750000000000789
 20
77.64799351481156
 30
0.0
 40
7.6479935148115441
 50
244.85262423337559
 51
295.14737576662429
  0
LINE
  5
455
  8
0
 10
56.500000000000107
 20
74.2751058491001
 30
0.0
 11
56.500000000000107
 21
70.724894150899885
 31
0.0
  0
LINE
  5
456
  8
0
 10
60.499999999999893
 20
74.999999999999773
 30
0.0
 11
60.499999999999893
 21
90.0
 31
0.0
  0
LINE
  5
457
  8
3
 10
59.999999999995822
 20
70.0
 30
0.0
 11
59.999999999995786
 21
50.49999999999568
 31
0.0
  0
LINE
  5
458
  8
3
 10
53.000000000004192
 20
70.0
 30
0.0
 11
53.000000000004199
 21
50.49999999999568
 31
0.0
  0
LINE
  5
459
  8
0
 10
52.499999999999893
 20
70.0
 30
0.0
 11
52.499999999999893
 21
51.0
 31
0.0
  0
LINE
  5
45A
  8
3
 10
145.99999999999781
 20
144.49999766398241
 30
0.0
 11
137.99999999999989
 21
144.49999766398241
 31
0.0
  0
LINE
  5
45B
  8
3
 10
145.99999999999781
 20
151.49999766398639
 30
0.0
 11
137.99999999999989
 21
151.49999766398651
 31
0.0
  0
LINE
  5
45C
  8
0
 10
107.4999999999999
 20
151.9999976639871
 30
0.0
 11
119.9999999999999
 21
151.9999976639871
 31
0.0
  0
LINE
  5
45D
  8
0
 10
107.4999999999999
 20
143.9999976639844
 30
0.0
 11
119.9999999999999
 21
143.9999976639844
 31
0.0
  0
LINE
  5
45E
  8
0
 10
107.4999999999999
 20
151.9999976639871
 30
0.0
 11
107.4999999999999
 21
143.9999976639844
 31
0.0
  0
LINE
  5
45F
  8
0
 10
106.4999999999999
 20
144.9999976639844
 30
0.0
 11
107.4999999999999
 21
143.9999976639844
 31
0.0
  0
LINE
  5
460
  8
0
 10
106.4999999999999
 20
150.9999976639871
 30
0.0
 11
106.4999999999999
 21
144.9999976639844
 31
0.0
  0
LINE
  5
461
  8
0
 10
107.4999999999999
 20
151.9999976639871
 30
0.0
 11
106.4999999999999
 21
150.9999976639871
 31
0.0
  0
LINE
  5
462
  8
1
 10
103.6602351533259
 20
147.99999999999989
 30
0.0
 11
149.48433570520581
 21
147.99999999999989
 31
0.0
  0
LINE
  5
463
  8
0
 10
146.49999999999989
 20
150.9999976639871
 30
0.0
 11
146.49999999999989
 21
144.9999976639844
 31
0.0
  0
LINE
  5
464
  8
0
 10
145.49999999999989
 20
151.9999976639871
 30
0.0
 11
146.49999999999989
 21
150.9999976639871
 31
0.0
  0
LINE
  5
465
  8
0
 10
146.49999999999989
 20
144.9999976639844
 30
0.0
 11
145.49999999999989
 21
143.9999976639844
 31
0.0
  0
LINE
  5
466
  8
0
 10
145.49999999999989
 20
151.9999976639871
 30
0.0
 11
145.49999999999989
 21
143.9999976639844
 31
0.0
  0
ARC
  5
467
  8
0
 10
135.91865558912389
 20
153.6291627885843
 30
0.0
 40
2.8867668040867791
 50
160.54133944884009
 51
220.5413394488445
  0
LINE
  5
468
  8
0
 10
133.72489415089859
 20
155.50555116345089
 30
0.0
 11
132.99999999999989
 21
154.2499976639846
 31
0.0
  0
LINE
  5
469
  8
0
 10
137.99999999999989
 20
154.24999766398281
 30
0.0
 11
137.27510584910021
 21
155.50555116345089
 31
0.0
  0
LINE
  5
46A
  8
0
 10
137.27510584910021
 20
155.50555116345089
 30
0.0
 11
133.72489415089859
 21
155.50555116345089
 31
0.0
  0
LINE
  5
46B
  8
0
 10
137.27510584910021
 20
155.50555116345089
 30
0.0
 11
137.99999999999901
 21
154.2499976639846
 31
0.0
  0
ARC
  5
46C
  8
0
 10
135.0813444108752
 20
153.6291627885843
 30
0.0
 40
2.8867668040867791
 50
319.45866055115539
 51
19.45866055112938
  0
ARC
  5
46D
  8
0
 10
135.0813444108752
 20
142.37083253938539
 30
0.0
 40
2.8867668040867791
 50
340.54133944886121
 51
40.541339448844539
  0
LINE
  5
46E
  8
0
 10
137.27510584910021
 20
140.4944441645188
 30
0.0
 11
137.99999999999901
 21
141.74999766398511
 31
0.0
  0
LINE
  5
46F
  8
0
 10
137.27510584910021
 20
140.4944441645188
 30
0.0
 11
133.72489415089859
 21
140.4944441645188
 31
0.0
  0
LINE
  5
470
  8
0
 10
137.99999999999989
 20
141.7499976639869
 30
0.0
 11
137.27510584910021
 21
140.4944441645188
 31
0.0
  0
LINE
  5
471
  8
0
 10
133.72489415089859
 20
140.4944441645188
 30
0.0
 11
132.99999999999989
 21
141.74999766398511
 31
0.0
  0
ARC
  5
472
  8
0
 10
135.91865558912389
 20
142.37083253938539
 30
0.0
 40
2.8867668040867791
 50
139.45866055115539
 51
199.45866055116119
  0
LINE
  5
473
  8
0
 10
133.00000000000011
 20
154.24999766398491
 30
0.0
 11
132.99999999999989
 21
141.74999766398491
 31
0.0
  0
LINE
  5
474
  8
0
 10
137.99999999999989
 20
141.7499976639867
 30
0.0
 11
137.99999999999989
 21
154.24999766398491
 31
0.0
  0
LINE
  5
475
  8
0
 10
133.72489415089859
 20
151.75277441371691
 30
0.0
 11
137.27510584910061
 21
151.75277441371799
 31
0.0
  0
LINE
  5
476
  8
0
 10
133.72489415089819
 20
144.2472209142517
 30
0.0
 11
137.27510584910061
 21
144.2472209142517
 31
0.0
  0
ARC
  5
477
  8
0
 10
143.07650899460751
 20
147.9999976639846
 30
0.0
 40
10.076508994607311
 50
158.13454724160039
 51
201.86545275839961
  0
ARC
  5
478
  8
0
 10
127.9234910053916
 20
147.9999976639846
 30
0.0
 40
10.076508994607311
 50
338.13454724159988
 51
21.86545275840005
  0
LINE
  5
47B
  8
0
 10
126.4999999999999
 20
140.49444883654991
 30
0.0
 11
128.2416657047041
 21
141.4999999999992
 31
0.0
  0
LINE
  5
47C
  8
0
 10
124.75833429529401
 20
141.4999999999992
 30
0.0
 11
126.4999999999999
 21
140.49444883654991
 31
0.0
  0
LINE
  5
47D
  8
0
 10
126.4999999999999
 20
155.505555835482
 30
0.0
 11
128.24167379690141
 21
154.4999999999992
 31
0.0
  0
LINE
  5
47E
  8
0
 10
124.7583262030967
 20
154.4999999999992
 30
0.0
 11
126.4999999999999
 21
155.505555835482
 31
0.0
  0
LINE
  5
47F
  8
1
 10
126.4999999999999
 20
159.4792606673754
 30
0.0
 11
126.4999999999999
 21
137.00801646953519
 31
0.0
  0
CIRCLE
  5
480
  8
0
 10
126.4999999999999
 20
147.99999999999989
 30
0.0
 40
6.5
  0
ARC
  5
481
  8
0
 10
126.4999999999999
 20
147.99999999999989
 30
0.0
 40
8.5
 50
220.1191668984014
 51
229.88083310161059
  0
LINE
  5
482
  8
0
 10
121.0227744249481
 20
154.4999999999992
 30
0.0
 11
131.97722557505159
 21
154.4999999999992
 31
0.0
  0
ARC
  5
483
  8
0
 10
126.4999999999999
 20
147.99999999999989
 30
0.0
 40
8.5
 50
310.11916689838921
 51
319.88083310158419
  0
ARC
  5
484
  8
0
 10
126.4999999999999
 20
147.99999999999989
 30
0.0
 40
8.5
 50
130.11916689840689
 51
139.88083310159851
  0
ARC
  5
485
  8
0
 10
126.4999999999999
 20
147.99999999999989
 30
0.0
 40
8.5
 50
40.11916689841582
 51
49.880833101592927
  0
LINE
  5
486
  8
0
 10
131.97722557505159
 20
141.4999999999992
 30
0.0
 11
121.0227744249508
 21
141.4999999999992
 31
0.0
  0
LINE
  5
487
  8
0
 10
119.9999999999999
 20
142.52277442494611
 30
0.0
 11
119.9999999999999
 21
153.4772255750508
 31
0.0
  0
LINE
  5
493
  8
3
 10
119.9999999999999
 20
151.49999766398639
 30
0.0
 11
106.9999999999992
 21
151.49999766398639
 31
0.0
  0
LINE
  5
496
  8
3
 10
119.9999999999999
 20
144.49999766398241
 30
0.0
 11
107.0000000000019
 21
144.49999766398241
 31
0.0
  0
LINE
  5
498
  8
0
 10
137.99999999999989
 20
151.99999766398719
 30
0.0
 11
145.49999999999989
 21
151.9999976639871
 31
0.0
  0
LINE
  5
499
  8
0
 10
137.99999999999989
 20
143.9999976639844
 30
0.0
 11
145.49999999999989
 21
143.9999976639844
 31
0.0
  0
ENDSEC
  0
EOF
