  0
SECTION
  2
HEADER
  9
$ACADVER
  1
AC1009
  9
$INSBASE
 10
0.0
 20
0.0
 30
0.0
  9
$EXTMIN
 10
0.0
 20
-2.960436562073669
 30
0.0
  9
$EXTMAX
 10
181.45849670899651
 20
109.5724448971221
 30
0.0
  9
$LIMMIN
 10
0.0
 20
0.0
  9
$LIMMAX
 10
375.0
 20
270.0
  9
$ORTHOMODE
 70
     1
  9
$REGENMODE
 70
     1
  9
$FILLMODE
 70
     1
  9
$QTEXTMODE
 70
     0
  9
$MIRRTEXT
 70
     0
  9
$DRAGMODE
 70
     2
  9
$LTSCALE
 40
10.0
  9
$OSMODE
 70
  3071
  9
$ATTMODE
 70
     1
  9
$TEXTSIZE
 40
0.2
  9
$TRACEWID
 40
0.05
  9
$TEXTSTYLE
  7
STANDARD
  9
$CLAYER
  8
0
  9
$CELTYPE
  6
BYLAYER
  9
$CECOLOR
 62
   256
  9
$DIMSCALE
 40
1.0
  9
$DIMASZ
 40
3.0
  9
$DIMEXO
 40
2.0
  9
$DIMDLI
 40
0.38
  9
$DIMRND
 40
0.0
  9
$DIMDLE
 40
0.0
  9
$DIMEXE
 40
2.0
  9
$DIMTP
 40
0.0
  9
$DIMTM
 40
0.0
  9
$DIMTXT
 40
3.2000000000000002
  9
$DIMCEN
 40
0.0
  9
$DIMTSZ
 40
0.0
  9
$DIMTOL
 70
     0
  9
$DIMLIM
 70
     0
  9
$DIMTIH
 70
     0
  9
$DIMTOH
 70
     0
  9
$DIMSE1
 70
     0
  9
$DIMSE2
 70
     0
  9
$DIMTAD
 70
     1
  9
$DIMZIN
 70
     0
  9
$DIMBLK
  1

  9
$DIMASO
 70
     0
  9
$DIMSHO
 70
     0
  9
$DIMPOST
  1

  9
$DIMAPOST
  1

  9
$DIMALT
 70
     0
  9
$DIMALTD
 70
     2
  9
$DIMALTF
 40
25.399999999999999
  9
$DIMLFAC
 40
1.0
  9
$DIMTOFL
 70
     1
  9
$DIMTVP
 40
1.6000000000000001
  9
$DIMTIX
 70
     1
  9
$DIMSOXD
 70
     0
  9
$DIMSAH
 70
     0
  9
$DIMBLK1
  1

  9
$DIMBLK2
  1

  9
$DIMSTYLE
  2
STANDARD
  9
$DIMCLRD
 70
     0
  9
$DIMCLRE
 70
     0
  9
$DIMCLRT
 70
     0
  9
$DIMTFAC
 40
1.0
  9
$DIMGAP
 40
0.09
  9
$LUNITS
 70
     2
  9
$LUPREC
 70
     4
  9
$SKETCHINC
 40
0.1
  9
$FILLETRAD
 40
0.0
  9
$AUNITS
 70
     0
  9
$AUPREC
 70
     4
  9
$MENU
  1
E:\r13\win\SUPPORT\ACAD
  9
$ELEVATION
 40
0.0
  9
$PELEVATION
 40
0.0
  9
$THICKNESS
 40
0.0
  9
$LIMCHECK
 70
     0
  9
$BLIPMODE
 70
     0
  9
$CHAMFERA
 40
0.0
  9
$CHAMFERB
 40
0.0
  9
$SKPOLY
 70
     0
  9
$TDCREATE
 40
2449839.7572453702
  9
$TDUPDATE
 40
2456597.666087755
  9
$TDINDWG
 40
0.031639375
  9
$TDUSRTIMER
 40
0.031639375
  9
$USRTIMER
 70
     1
  9
$ANGBASE
 50
0.0
  9
$ANGDIR
 70
     0
  9
$PDMODE
 70
     0
  9
$PDSIZE
 40
0.0
  9
$PLINEWID
 40
0.0
  9
$COORDS
 70
     1
  9
$SPLFRAME
 70
     0
  9
$SPLINETYPE
 70
     6
  9
$SPLINESEGS
 70
     8
  9
$ATTDIA
 70
     0
  9
$ATTREQ
 70
     1
  9
$HANDLING
 70
     1
  9
$HANDSEED
  5
5E5
  9
$SURFTAB1
 70
     6
  9
$SURFTAB2
 70
     6
  9
$SURFTYPE
 70
     6
  9
$SURFU
 70
     6
  9
$SURFV
 70
     6
  9
$UCSNAME
  2

  9
$UCSORG
 10
0.0
 20
0.0
 30
0.0
  9
$UCSXDIR
 10
1.0
 20
0.0
 30
0.0
  9
$UCSYDIR
 10
0.0
 20
1.0
 30
0.0
  9
$PUCSNAME
  2

  9
$PUCSORG
 10
0.0
 20
0.0
 30
0.0
  9
$PUCSXDIR
 10
1.0
 20
0.0
 30
0.0
  9
$PUCSYDIR
 10
0.0
 20
1.0
 30
0.0
  9
$USERI1
 70
     0
  9
$USERI2
 70
     1
  9
$USERI3
 70
     0
  9
$USERI4
 70
     0
  9
$USERI5
 70
     0
  9
$USERR1
 40
0.0
  9
$USERR2
 40
0.0
  9
$USERR3
 40
0.0
  9
$USERR4
 40
0.0
  9
$USERR5
 40
0.0
  9
$WORLDVIEW
 70
     1
  9
$SHADEDGE
 70
     3
  9
$SHADEDIF
 70
    70
  9
$TILEMODE
 70
     1
  9
$MAXACTVP
 70
    16
  9
$PLIMCHECK
 70
     0
  9
$PEXTMIN
 10
1.0000000000000000E+020
 20
1.0000000000000000E+020
 30
1.0000000000000000E+020
  9
$PEXTMAX
 10
-1.0000000000000000E+020
 20
-1.0000000000000000E+020
 30
-1.0000000000000000E+020
  9
$PLIMMIN
 10
0.0
 20
0.0
  9
$PLIMMAX
 10
12.0
 20
9.0
  9
$UNITMODE
 70
     0
  9
$VISRETAIN
 70
     0
  9
$PLINEGEN
 70
     0
  9
$PSLTSCALE
 70
     0
  0
ENDSEC
  0
SECTION
  2
TABLES
  0
TABLE
  2
VPORT
 70
     1
  0
VPORT
  2
*ACTIVE
 70
     0
 10
0.0
 20
0.0
 11
1.0
 21
1.0
 12
5.054558707213431
 22
-17.339711014362958
 13
0.0
 23
0.0
 14
10.0
 24
10.0
 15
10.0
 25
10.0
 16
0.0
 26
0.0
 36
1.0
 17
190.00354962487381
 27
150.85243715703101
 37
0.0
 40
275.42274993631997
 41
1.831871345029239
 42
50.0
 43
0.0
 44
0.0
 50
0.0
 51
0.0
 71
     0
 72
   500
 73
     1
 74
     0
 75
     0
 76
     0
 77
     0
 78
     2
  0
ENDTAB
  0
TABLE
  2
LTYPE
 70
     8
  0
LTYPE
  2
CONTINUOUS
 70
     0
  3
Solid Line
 72
    65
 73
     0
 40
0.0
  0
LTYPE
  2
CENTER
 70
     0
  3
____ _ ____ _ ____ _ ____ _ ____ _ ____ _ ____
 72
    65
 73
     4
 40
2.0
 49
1.25
 49
-0.25
 49
0.25
 49
-0.25
  0
LTYPE
  2
HIDDEN
 70
     0
  3
Hidden __ __ __ __ __ __ __ __ __ __ __ __ __ _
 72
    65
 73
     2
 40
0.375
 49
0.25
 49
-0.125
  0
LTYPE
  2
PHANTOM2
 70
     0
  3
Phantom (.5x) ___ _ _ ___ _ _ ___ _ _ ___ _ _
 72
    65
 73
     6
 40
1.25
 49
0.625
 49
-0.125
 49
0.125
 49
-0.125
 49
0.125
 49
-0.125
  0
LTYPE
  2
AMCONSTR
 70
     0
  3
_______________________
 72
    65
 73
     2
 40
9999.0
 49
9999.0
 49
0.0
  0
LTYPE
  2
CENTER2
 70
     0
  3
Center (.5x) ___ _ ___ _ ___ _ ___ _ ___ _ ___
 72
    65
 73
     4
 40
1.125
 49
0.75
 49
-0.125
 49
0.125
 49
-0.125
  0
LTYPE
  2
HIDDEN2
 70
     0
  3
Hidden (.5x) _ _ _ _ _ _ _ _ _ _ _ _ _ _ _ _ _
 72
    65
 73
     2
 40
0.1875
 49
0.125
 49
-0.0625
  0
LTYPE
  2
AMZIGZAG2
 70
     0
  3
/\/-/\/-/\/-/\/-/\/-/\/
 72
    65
 73
     2
 40
0.4401
 49
0.0001
 49
-0.4400000000000001
  0
ENDTAB
  0
TABLE
  2
LAYER
 70
     3
  0
LAYER
  2
0
 70
     0
 62
     7
  6
CONTINUOUS
  0
LAYER
  2
1
 70
     0
 62
     1
  6
CENTER
  0
LAYER
  2
3
 70
     0
 62
     3
  6
CONTINUOUS
  0
ENDTAB
  0
TABLE
  2
STYLE
 70
     3
  0
STYLE
  2
STANDARD
 70
     0
 40
0.0
 41
1.0
 50
0.0
 71
     0
 42
0.2
  3
TXT
  4
BIGFONT
  0
STYLE
  2

 70
     1
 40
0.0
 41
1.0
 50
0.0
 71
     0
 42
0.2
  3
ltypeshp.shx
  4

  0
STYLE
  2
STANDARD1
 70
     0
 40
0.0
 41
1.0
 50
0.0
 71
     0
 42
3.0
  3
txt
  4

  0
ENDTAB
  0
TABLE
  2
VIEW
 70
     1
  0
VIEW
  2
ALL
 70
     0
 40
270.0
 10
220.99159663865549
 20
135.0
 41
0.0
 11
0.0
 21
0.0
 31
1.0
 12
0.0
 22
0.0
 32
0.0
 42
0.0
 43
0.0
 44
0.0
 50
0.0
 71
     0
  0
ENDTAB
  0
TABLE
  2
UCS
 70
     0
  0
ENDTAB
  0
TABLE
  2
APPID
 70
    14
  0
APPID
  2
ACAD
 70
     0
  0
APPID
  2
GENIUS_GENDIM_13
 70
     0
  0
APPID
  2
GENIUS_GENDTOL_13
 70
     0
  0
APPID
  2
GENIUS_GE3DTOL_13
 70
     0
  0
APPID
  2
MCAD_NO_VIS
 70
     0
  0
APPID
  2
ACAD_TEMP_GRAPHIC
 70
     0
  0
APPID
  2
AD_DRAW
 70
     0
  0
APPID
  2
ACATTRIBSERVICES
 70
     0
  0
APPID
  2
ASURF_PCURVE_APPNAME
 70
     0
  0
APPID
  2
DESIGNERASSEMBLIES
 70
     0
  0
APPID
  2
ACADM_DIM_EDIT
 70
     0
  0
APPID
  2
AMDT_DM_ADJ
 70
     0
  0
APPID
  2
ACAD_MLEADERVER
 70
     0
  0
APPID
  2
ACAD_NAV_VCDISPLAY
 70
     0
  0
ENDTAB
  0
TABLE
  2
DIMSTYLE
 70
     1
  0
DIMSTYLE
  2
STANDARD
 70
     0
  3

  4

  5

  6

  7

 40
1.0
 41
0.18
 42
0.0625
 43
0.38
 44
0.18
 45
0.0
 46
0.0
 47
0.0
 48
0.0
140
0.18
141
0.09
142
0.0
143
25.399999999999999
144
1.0
145
0.0
146
1.0
147
0.09
 71
     0
 72
     0
 73
     1
 74
     1
 75
     0
 76
     0
 77
     0
 78
     0
170
     0
171
     2
172
     0
173
     0
174
     0
175
     0
176
     0
177
     0
178
     0
  0
ENDTAB
  0
ENDSEC
  0
SECTION
  2
BLOCKS
  0
BLOCK
  8
0
  2
$MODEL_SPACE
 70
     0
 10
0.0
 20
0.0
 30
0.0
  3
$MODEL_SPACE
  1

  0
ENDBLK
  5
19E
  8
0
  0
BLOCK
 67
     1
  8
0
  2
$PAPER_SPACE
 70
     0
 10
0.0
 20
0.0
 30
0.0
  3
$PAPER_SPACE
  1

  0
ENDBLK
  5
19C
 67
     1
  8
0
  0
BLOCK
  8
0
  2
*U0
 70
     1
 10
0.0
 20
0.0
 30
0.0
  3
*U0
  1

  0
ENDBLK
  5
263
  8
0
  0
ENDSEC
  0
SECTION
  2
ENTITIES
  0
LINE
  5
2BC
  8
0
 10
113.23360255809619
 20
47.066889061640119
 30
0.0
 11
109.68339085989621
 21
47.066889061640119
 31
0.0
  0
LINE
  5
2BD
  8
0
 10
113.5584967089964
 20
53.566889061641717
 30
0.0
 11
109.3584967089964
 21
53.566889061641717
 31
0.0
  0
LINE
  5
2BE
  8
0
 10
108.95849670899651
 20
53.166889061641633
 30
0.0
 11
108.95849670899651
 21
40.966889061640209
 31
0.0
  0
LINE
  5
2BF
  8
0
 10
109.3584967089964
 20
40.566889061640119
 30
0.0
 11
113.5584967089964
 21
40.566889061640119
 31
0.0
  0
LINE
  5
2C0
  8
0
 10
113.95849670899629
 20
40.966889061640209
 30
0.0
 11
113.95849670899629
 21
53.166889061641633
 31
0.0
  0
LINE
  5
2C1
  8
0
 10
113.95849670899629
 20
53.166889061641633
 30
0.0
 11
113.5584967089964
 21
53.566889061641717
 31
0.0
  0
LINE
  5
2C2
  8
0
 10
109.3584967089964
 20
53.566889061641717
 30
0.0
 11
108.95849670899651
 21
53.166889061641633
 31
0.0
  0
LINE
  5
2C3
  8
0
 10
108.95849670899651
 20
40.966889061640209
 30
0.0
 11
109.3584967089964
 21
40.566889061640119
 31
0.0
  0
LINE
  5
2C4
  8
0
 10
113.95849670899629
 20
40.966889061640209
 30
0.0
 11
113.5584967089964
 21
40.566889061640119
 31
0.0
  0
ARC
  5
2C5
  8
0
 10
106.3105031941848
 20
50.316889061640808
 30
0.0
 40
7.6479935148115441
 50
334.85262423337571
 51
25.14737576662435
  0
ARC
  5
2C6
  8
0
 10
106.3105031941848
 20
43.816889061639444
 30
0.0
 40
7.6479935148115441
 50
334.85262423337571
 51
25.14737576662435
  0
ARC
  5
2C7
  8
0
 10
116.60649022380809
 20
50.316889061640808
 30
0.0
 40
7.6479935148115441
 50
154.85262423337559
 51
205.14737576662441
  0
ARC
  5
2C8
  8
0
 10
116.60649022380809
 20
43.816889061639444
 30
0.0
 40
7.6479935148115441
 50
154.85262423337559
 51
205.14737576662441
  0
LINE
  5
2C9
  8
0
 10
113.23360255809661
 20
47.066889061640119
 30
0.0
 11
109.68339085989641
 21
47.066889061640119
 31
0.0
  0
LINE
  5
2CA
  8
0
 10
38.958496708997018
 20
54.566889061639671
 30
0.0
 11
38.95849670899679
 21
39.566889061640133
 31
0.0
  0
CIRCLE
  5
2CB
  8
0
 10
32.458496708996563
 20
47.066889061640119
 30
0.0
 40
4.0
  0
CIRCLE
  5
2CC
  8
3
 10
32.458496708996563
 20
47.066889061640119
 30
0.0
 40
3.5
  0
LINE
  5
2CF
  8
0
 10
38.45849670899679
 20
39.066889061640133
 30
0.0
 11
38.95849670899679
 21
39.566889061640133
 31
0.0
  0
LINE
  5
2D0
  8
0
 10
25.95849670899679
 20
39.566889061640133
 30
0.0
 11
26.45849670899679
 21
39.066889061640133
 31
0.0
  0
LINE
  5
2D1
  8
0
 10
26.458496708996559
 20
55.066889061640119
 30
0.0
 11
25.95849670899657
 21
54.566889061640119
 31
0.0
  0
LINE
  5
2D2
  8
0
 10
38.45849670899679
 20
55.066889061640119
 30
0.0
 11
38.958496708997018
 21
54.566889061639671
 31
0.0
  0
ARC
  5
2D3
  8
0
 10
32.458496034654438
 20
52.01331512837541
 30
0.0
 40
12.946426066735279
 50
239.86302069665871
 51
300.13697930328323
  0
ARC
  5
2D4
  8
0
 10
32.458496034654438
 20
42.120462994904827
 30
0.0
 40
12.946426066735279
 50
59.863020696716831
 51
120.13697930334131
  0
LINE
  5
2D5
  8
1
 10
32.458496708996563
 20
60.066889061640097
 30
0.0
 11
32.458496708996563
 21
14.066889061640101
 31
0.0
  0
LINE
  5
2D6
  8
3
 10
28.95849670900089
 20
34.066889061640808
 30
0.0
 11
28.45849670899657
 21
34.932914465432617
 31
0.0
  0
LINE
  5
2D7
  8
3
 10
35.95849670899247
 20
34.066889061640808
 30
0.0
 11
36.458496708996563
 21
34.932914465432617
 31
0.0
  0
LINE
  5
2D8
  8
3
 10
28.95849670900089
 20
34.066889061640808
 30
0.0
 11
28.95849670900089
 21
29.066889061639909
 31
0.0
  0
LINE
  5
2D9
  8
3
 10
35.95849670899247
 20
34.066889061640808
 30
0.0
 11
35.95849670899247
 21
29.066889061639909
 31
0.0
  0
LINE
  5
2DA
  8
0
 10
36.458496708996563
 20
34.066889061640808
 30
0.0
 11
28.45849670899657
 21
34.066889061640808
 31
0.0
  0
LINE
  5
2DB
  8
0
 10
28.45849670899657
 20
20.066889061640129
 30
0.0
 11
36.458496708996563
 21
20.066889061640129
 31
0.0
  0
LINE
  5
2DC
  8
0
 10
35.458496708996563
 20
19.066889061640119
 30
0.0
 11
36.458496708996563
 21
20.066889061640129
 31
0.0
  0
LINE
  5
2DD
  8
0
 10
28.45849670899657
 20
20.066889061640129
 30
0.0
 11
29.45849670899657
 21
19.066889061640119
 31
0.0
  0
LINE
  5
2DE
  8
0
 10
36.458496708996563
 20
20.066889061640129
 30
0.0
 11
36.458496708996563
 21
24.066889061639909
 31
0.0
  0
LINE
  5
2DF
  8
0
 10
29.45849670899657
 20
19.066889061640119
 30
0.0
 11
35.458496708996563
 21
19.066889061640119
 31
0.0
  0
LINE
  5
2E0
  8
0
 10
28.45849670899657
 20
39.066889061640133
 30
0.0
 11
28.45849670899657
 21
29.066889061639909
 31
0.0
  0
LINE
  5
2E1
  8
0
 10
25.95849670899679
 20
39.566889061640133
 30
0.0
 11
25.95849670899657
 21
54.566889061640119
 31
0.0
  0
LINE
  5
2E2
  8
0
 10
38.45849670899679
 20
39.066889061640133
 30
0.0
 11
26.45849670899679
 21
39.066889061640133
 31
0.0
  0
LINE
  5
2E3
  8
0
 10
26.458496708996559
 20
55.066889061640119
 30
0.0
 11
38.45849670899679
 21
55.066889061640119
 31
0.0
  0
LINE
  5
2E4
  8
1
 10
23.45849670899657
 20
47.066889061640119
 30
0.0
 11
41.458496708996563
 21
47.066889061640119
 31
0.0
  0
LINE
  5
2E5
  8
0
 10
32.45849670899679
 20
28.341994910739771
 30
0.0
 11
32.45849670899679
 21
24.791783212539801
 31
0.0
  0
LINE
  5
2E6
  8
0
 10
25.958496708995199
 20
28.666889061640038
 30
0.0
 11
25.958496708995199
 21
24.466889061639989
 31
0.0
  0
LINE
  5
2E7
  8
0
 10
26.35849670899529
 20
24.066889061640129
 30
0.0
 11
38.558496708996699
 21
24.066889061640129
 31
0.0
  0
LINE
  5
2E8
  8
0
 10
38.95849670899679
 20
24.466889061639989
 30
0.0
 11
38.95849670899679
 21
28.666889061640038
 31
0.0
  0
LINE
  5
2E9
  8
0
 10
38.558496708996699
 20
29.066889061639898
 30
0.0
 11
26.35849670899529
 21
29.066889061639898
 31
0.0
  0
LINE
  5
2EA
  8
0
 10
26.35849670899529
 20
29.066889061639898
 30
0.0
 11
25.958496708995199
 21
28.666889061640038
 31
0.0
  0
LINE
  5
2EB
  8
0
 10
25.958496708995199
 20
24.466889061639989
 30
0.0
 11
26.35849670899529
 21
24.066889061640129
 31
0.0
  0
LINE
  5
2EC
  8
0
 10
38.558496708996699
 20
24.066889061640129
 30
0.0
 11
38.95849670899679
 21
24.466889061639989
 31
0.0
  0
LINE
  5
2ED
  8
0
 10
38.558496708996699
 20
29.066889061639898
 30
0.0
 11
38.95849670899679
 21
28.666889061640038
 31
0.0
  0
ARC
  5
2EE
  8
0
 10
29.208496708996108
 20
21.418895546828342
 30
0.0
 40
7.6479935148115441
 50
64.85262423337565
 51
115.14737576662429
  0
ARC
  5
2EF
  8
0
 10
35.708496708997473
 20
21.418895546828342
 30
0.0
 40
7.6479935148115441
 50
64.85262423337565
 51
115.14737576662429
  0
ARC
  5
2F0
  8
0
 10
29.208496708996108
 20
31.714882576451689
 30
0.0
 40
7.6479935148115441
 50
244.85262423337559
 51
295.14737576662441
  0
ARC
  5
2F1
  8
0
 10
35.708496708997473
 20
31.714882576451689
 30
0.0
 40
7.6479935148115441
 50
244.85262423337559
 51
295.14737576662441
  0
LINE
  5
2F2
  8
0
 10
32.45849670899679
 20
28.34199491074023
 30
0.0
 11
32.45849670899679
 21
24.791783212540029
 31
0.0
  0
LINE
  5
2F3
  8
0
 10
172.45849670899651
 20
28.341994910739771
 30
0.0
 11
172.45849670899651
 21
24.791783212539801
 31
0.0
  0
LINE
  5
2F4
  8
0
 10
165.958496708995
 20
28.666889061640038
 30
0.0
 11
165.958496708995
 21
24.466889061639989
 31
0.0
  0
LINE
  5
2F5
  8
0
 10
166.35849670899501
 20
24.066889061640129
 30
0.0
 11
178.5584967089965
 21
24.066889061640129
 31
0.0
  0
LINE
  5
2F6
  8
0
 10
178.95849670899651
 20
24.466889061639989
 30
0.0
 11
178.95849670899651
 21
28.666889061640038
 31
0.0
  0
LINE
  5
2F7
  8
0
 10
178.5584967089965
 20
29.066889061639898
 30
0.0
 11
166.35849670899501
 21
29.066889061639898
 31
0.0
  0
LINE
  5
2F8
  8
0
 10
166.35849670899501
 20
29.066889061639898
 30
0.0
 11
165.958496708995
 21
28.666889061640038
 31
0.0
  0
LINE
  5
2F9
  8
0
 10
165.958496708995
 20
24.466889061639989
 30
0.0
 11
166.35849670899501
 21
24.066889061640129
 31
0.0
  0
LINE
  5
2FA
  8
0
 10
178.5584967089965
 20
24.066889061640129
 30
0.0
 11
178.95849670899651
 21
24.466889061639989
 31
0.0
  0
LINE
  5
2FB
  8
0
 10
178.5584967089965
 20
29.066889061639898
 30
0.0
 11
178.95849670899651
 21
28.666889061640038
 31
0.0
  0
ARC
  5
2FC
  8
0
 10
169.20849670899591
 20
21.418895546828342
 30
0.0
 40
7.6479935148115441
 50
64.852624233381547
 51
115.1473757666184
  0
ARC
  5
2FD
  8
0
 10
175.70849670899719
 20
21.418895546828342
 30
0.0
 40
7.6479935148115441
 50
64.852624233381547
 51
115.1473757666184
  0
ARC
  5
2FE
  8
0
 10
169.20849670899591
 20
31.714882576451689
 30
0.0
 40
7.6479935148115441
 50
244.85262423338159
 51
295.14737576661838
  0
ARC
  5
2FF
  8
0
 10
175.70849670899719
 20
31.714882576451689
 30
0.0
 40
7.6479935148115441
 50
244.85262423338159
 51
295.14737576661838
  0
LINE
  5
300
  8
0
 10
172.45849670899651
 20
28.34199491074023
 30
0.0
 11
172.45849670899651
 21
24.791783212540029
 31
0.0
  0
LINE
  5
301
  8
0
 10
165.95849670899651
 20
39.566889061640097
 30
0.0
 11
165.95849670899659
 21
45.325219310836992
 31
0.0
  0
CIRCLE
  5
302
  8
0
 10
172.45849670899651
 20
47.066889061640097
 30
0.0
 40
4.0
  0
CIRCLE
  5
303
  8
3
 10
172.45849670899651
 20
47.066889061640097
 30
0.0
 40
3.5
  0
LINE
  5
306
  8
1
 10
163.45849670899651
 20
47.066889061640097
 30
0.0
 11
181.45849670899651
 21
47.066889061640097
 31
0.0
  0
LINE
  5
307
  8
0
 10
178.45849670899651
 20
39.066889061640097
 30
0.0
 11
178.95849670899651
 21
39.566889061640097
 31
0.0
  0
LINE
  5
308
  8
0
 10
165.95849670899651
 20
39.566889061640097
 30
0.0
 11
166.45849670899651
 21
39.066889061640097
 31
0.0
  0
LINE
  5
309
  8
0
 10
166.45849670899651
 20
55.066889061640097
 30
0.0
 11
165.95849670899651
 21
54.566889061640097
 31
0.0
  0
LINE
  5
30A
  8
0
 10
178.45849670899651
 20
55.066889061640097
 30
0.0
 11
178.95849670899651
 21
54.566889061640097
 31
0.0
  0
ARC
  5
30B
  8
0
 10
172.45849603465419
 20
52.013315128375382
 30
0.0
 40
12.946426066735279
 50
239.86302069665959
 51
300.1369793032876
  0
ARC
  5
30C
  8
0
 10
172.45849603465419
 20
42.120462994904813
 30
0.0
 40
12.946426066735279
 50
59.863020696712383
 51
120.1369793033403
  0
LINE
  5
30D
  8
1
 10
172.45849670899651
 20
60.066889061640097
 30
0.0
 11
172.45849670899651
 21
14.06688906164009
 31
0.0
  0
LINE
  5
30E
  8
3
 10
168.95849670900091
 20
34.066889061640779
 30
0.0
 11
168.45849670899651
 21
34.932914465432589
 31
0.0
  0
LINE
  5
30F
  8
3
 10
175.9584967089925
 20
34.066889061640779
 30
0.0
 11
176.45849670899651
 21
34.932914465432589
 31
0.0
  0
LINE
  5
310
  8
3
 10
168.9584967090006
 20
34.066889061640779
 30
0.0
 11
168.9584967090006
 21
29.066889061639909
 31
0.0
  0
LINE
  5
311
  8
3
 10
175.9584967089925
 20
34.066889061640779
 30
0.0
 11
175.9584967089925
 21
29.066889061639909
 31
0.0
  0
LINE
  5
312
  8
0
 10
176.45849670899651
 20
34.066889061640779
 30
0.0
 11
168.45849670899651
 21
34.066889061640779
 31
0.0
  0
LINE
  5
313
  8
0
 10
168.45849670899651
 20
20.066889061640101
 30
0.0
 11
176.45849670899651
 21
20.066889061640101
 31
0.0
  0
LINE
  5
314
  8
0
 10
175.45849670899651
 20
19.066889061640101
 30
0.0
 11
176.45849670899651
 21
20.066889061640101
 31
0.0
  0
LINE
  5
315
  8
0
 10
168.45849670899651
 20
20.066889061640101
 30
0.0
 11
169.45849670899659
 21
19.066889061640101
 31
0.0
  0
LINE
  5
316
  8
0
 10
176.45849670899651
 20
20.066889061640101
 30
0.0
 11
176.45849670899651
 21
24.066889061639909
 31
0.0
  0
LINE
  5
317
  8
0
 10
169.45849670899659
 20
19.066889061640101
 30
0.0
 11
175.45849670899651
 21
19.066889061640101
 31
0.0
  0
LINE
  5
318
  8
0
 10
168.45849670899651
 20
39.066889061640097
 30
0.0
 11
168.45849670899651
 21
29.066889061639909
 31
0.0
  0
LINE
  5
319
  8
0
 10
178.95849670899651
 20
54.566889061640097
 30
0.0
 11
178.95849670899679
 21
48.808558812444232
 31
0.0
  0
LINE
  5
31A
  8
0
 10
178.45849670899651
 20
39.066889061640097
 30
0.0
 11
166.45849670899651
 21
39.066889061640097
 31
0.0
  0
LINE
  5
31B
  8
0
 10
166.45849670899651
 20
55.066889061640097
 30
0.0
 11
178.45849670899651
 21
55.066889061640097
 31
0.0
  0
LINE
  5
31C
  8
0
 10
168.7057199592636
 20
40.56688906164009
 30
0.0
 11
176.21127345872969
 21
40.56688906164009
 31
0.0
  0
LINE
  5
31D
  8
0
 10
176.21127345872969
 20
40.56688906164009
 30
0.0
 11
179.9640502084626
 21
47.066889061640772
 31
0.0
  0
LINE
  5
31E
  8
0
 10
179.9640502084626
 20
47.066889061640772
 30
0.0
 11
176.21127345872969
 21
53.566889061641461
 31
0.0
  0
LINE
  5
31F
  8
0
 10
176.21127345872969
 20
53.566889061641461
 30
0.0
 11
168.7057199592636
 21
53.566889061641461
 31
0.0
  0
LINE
  5
320
  8
0
 10
168.7057199592636
 20
53.566889061641461
 30
0.0
 11
164.9529432095305
 21
47.066889061640772
 31
0.0
  0
LINE
  5
321
  8
0
 10
164.9529432095305
 20
47.066889061640772
 30
0.0
 11
168.7057199592636
 21
40.56688906164009
 31
0.0
  0
CIRCLE
  5
322
  8
0
 10
172.45849670899651
 20
47.066889061640097
 30
0.0
 40
6.0999999999998797
  0
ARC
  5
323
  8
0
 10
102.45849670899651
 20
34.143398056248401
 30
0.0
 40
10.076508994607311
 50
248.13454724159419
 51
291.86545275840581
  0
ARC
  5
324
  8
0
 10
102.45849670899651
 20
18.990380067032529
 30
0.0
 40
10.076508994607311
 50
68.134547241594177
 51
111.86545275840579
  0
LINE
  5
325
  8
0
 10
98.705719959263675
 20
28.34199491074159
 30
0.0
 11
98.705719959263675
 21
24.79178321253935
 31
0.0
  0
LINE
  5
326
  8
0
 10
106.2112734587288
 20
28.341994910741139
 30
0.0
 11
106.21127345872971
 21
24.79178321253935
 31
0.0
  0
LINE
  5
327
  8
0
 10
96.208496708998609
 20
24.066889061639898
 30
0.0
 11
108.70849670899651
 21
24.066889061639898
 31
0.0
  0
LINE
  5
328
  8
0
 10
108.70849670899651
 20
29.066889061639898
 30
0.0
 11
96.208496708996805
 21
29.066889061639898
 31
0.0
  0
ARC
  5
329
  8
0
 10
96.829331584397096
 20
26.148233472516129
 30
0.0
 40
2.8867668040867791
 50
49.45866055115394
 51
90.0
  0
LINE
  5
32A
  8
0
 10
94.952943209530531
 20
28.341994910741139
 30
0.0
 11
96.208496708996805
 21
29.066889061639898
 31
0.0
  0
LINE
  5
32B
  8
0
 10
96.208496708998609
 20
24.066889061639898
 30
0.0
 11
94.952943209530758
 21
24.791783212539801
 31
0.0
  0
LINE
  5
32C
  8
0
 10
94.952943209530758
 20
24.791783212539801
 30
0.0
 11
94.952943209530531
 21
28.341994910741139
 31
0.0
  0
LINE
  5
32D
  8
0
 10
94.952943209530531
 20
24.791783212539801
 30
0.0
 11
96.208496708996805
 21
24.066889061641039
 31
0.0
  0
ARC
  5
32E
  8
0
 10
96.829331584397096
 20
26.985544650764808
 30
0.0
 40
2.8867668040867791
 50
270.0
 51
310.54133944884597
  0
ARC
  5
32F
  8
0
 10
108.087661833596
 20
26.985544650764808
 30
0.0
 40
2.8867668040867791
 50
229.458660551154
 51
270.0
  0
LINE
  5
330
  8
0
 10
109.9640502084626
 20
24.791783212539801
 30
0.0
 11
108.70849670899651
 21
24.066889061641039
 31
0.0
  0
LINE
  5
331
  8
0
 10
109.9640502084626
 20
24.791783212539801
 30
0.0
 11
109.9640502084626
 21
28.341994910741139
 31
0.0
  0
LINE
  5
332
  8
0
 10
108.7084967089947
 20
24.066889061639898
 30
0.0
 11
109.9640502084626
 21
24.791783212539801
 31
0.0
  0
LINE
  5
333
  8
0
 10
109.9640502084626
 20
28.341994910741139
 30
0.0
 11
108.70849670899651
 21
29.066889061639898
 31
0.0
  0
ARC
  5
334
  8
0
 10
108.087661833596
 20
26.148233472516129
 30
0.0
 40
2.8867668040867791
 50
90.0
 51
130.541339448846
  0
LINE
  5
335
  8
3
 10
121.9584967089945
 20
43.566886725622538
 30
0.0
 11
113.95849670899619
 21
43.566886725622517
 31
0.0
  0
LINE
  5
336
  8
3
 10
121.9584967089945
 20
50.566886725626631
 30
0.0
 11
113.95849670899629
 21
50.566886725626659
 31
0.0
  0
LINE
  5
337
  8
0
 10
83.458496708996563
 20
51.066886725627313
 30
0.0
 11
95.958496708996563
 21
51.066886725627313
 31
0.0
  0
LINE
  5
338
  8
0
 10
83.458496708996563
 20
43.066886725624578
 30
0.0
 11
95.958496708996563
 21
43.06688672562457
 31
0.0
  0
LINE
  5
339
  8
0
 10
83.458496708996563
 20
51.066886725627313
 30
0.0
 11
83.458496708996563
 21
43.066886725624578
 31
0.0
  0
LINE
  5
33A
  8
0
 10
82.458496708996563
 20
44.066886725624578
 30
0.0
 11
83.458496708996563
 21
43.066886725624578
 31
0.0
  0
LINE
  5
33B
  8
0
 10
82.458496708996563
 20
50.066886725627313
 30
0.0
 11
82.458496708996563
 21
44.066886725624578
 31
0.0
  0
LINE
  5
33C
  8
0
 10
83.458496708996563
 20
51.066886725627313
 30
0.0
 11
82.458496708996563
 21
50.066886725627313
 31
0.0
  0
LINE
  5
33D
  8
1
 10
77.458496708996577
 20
47.066889061640119
 30
0.0
 11
127.45849670899651
 21
47.066889061640119
 31
0.0
  0
LINE
  5
33E
  8
0
 10
122.45849670899651
 20
50.066886725627313
 30
0.0
 11
122.45849670899651
 21
44.066886725624578
 31
0.0
  0
LINE
  5
33F
  8
0
 10
121.45849670899651
 20
51.066886725627313
 30
0.0
 11
122.45849670899651
 21
50.066886725627313
 31
0.0
  0
LINE
  5
340
  8
0
 10
122.45849670899651
 20
44.066886725624578
 30
0.0
 11
121.45849670899651
 21
43.066886725624578
 31
0.0
  0
LINE
  5
341
  8
0
 10
121.45849670899651
 20
51.066886725627313
 30
0.0
 11
121.45849670899651
 21
43.066886725624578
 31
0.0
  0
LINE
  5
342
  8
0
 10
108.95849670899651
 20
39.56688906164014
 30
0.0
 11
108.95849670899651
 21
54.566889061640119
 31
0.0
  0
LINE
  5
343
  8
0
 10
108.45849670899651
 20
39.06688906164014
 30
0.0
 11
108.95849670899651
 21
39.56688906164014
 31
0.0
  0
LINE
  5
344
  8
0
 10
95.958496708996563
 20
39.56688906164014
 30
0.0
 11
96.458496708996563
 21
39.06688906164014
 31
0.0
  0
LINE
  5
345
  8
0
 10
96.458496708996563
 20
55.066889061640119
 30
0.0
 11
95.958496708996563
 21
54.566889061640119
 31
0.0
  0
LINE
  5
346
  8
0
 10
108.45849670899651
 20
55.066889061640119
 30
0.0
 11
108.95849670899651
 21
54.566889061640119
 31
0.0
  0
ARC
  5
347
  8
0
 10
102.4584960346542
 20
52.01331512837541
 30
0.0
 40
12.946426066735279
 50
239.86302069665959
 51
300.13697930328772
  0
ARC
  5
348
  8
0
 10
102.4584960346542
 20
42.120462994904848
 30
0.0
 40
12.946426066735279
 50
59.863020696712269
 51
120.1369793033404
  0
LINE
  5
349
  8
1
 10
102.45849670899651
 20
60.066889061640097
 30
0.0
 11
102.45849670899651
 21
14.066889061640101
 31
0.0
  0
LINE
  5
34A
  8
3
 10
98.958496709000656
 20
34.066889061640822
 30
0.0
 11
98.458496708996563
 21
34.932914465432631
 31
0.0
  0
LINE
  5
34B
  8
3
 10
105.9584967089924
 20
34.066889061640822
 30
0.0
 11
106.45849670899651
 21
34.932914465432631
 31
0.0
  0
LINE
  5
34C
  8
3
 10
98.958496709000656
 20
34.066889061640822
 30
0.0
 11
98.958496709000613
 21
29.066889061639898
 31
0.0
  0
LINE
  5
34D
  8
3
 10
105.9584967089924
 20
34.066889061640822
 30
0.0
 11
105.9584967089924
 21
29.066889061639898
 31
0.0
  0
LINE
  5
34E
  8
0
 10
106.45849670899651
 20
34.066889061640822
 30
0.0
 11
98.458496708996563
 21
34.066889061640822
 31
0.0
  0
LINE
  5
34F
  8
0
 10
98.458496708996563
 20
20.06688906164014
 30
0.0
 11
106.45849670899651
 21
20.06688906164014
 31
0.0
  0
LINE
  5
350
  8
0
 10
105.45849670899651
 20
19.06688906164014
 30
0.0
 11
106.45849670899651
 21
20.06688906164014
 31
0.0
  0
LINE
  5
351
  8
0
 10
98.458496708996563
 20
20.06688906164014
 30
0.0
 11
99.458496708996563
 21
19.06688906164014
 31
0.0
  0
LINE
  5
352
  8
0
 10
106.45849670899651
 20
20.06688906164014
 30
0.0
 11
106.45849670899651
 21
24.066889061639909
 31
0.0
  0
LINE
  5
353
  8
0
 10
99.458496708996563
 20
19.06688906164014
 30
0.0
 11
105.45849670899651
 21
19.06688906164014
 31
0.0
  0
LINE
  5
354
  8
0
 10
98.458496708996563
 20
39.06688906164014
 30
0.0
 11
98.458496708996563
 21
29.066889061639909
 31
0.0
  0
LINE
  5
355
  8
0
 10
95.958496708996563
 20
39.56688906164014
 30
0.0
 11
95.958496708996563
 21
54.566889061640119
 31
0.0
  0
LINE
  5
356
  8
0
 10
108.45849670899651
 20
39.06688906164014
 30
0.0
 11
96.458496708996563
 21
39.06688906164014
 31
0.0
  0
LINE
  5
357
  8
0
 10
96.458496708996563
 20
55.066889061640119
 30
0.0
 11
108.45849670899651
 21
55.066889061640119
 31
0.0
  0
ARC
  5
358
  8
0
 10
111.87715229812051
 20
102.6960541862391
 30
0.0
 40
2.8867668040867791
 50
179.9999999999992
 51
220.5413394488445
  0
LINE
  5
359
  8
0
 10
109.6833908598952
 20
104.5724425611057
 30
0.0
 11
108.95849670899651
 21
103.3168890616394
 31
0.0
  0
LINE
  5
35A
  8
0
 10
113.95849670899651
 20
103.3168890616376
 30
0.0
 11
113.23360255809681
 21
104.5724425611057
 31
0.0
  0
LINE
  5
35B
  8
0
 10
113.23360255809681
 20
104.5724425611057
 30
0.0
 11
109.6833908598952
 21
104.5724425611057
 31
0.0
  0
LINE
  5
35C
  8
0
 10
113.23360255809681
 20
104.5724425611057
 30
0.0
 11
113.9584967089956
 21
103.3168890616394
 31
0.0
  0
ARC
  5
35D
  8
0
 10
111.0398411198718
 20
102.6960541862391
 30
0.0
 40
2.8867668040867791
 50
319.4586605511555
 51
0.0000000000008142
  0
ARC
  5
35E
  8
0
 10
111.0398411198718
 20
91.437723937040204
 30
0.0
 40
2.8867668040867791
 50
359.9999999999992
 51
40.541339448844511
  0
LINE
  5
35F
  8
0
 10
113.23360255809681
 20
89.561335562173639
 30
0.0
 11
113.9584967089956
 21
90.816889061639884
 31
0.0
  0
LINE
  5
360
  8
0
 10
113.23360255809681
 20
89.561335562173639
 30
0.0
 11
109.6833908598952
 21
89.561335562173639
 31
0.0
  0
LINE
  5
361
  8
0
 10
113.95849670899651
 20
90.816889061641717
 30
0.0
 11
113.23360255809681
 21
89.561335562173639
 31
0.0
  0
LINE
  5
362
  8
0
 10
109.6833908598952
 20
89.561335562173639
 30
0.0
 11
108.95849670899651
 21
90.816889061639884
 31
0.0
  0
ARC
  5
363
  8
0
 10
111.87715229812051
 20
91.437723937040204
 30
0.0
 40
2.8867668040867791
 50
139.4586605511555
 51
180.0000000000008
  0
LINE
  5
364
  8
0
 10
108.95849670899671
 20
103.3168890616396
 30
0.0
 11
108.95849670899651
 21
90.816889061639657
 31
0.0
  0
LINE
  5
365
  8
0
 10
113.95849670899651
 20
90.81688906164149
 30
0.0
 11
113.95849670899651
 21
103.3168890616396
 31
0.0
  0
LINE
  5
366
  8
0
 10
109.6833908598952
 20
100.81966581137161
 30
0.0
 11
113.2336025580973
 21
100.8196658113728
 31
0.0
  0
LINE
  5
367
  8
0
 10
109.6833908598948
 20
93.314112311906555
 30
0.0
 11
113.2336025580973
 21
93.314112311906555
 31
0.0
  0
ARC
  5
368
  8
0
 10
119.0350057036041
 20
97.066889061639444
 30
0.0
 40
10.076508994607311
 50
158.1345472416001
 51
201.8654527583999
  0
ARC
  5
369
  8
0
 10
103.8819877143882
 20
97.066889061639444
 30
0.0
 40
10.076508994607311
 50
338.1345472416001
 51
21.86545275839994
  0
LINE
  5
370
  8
1
 10
102.45849670899651
 20
109.5724448971221
 30
0.0
 11
102.45849670899651
 21
84.561333226158098
 31
0.0
  0
CIRCLE
  5
371
  8
0
 10
102.45849670899651
 20
97.066889061640069
 30
0.0
 40
6.5
  0
ARC
  5
372
  8
0
 10
102.45849670899651
 20
97.066889061640069
 30
0.0
 40
8.5
 50
220.11916689840169
 51
229.88083310161051
  0
LINE
  5
373
  8
0
 10
96.981271133944801
 20
103.5668890616394
 30
0.0
 11
107.9357222840483
 21
103.5668890616394
 31
0.0
  0
ARC
  5
374
  8
0
 10
102.45849670899651
 20
97.066889061640069
 30
0.0
 40
8.5
 50
310.11916689838932
 51
319.88083310158419
  0
ARC
  5
375
  8
0
 10
102.45849670899651
 20
97.066889061640069
 30
0.0
 40
8.5
 50
130.11916689840709
 51
139.88083310159831
  0
ARC
  5
376
  8
0
 10
102.45849670899651
 20
97.066889061640069
 30
0.0
 40
8.5
 50
40.11916689841577
 51
49.880833101592891
  0
LINE
  5
377
  8
0
 10
107.9357222840483
 20
90.566889061639387
 30
0.0
 11
96.981271133947544
 21
90.566889061639387
 31
0.0
  0
LINE
  5
378
  8
0
 10
95.958496708996563
 20
91.589663486586261
 30
0.0
 11
95.958496708996563
 21
102.54411463669091
 31
0.0
  0
LINE
  5
379
  8
3
 10
121.9584967089945
 20
93.56688672562251
 30
0.0
 11
113.95849670899651
 21
93.56688672562251
 31
0.0
  0
LINE
  5
37A
  8
3
 10
121.9584967089945
 20
100.5668867256266
 30
0.0
 11
113.95849670899651
 21
100.5668867256266
 31
0.0
  0
LINE
  5
37B
  8
0
 10
83.458496708996563
 20
101.0668867256273
 30
0.0
 11
95.958496708996563
 21
101.0668867256273
 31
0.0
  0
LINE
  5
37C
  8
0
 10
83.458496708996563
 20
93.066886725624556
 30
0.0
 11
95.958496708996563
 21
93.066886725624556
 31
0.0
  0
LINE
  5
37D
  8
0
 10
83.458496708996563
 20
101.0668867256273
 30
0.0
 11
83.458496708996563
 21
93.066886725624556
 31
0.0
  0
LINE
  5
37E
  8
0
 10
82.458496708996563
 20
94.066886725624556
 30
0.0
 11
83.458496708996563
 21
93.066886725624556
 31
0.0
  0
LINE
  5
37F
  8
0
 10
82.458496708996563
 20
100.0668867256273
 30
0.0
 11
82.458496708996563
 21
94.066886725624556
 31
0.0
  0
LINE
  5
380
  8
0
 10
83.458496708996563
 20
101.0668867256273
 30
0.0
 11
82.458496708996563
 21
100.0668867256273
 31
0.0
  0
LINE
  5
381
  8
1
 10
77.458496708996577
 20
97.066889061640111
 30
0.0
 11
127.45849670899651
 21
97.066889061640111
 31
0.0
  0
LINE
  5
382
  8
0
 10
122.45849670899651
 20
100.0668867256273
 30
0.0
 11
122.45849670899651
 21
94.066886725624556
 31
0.0
  0
LINE
  5
383
  8
0
 10
121.45849670899651
 20
101.0668867256273
 30
0.0
 11
122.45849670899651
 21
100.0668867256273
 31
0.0
  0
LINE
  5
384
  8
0
 10
122.45849670899651
 20
94.066886725624556
 30
0.0
 11
121.45849670899651
 21
93.066886725624556
 31
0.0
  0
LINE
  5
385
  8
0
 10
121.45849670899651
 20
101.0668867256273
 30
0.0
 11
121.45849670899651
 21
93.066886725624556
 31
0.0
  0
LINE
  5
38F
  8
3
 10
35.95849670899247
 20
24.066889061639909
 30
0.0
 11
35.95849670899247
 21
19.566889061635798
 31
0.0
  0
LINE
  5
390
  8
0
 10
36.458496708996563
 20
29.066889061639909
 30
0.0
 11
36.458496708996563
 21
39.066889061640133
 31
0.0
  0
LINE
  5
391
  8
3
 10
28.95849670900089
 20
24.066889061639909
 30
0.0
 11
28.95849670900089
 21
19.566889061635798
 31
0.0
  0
LINE
  5
392
  8
0
 10
28.45849670899657
 20
24.066889061639909
 30
0.0
 11
28.45849670899657
 21
20.066889061640129
 31
0.0
  0
LINE
  5
393
  8
0
 10
176.45849670899651
 20
29.066889061639909
 30
0.0
 11
176.45849670899651
 21
39.066889061640097
 31
0.0
  0
LINE
  5
394
  8
3
 10
175.9584967089925
 20
24.066889061639909
 30
0.0
 11
175.9584967089925
 21
19.566889061636001
 31
0.0
  0
LINE
  5
395
  8
3
 10
168.9584967090006
 20
24.066889061639909
 30
0.0
 11
168.9584967090006
 21
19.566889061636001
 31
0.0
  0
LINE
  5
396
  8
0
 10
168.45849670899651
 20
24.066889061639909
 30
0.0
 11
168.45849670899651
 21
20.066889061640101
 31
0.0
  0
LINE
  5
39E
  8
0
 10
106.45849670899651
 20
29.066889061639909
 30
0.0
 11
106.45849670899651
 21
39.06688906164014
 31
0.0
  0
LINE
  5
39F
  8
3
 10
105.9584967089924
 20
24.066889061639898
 30
0.0
 11
105.9584967089924
 21
19.566889061636051
 31
0.0
  0
LINE
  5
3A0
  8
0
 10
98.458496708996563
 20
24.066889061639909
 30
0.0
 11
98.458496708996563
 21
20.06688906164014
 31
0.0
  0
LINE
  5
3A1
  8
3
 10
98.958496709000613
 20
24.066889061639898
 30
0.0
 11
98.958496709000656
 21
19.566889061636051
 31
0.0
  0
LINE
  5
3E0
  8
0
 10
165.95849670899659
 20
48.808558812444602
 30
0.0
 11
165.95849670899651
 21
54.566889061640097
 31
0.0
  0
LINE
  5
3E1
  8
0
 10
178.9584967089969
 20
45.32521931083761
 30
0.0
 11
178.95849670899719
 21
39.566889061640701
 31
0.0
  0
LINE
  5
3E3
  8
3
 10
95.958496708996563
 20
50.566886725626631
 30
0.0
 11
82.958496708995881
 21
50.566886725626631
 31
0.0
  0
LINE
  5
3E4
  8
0
 10
113.95849670899629
 20
51.066886725627313
 30
0.0
 11
121.45849670899651
 21
51.066886725627313
 31
0.0
  0
LINE
  5
3E5
  8
3
 10
95.958496708996563
 20
43.566886725622538
 30
0.0
 11
82.958496708998595
 21
43.566886725622538
 31
0.0
  0
LINE
  5
3E6
  8
0
 10
113.95849670899629
 20
43.066886725624549
 30
0.0
 11
121.45849670899651
 21
43.066886725624578
 31
0.0
  0
LINE
  5
3EB
  8
3
 10
95.958496708996563
 20
100.5668867256266
 30
0.0
 11
82.958496708995881
 21
100.5668867256266
 31
0.0
  0
LINE
  5
3EC
  8
0
 10
113.95849670899651
 20
101.0668867256273
 30
0.0
 11
121.45849670899651
 21
101.0668867256273
 31
0.0
  0
LINE
  5
3ED
  8
3
 10
95.958496708996563
 20
93.56688672562251
 30
0.0
 11
82.958496708998595
 21
93.56688672562251
 31
0.0
  0
LINE
  5
3EE
  8
0
 10
113.95849670899651
 20
93.066886725624556
 30
0.0
 11
121.45849670899651
 21
93.066886725624556
 31
0.0
  0
LINE
  5
484
  8
0
 10
170.45849670899651
 20
48.221589600020039
 30
0.0
 11
170.45849670899651
 21
45.912188523261243
 31
0.0
  0
LINE
  5
485
  8
0
 10
174.45849670899651
 20
48.221589600019847
 30
0.0
 11
174.45849670899651
 21
45.912188523261591
 31
0.0
  0
LINE
  5
487
  8
0
 10
174.45849670899719
 20
45.912188523261221
 30
0.0
 11
172.45849670899651
 21
44.757487984881656
 31
0.0
  0
LINE
  5
488
  8
0
 10
172.45849670899651
 20
49.376290138398623
 30
0.0
 11
170.4584967089971
 21
48.221589600019712
 31
0.0
  0
LINE
  5
489
  8
0
 10
172.45849670899651
 20
49.376290138398602
 30
0.0
 11
174.45849670899611
 21
48.221589600019577
 31
0.0
  0
LINE
  5
48A
  8
0
 10
170.45849670899619
 20
45.912188523261037
 30
0.0
 11
172.45849670899651
 21
44.757487984881571
 31
0.0
  0
LINE
  5
49B
  8
0
 10
39.964050208462602
 20
47.066889061640772
 30
0.0
 11
38.958496708996933
 21
48.808558812444019
 31
0.0
  0
LINE
  5
49C
  8
0
 10
38.958496708996869
 20
45.32521931083744
 30
0.0
 11
39.964050208462602
 21
47.066889061640772
 31
0.0
  0
LINE
  5
49D
  8
0
 10
25.958496708996648
 20
48.808558812444687
 30
0.0
 11
24.952943209530531
 21
47.066889061640772
 31
0.0
  0
LINE
  5
49E
  8
0
 10
24.952943209530531
 20
47.066889061640772
 30
0.0
 11
25.958496708996702
 21
45.325219310836772
 31
0.0
  0
TEXT
  5
555
  8
0
 62
     3
 10
0.0
 20
0.0
 30
0.0
 40
10.0
  1
BJ211-08011
  7
STANDARD1
  0
ENDSEC
  0
EOF
