  0
SECTION
  2
HEADER
  9
$ACADVER
  1
AC1009
  9
$INSBASE
 10
0.0
 20
0.0
 30
0.0
  9
$EXTMIN
 10
0.0
 20
-2.960436562073669
 30
0.0
  9
$EXTMAX
 10
231.79901150956971
 20
185.2840654977594
 30
0.0
  9
$LIMMIN
 10
0.0
 20
0.0
  9
$LIMMAX
 10
375.0
 20
270.0
  9
$ORTHOMODE
 70
     1
  9
$REGENMODE
 70
     1
  9
$FILLMODE
 70
     1
  9
$QTEXTMODE
 70
     0
  9
$MIRRTEXT
 70
     0
  9
$DRAGMODE
 70
     2
  9
$LTSCALE
 40
10.0
  9
$OSMODE
 70
    37
  9
$ATTMODE
 70
     1
  9
$TEXTSIZE
 40
0.2
  9
$TRACEWID
 40
0.05
  9
$TEXTSTYLE
  7
STANDARD
  9
$CLAYER
  8
0
  9
$CELTYPE
  6
BYLAYER
  9
$CECOLOR
 62
   256
  9
$DIMSCALE
 40
1.0
  9
$DIMASZ
 40
3.0
  9
$DIMEXO
 40
2.0
  9
$DIMDLI
 40
0.38
  9
$DIMRND
 40
0.0
  9
$DIMDLE
 40
0.0
  9
$DIMEXE
 40
2.0
  9
$DIMTP
 40
0.0
  9
$DIMTM
 40
0.0
  9
$DIMTXT
 40
3.2000000000000002
  9
$DIMCEN
 40
0.0
  9
$DIMTSZ
 40
0.0
  9
$DIMTOL
 70
     0
  9
$DIMLIM
 70
     0
  9
$DIMTIH
 70
     0
  9
$DIMTOH
 70
     0
  9
$DIMSE1
 70
     0
  9
$DIMSE2
 70
     0
  9
$DIMTAD
 70
     1
  9
$DIMZIN
 70
     0
  9
$DIMBLK
  1

  9
$DIMASO
 70
     0
  9
$DIMSHO
 70
     0
  9
$DIMPOST
  1

  9
$DIMAPOST
  1

  9
$DIMALT
 70
     0
  9
$DIMALTD
 70
     2
  9
$DIMALTF
 40
25.399999999999999
  9
$DIMLFAC
 40
1.0
  9
$DIMTOFL
 70
     1
  9
$DIMTVP
 40
1.6000000000000001
  9
$DIMTIX
 70
     1
  9
$DIMSOXD
 70
     0
  9
$DIMSAH
 70
     0
  9
$DIMBLK1
  1

  9
$DIMBLK2
  1

  9
$DIMSTYLE
  2
STANDARD
  9
$DIMCLRD
 70
     0
  9
$DIMCLRE
 70
     0
  9
$DIMCLRT
 70
     0
  9
$DIMTFAC
 40
1.0
  9
$DIMGAP
 40
0.09
  9
$LUNITS
 70
     2
  9
$LUPREC
 70
     1
  9
$SKETCHINC
 40
0.1
  9
$FILLETRAD
 40
0.0
  9
$AUNITS
 70
     0
  9
$AUPREC
 70
     1
  9
$MENU
  1
E:\r13\win\SUPPORT\ACAD
  9
$ELEVATION
 40
0.0
  9
$PELEVATION
 40
0.0
  9
$THICKNESS
 40
0.0
  9
$LIMCHECK
 70
     0
  9
$BLIPMODE
 70
     0
  9
$CHAMFERA
 40
0.0
  9
$CHAMFERB
 40
0.0
  9
$SKPOLY
 70
     0
  9
$TDCREATE
 40
2449839.7572569451
  9
$TDUPDATE
 40
2459675.6371484031
  9
$TDINDWG
 40
0.0084420718
  9
$TDUSRTIMER
 40
0.0084420718
  9
$USRTIMER
 70
     1
  9
$ANGBASE
 50
0.0
  9
$ANGDIR
 70
     0
  9
$PDMODE
 70
     0
  9
$PDSIZE
 40
0.0
  9
$PLINEWID
 40
0.0
  9
$COORDS
 70
     1
  9
$SPLFRAME
 70
     0
  9
$SPLINETYPE
 70
     6
  9
$SPLINESEGS
 70
     8
  9
$ATTDIA
 70
     0
  9
$ATTREQ
 70
     1
  9
$HANDLING
 70
     1
  9
$HANDSEED
  5
4E3
  9
$SURFTAB1
 70
     6
  9
$SURFTAB2
 70
     6
  9
$SURFTYPE
 70
     6
  9
$SURFU
 70
     6
  9
$SURFV
 70
     6
  9
$UCSNAME
  2

  9
$UCSORG
 10
0.0
 20
0.0
 30
0.0
  9
$UCSXDIR
 10
1.0
 20
0.0
 30
0.0
  9
$UCSYDIR
 10
0.0
 20
1.0
 30
0.0
  9
$PUCSNAME
  2

  9
$PUCSORG
 10
0.0
 20
0.0
 30
0.0
  9
$PUCSXDIR
 10
1.0
 20
0.0
 30
0.0
  9
$PUCSYDIR
 10
0.0
 20
1.0
 30
0.0
  9
$USERI1
 70
     0
  9
$USERI2
 70
     1
  9
$USERI3
 70
     0
  9
$USERI4
 70
     0
  9
$USERI5
 70
     0
  9
$USERR1
 40
0.0
  9
$USERR2
 40
0.0
  9
$USERR3
 40
0.0
  9
$USERR4
 40
0.0
  9
$USERR5
 40
0.0
  9
$WORLDVIEW
 70
     1
  9
$SHADEDGE
 70
     3
  9
$SHADEDIF
 70
    70
  9
$TILEMODE
 70
     1
  9
$MAXACTVP
 70
    16
  9
$PLIMCHECK
 70
     0
  9
$PEXTMIN
 10
1.0000000000000000E+020
 20
1.0000000000000000E+020
 30
1.0000000000000000E+020
  9
$PEXTMAX
 10
-1.0000000000000000E+020
 20
-1.0000000000000000E+020
 30
-1.0000000000000000E+020
  9
$PLIMMIN
 10
0.0
 20
0.0
  9
$PLIMMAX
 10
12.0
 20
9.0
  9
$UNITMODE
 70
     0
  9
$VISRETAIN
 70
     0
  9
$PLINEGEN
 70
     0
  9
$PSLTSCALE
 70
     0
  0
ENDSEC
  0
SECTION
  2
TABLES
  0
TABLE
  2
VPORT
 70
     1
  0
VPORT
  2
*ACTIVE
 70
     0
 10
0.0
 20
0.0
 11
1.0
 21
1.0
 12
284.70552884615392
 22
125.0
 13
0.0
 23
0.0
 14
10.0
 24
10.0
 15
10.0
 25
10.0
 16
0.0
 26
0.0
 36
1.0
 17
0.0
 27
0.0
 37
0.0
 40
250.0
 41
2.2776442307692299
 42
50.0
 43
0.0
 44
0.0
 50
0.0
 51
0.0
 71
     0
 72
   500
 73
     1
 74
     0
 75
     0
 76
     0
 77
     0
 78
     2
  0
ENDTAB
  0
TABLE
  2
LTYPE
 70
     3
  0
LTYPE
  2
CONTINUOUS
 70
     0
  3
Solid Line
 72
    65
 73
     0
 40
0.0
  0
LTYPE
  2
CENTER
 70
     0
  3
____ _ ____ _ ____ _ ____ _ ____ _ ____ _ ____
 72
    65
 73
     4
 40
2.0
 49
1.25
 49
-0.25
 49
0.25
 49
-0.25
  0
LTYPE
  2
PHANTOM2
 70
     0
  3
___ _ _ ___ _ _ ___ _ _ ___ _ _
 72
    65
 73
     6
 40
1.25
 49
0.625
 49
-0.125
 49
0.125
 49
-0.125
 49
0.125
 49
-0.125
  0
ENDTAB
  0
TABLE
  2
LAYER
 70
     3
  0
LAYER
  2
0
 70
     0
 62
     7
  6
CONTINUOUS
  0
LAYER
  2
1
 70
     0
 62
     1
  6
CENTER
  0
LAYER
  2
3
 70
     0
 62
     3
  6
CONTINUOUS
  0
ENDTAB
  0
TABLE
  2
STYLE
 70
     2
  0
STYLE
  2
STANDARD
 70
     0
 40
0.0
 41
1.0
 50
0.0
 71
     0
 42
0.2
  3
TXT
  4
BIGFONT
  0
STYLE
  2
STANDARD1
 70
     0
 40
0.0
 41
1.0
 50
0.0
 71
     0
 42
3.0
  3
txt
  4

  0
ENDTAB
  0
TABLE
  2
VIEW
 70
     1
  0
VIEW
  2
ALL
 70
     0
 40
270.0
 10
220.99159663865549
 20
135.0
 41
0.0
 11
0.0
 21
0.0
 31
1.0
 12
0.0
 22
0.0
 32
0.0
 42
0.0
 43
0.0
 44
0.0
 50
0.0
 71
     0
  0
ENDTAB
  0
TABLE
  2
UCS
 70
     0
  0
ENDTAB
  0
TABLE
  2
APPID
 70
     6
  0
APPID
  2
ACAD
 70
     0
  0
APPID
  2
ACAD_MLEADERVER
 70
     0
  0
APPID
  2
ACAD_NAV_VCDISPLAY
 70
     0
  0
APPID
  2
ACAD_DSTYLE_DIMJAG
 70
     0
  0
APPID
  2
ACAD_DSTYLE_DIMTALN
 70
     0
  0
APPID
  2
ACAD_EXEMPT_FROM_CAD_STANDARDS
 70
     0
  0
ENDTAB
  0
TABLE
  2
DIMSTYLE
 70
     1
  0
DIMSTYLE
  2
STANDARD
 70
     0
  3

  4

  5

  6

  7

 40
1.0
 41
0.18
 42
0.0625
 43
0.38
 44
0.18
 45
0.0
 46
0.0
 47
0.0
 48
0.0
140
0.18
141
0.09
142
0.0
143
25.399999999999999
144
1.0
145
0.0
146
1.0
147
0.09
 71
     0
 72
     0
 73
     1
 74
     1
 75
     0
 76
     0
 77
     0
 78
     0
170
     0
171
     2
172
     0
173
     0
174
     0
175
     0
176
     0
177
     0
178
     0
  0
ENDTAB
  0
ENDSEC
  0
SECTION
  2
BLOCKS
  0
BLOCK
  8
0
  2
$MODEL_SPACE
 70
     0
 10
0.0
 20
0.0
 30
0.0
  3
$MODEL_SPACE
  1

  0
ENDBLK
  5
26C
  8
0
  0
BLOCK
 67
     1
  8
0
  2
$PAPER_SPACE
 70
     0
 10
0.0
 20
0.0
 30
0.0
  3
$PAPER_SPACE
  1

  0
ENDBLK
  5
26A
 67
     1
  8
0
  0
ENDSEC
  0
SECTION
  2
ENTITIES
  0
TEXT
  5
325
  8
0
 62
     3
 10
0.0
 20
0.0
 30
0.0
 40
10.0
  1
BJ211-10001
  7
STANDARD1
  0
LINE
  5
36F
  8
0
 10
226.9999999999998
 20
100.5000000000002
 30
0.0
 11
226.9999999999998
 21
107.7224318643366
 31
0.0
  0
CIRCLE
  5
370
  8
3
 10
218.4999999999998
 20
110.0000000000002
 30
0.0
 40
5.0
  0
CIRCLE
  5
371
  8
0
 10
218.4999999999998
 20
110.0000000000002
 30
0.0
 40
4.2999999999999989
  0
LINE
  5
372
  8
1
 10
231.79901150956971
 20
110.0000000000002
 30
0.0
 11
205.14082109509741
 21
110.0000000000002
 31
0.0
  0
LINE
  5
373
  8
1
 10
218.4999999999998
 20
121.7914380117015
 30
0.0
 11
218.4999999999998
 21
97.620152609048972
 31
0.0
  0
LINE
  5
374
  8
0
 10
213.5000000000027
 20
95.500000000003155
 30
0.0
 11
218.4999999999998
 21
95.500000000003155
 31
0.0
  0
LINE
  5
375
  8
3
 10
214.4999999999998
 20
95.500000000003155
 30
0.0
 11
213.5000000000027
 21
97.232050807567219
 31
0.0
  0
LINE
  5
376
  8
3
 10
222.4999999999998
 20
95.500000000003155
 30
0.0
 11
223.49999999999679
 21
97.232050807567219
 31
0.0
  0
LINE
  5
377
  8
0
 10
223.49999999999679
 20
95.500000000003155
 30
0.0
 11
218.4999999999998
 21
95.500000000003155
 31
0.0
  0
ARC
  5
378
  8
0
 10
218.4999999999998
 20
119.0624999999381
 30
0.0
 40
19.062499999937749
 50
243.51896016954359
 51
296.48103983045638
  0
ARC
  5
379
  8
0
 10
218.4999999999998
 20
100.9375000000622
 30
0.0
 40
19.062499999937749
 50
63.518960169543597
 51
116.4810398304564
  0
LINE
  5
37A
  8
0
 10
226.9999999999998
 20
100.5000000000002
 30
0.0
 11
226.4999999999998
 21
100.0000000000002
 31
0.0
  0
LINE
  5
37B
  8
0
 10
209.9999999999998
 20
100.5000000000002
 30
0.0
 11
210.4999999999998
 21
100.0000000000002
 31
0.0
  0
LINE
  5
37C
  8
0
 10
210.4999999999998
 20
120.0000000000002
 30
0.0
 11
209.9999999999998
 21
119.5000000000002
 31
0.0
  0
LINE
  5
37D
  8
0
 10
226.9999999999998
 20
119.5000000000002
 30
0.0
 11
226.4999999999998
 21
120.0000000000002
 31
0.0
  0
LINE
  5
37E
  8
0
 10
210.4999999999998
 20
100.0000000000002
 30
0.0
 11
226.4999999999998
 21
100.0000000000002
 31
0.0
  0
LINE
  5
37F
  8
0
 10
209.9999999999998
 20
119.5000000000002
 30
0.0
 11
209.9999999999998
 21
112.2775681356654
 31
0.0
  0
LINE
  5
380
  8
0
 10
226.4999999999998
 20
120.0000000000002
 30
0.0
 11
210.4999999999998
 21
120.0000000000002
 31
0.0
  0
LINE
  5
381
  8
1
 10
218.4999999999998
 20
124.9871951934733
 30
0.0
 11
218.4999999999998
 21
44.738690716678292
 31
0.0
  0
LINE
  5
382
  8
0
 10
213.5000000000027
 20
100.0000000000002
 30
0.0
 11
213.5000000000027
 21
76.000000000000455
 31
0.0
  0
LINE
  5
383
  8
3
 10
214.4999999999998
 20
50.500000000003162
 30
0.0
 11
214.4999999999998
 21
70.000000000000455
 31
0.0
  0
LINE
  5
384
  8
3
 10
222.4999999999998
 20
50.500000000003162
 30
0.0
 11
222.4999999999998
 21
70.000000000000455
 31
0.0
  0
LINE
  5
385
  8
0
 10
223.49999999999679
 20
100.0000000000002
 30
0.0
 11
223.49999999999679
 21
76.000000000000455
 31
0.0
  0
LINE
  5
386
  8
0
 10
215.0000000000027
 20
50.000000000000199
 30
0.0
 11
218.4999999999998
 21
50.000000000000199
 31
0.0
  0
LINE
  5
387
  8
0
 10
213.5000000000027
 20
51.500000000000192
 30
0.0
 11
215.0000000000027
 21
50.000000000000199
 31
0.0
  0
LINE
  5
388
  8
0
 10
213.5000000000027
 20
51.500000000000192
 30
0.0
 11
218.4999999999998
 21
51.500000000000192
 31
0.0
  0
LINE
  5
389
  8
0
 10
223.49999999999679
 20
51.500000000000192
 30
0.0
 11
218.4999999999998
 21
51.500000000000192
 31
0.0
  0
LINE
  5
38A
  8
0
 10
223.49999999999679
 20
51.500000000000192
 30
0.0
 11
221.99999999999679
 21
50.000000000000199
 31
0.0
  0
LINE
  5
38B
  8
0
 10
221.99999999999679
 20
50.000000000000199
 30
0.0
 11
218.4999999999998
 21
50.000000000000199
 31
0.0
  0
LINE
  5
38E
  8
0
 10
213.5925227118876
 20
101.5000000000002
 30
0.0
 11
223.40747728811201
 21
101.5000000000002
 31
0.0
  0
LINE
  5
38F
  8
0
 10
223.4074772881111
 20
101.5000000000002
 30
0.0
 11
228.3149545762233
 21
110.0000000000008
 31
0.0
  0
LINE
  5
390
  8
0
 10
228.31495457622299
 20
110.0000000000002
 30
0.0
 11
223.4074772881109
 21
118.5000000000009
 31
0.0
  0
LINE
  5
391
  8
0
 10
223.40747728811129
 20
118.5000000000002
 30
0.0
 11
213.59252271188669
 21
118.5000000000002
 31
0.0
  0
LINE
  5
392
  8
0
 10
213.5925227118876
 20
118.5000000000002
 30
0.0
 11
208.68504542377539
 21
109.9999999999995
 31
0.0
  0
LINE
  5
393
  8
0
 10
208.68504542377579
 20
110.0000000000002
 30
0.0
 11
213.59252271188799
 21
101.4999999999995
 31
0.0
  0
CIRCLE
  5
394
  8
0
 10
218.4999999999998
 20
110.0000000000002
 30
0.0
 40
8.25
  0
LINE
  5
395
  8
0
 10
209.9999999999998
 20
107.72243186433511
 30
0.0
 11
209.9999999999998
 21
100.5000000000002
 31
0.0
  0
LINE
  5
396
  8
0
 10
226.9999999999998
 20
112.277568135664
 30
0.0
 11
226.9999999999998
 21
119.5000000000002
 31
0.0
  0
LINE
  5
397
  8
0
 10
218.4999999999998
 20
75.096473054147282
 30
0.0
 11
218.4999999999998
 21
70.903526945853613
 31
0.0
  0
LINE
  5
398
  8
0
 10
209.9999999999998
 20
75.550000000000409
 30
0.0
 11
209.9999999999998
 21
70.4500000000005
 31
0.0
  0
LINE
  5
399
  8
0
 10
210.44999999999979
 20
70.000000000000455
 30
0.0
 11
226.5499999999997
 21
70.000000000000455
 31
0.0
  0
LINE
  5
39A
  8
0
 10
226.9999999999998
 20
70.4500000000005
 30
0.0
 11
226.9999999999998
 21
75.550000000000409
 31
0.0
  0
LINE
  5
39B
  8
0
 10
226.5499999999997
 20
76.000000000000455
 30
0.0
 11
210.44999999999979
 21
76.000000000000455
 31
0.0
  0
LINE
  5
39C
  8
0
 10
210.44999999999979
 20
76.000000000000455
 30
0.0
 11
209.9999999999998
 21
75.550000000000409
 31
0.0
  0
LINE
  5
39D
  8
0
 10
209.9999999999998
 20
70.4500000000005
 30
0.0
 11
210.44999999999979
 21
70.000000000000455
 31
0.0
  0
LINE
  5
39E
  8
0
 10
226.5499999999997
 20
70.000000000000455
 30
0.0
 11
226.9999999999998
 21
70.4500000000005
 31
0.0
  0
LINE
  5
39F
  8
0
 10
226.9999999999998
 20
75.550000000000409
 30
0.0
 11
226.5499999999997
 21
76.000000000000455
 31
0.0
  0
ARC
  5
3A0
  8
0
 10
214.2499999999998
 20
65.552685158684426
 30
0.0
 40
10.447314841315981
 50
65.995832269502202
 51
114.0041677304977
  0
ARC
  5
3A1
  8
0
 10
214.2499999999998
 20
80.447314841316484
 30
0.0
 40
10.447314841315981
 50
245.99583226950219
 51
294.00416773049778
  0
ARC
  5
3A2
  8
0
 10
222.7499999999998
 20
65.552685158684426
 30
0.0
 40
10.447314841315981
 50
65.995832269502202
 51
114.0041677304977
  0
ARC
  5
3A3
  8
0
 10
222.7499999999998
 20
80.447314841316484
 30
0.0
 40
10.447314841315981
 50
245.99583226950219
 51
294.00416773049778
  0
LINE
  5
3A4
  8
0
 10
218.4999999999998
 20
75.096473054147282
 30
0.0
 11
218.4999999999998
 21
70.903526945853613
 31
0.0
  0
LINE
  5
3A5
  8
3
 10
214.4999999999998
 20
76.000000000000455
 30
0.0
 11
214.4999999999998
 21
95.500000000003155
 31
0.0
  0
LINE
  5
3A6
  8
0
 10
213.5000000000027
 20
70.000000000000455
 30
0.0
 11
213.5000000000027
 21
51.500000000000192
 31
0.0
  0
LINE
  5
3A7
  8
0
 10
223.49999999999679
 20
70.000000000000455
 30
0.0
 11
223.49999999999679
 21
51.500000000000192
 31
0.0
  0
LINE
  5
3A8
  8
3
 10
222.4999999999998
 20
76.000000000000455
 30
0.0
 11
222.4999999999998
 21
95.500000000003155
 31
0.0
  0
LINE
  5
3A9
  8
0
 10
114.7500000000002
 20
105.0000000000002
 30
0.0
 11
114.7500000000002
 21
115.0000000000002
 31
0.0
  0
LINE
  5
3AA
  8
0
 10
113.5000000000002
 20
113.7500000000002
 30
0.0
 11
114.7500000000002
 21
115.0000000000002
 31
0.0
  0
LINE
  5
3AB
  8
0
 10
113.5000000000002
 20
106.2500000000002
 30
0.0
 11
113.5000000000002
 21
113.7500000000002
 31
0.0
  0
LINE
  5
3AC
  8
0
 10
114.7500000000002
 20
105.0000000000002
 30
0.0
 11
113.5000000000002
 21
106.2500000000002
 31
0.0
  0
LINE
  5
3AD
  8
1
 10
170.5118533967381
 20
110.0000000000002
 30
0.0
 11
106.9985746752952
 21
110.0000000000002
 31
0.0
  0
LINE
  5
3AE
  8
0
 10
163.5000000000002
 20
106.2500000000002
 30
0.0
 11
163.5000000000002
 21
113.7500000000002
 31
0.0
  0
LINE
  5
3AF
  8
0
 10
162.2500000000002
 20
105.0000000000002
 30
0.0
 11
163.5000000000002
 21
106.2500000000002
 31
0.0
  0
LINE
  5
3B0
  8
0
 10
163.5000000000002
 20
113.7500000000002
 30
0.0
 11
162.2500000000002
 21
115.0000000000002
 31
0.0
  0
LINE
  5
3B1
  8
0
 10
162.2500000000002
 20
105.0000000000002
 30
0.0
 11
162.2500000000002
 21
115.0000000000002
 31
0.0
  0
LINE
  5
3B2
  8
0
 10
162.2500000000002
 20
115.0000000000002
 30
0.0
 11
153.0
 21
115.0000000000002
 31
0.0
  0
LINE
  5
3B3
  8
0
 10
162.2500000000002
 20
105.0000000000002
 30
0.0
 11
153.0
 21
105.0000000000002
 31
0.0
  0
LINE
  5
3B4
  8
3
 10
114.0000000000002
 20
105.7500000000002
 30
0.0
 11
129.9999999999998
 21
105.7500000000002
 31
0.0
  0
LINE
  5
3B5
  8
3
 10
114.0000000000002
 20
114.2500000000002
 30
0.0
 11
129.9999999999998
 21
114.2500000000002
 31
0.0
  0
LINE
  5
3B6
  8
0
 10
147.9035269458532
 20
110.0000000000002
 30
0.0
 11
152.0964730541468
 21
110.0000000000002
 31
0.0
  0
LINE
  5
3B7
  8
0
 10
147.44999999999999
 20
101.5000000000002
 30
0.0
 11
152.5499999999999
 21
101.5000000000002
 31
0.0
  0
LINE
  5
3B8
  8
0
 10
153.0
 20
101.9500000000002
 30
0.0
 11
153.0
 21
118.0500000000002
 31
0.0
  0
LINE
  5
3B9
  8
0
 10
152.5499999999999
 20
118.5000000000002
 30
0.0
 11
147.44999999999999
 21
118.5000000000002
 31
0.0
  0
LINE
  5
3BB
  8
0
 10
147.0
 20
101.9500000000002
 30
0.0
 11
147.44999999999999
 21
101.5000000000002
 31
0.0
  0
LINE
  5
3BC
  8
0
 10
152.5499999999999
 20
101.5000000000002
 30
0.0
 11
153.0
 21
101.9500000000002
 31
0.0
  0
LINE
  5
3BD
  8
0
 10
153.0
 20
118.0500000000002
 30
0.0
 11
152.5499999999999
 21
118.5000000000002
 31
0.0
  0
LINE
  5
3BE
  8
0
 10
147.44999999999999
 20
118.5000000000002
 30
0.0
 11
147.0
 21
118.0500000000002
 31
0.0
  0
ARC
  5
3BF
  8
0
 10
157.447314841316
 20
105.7500000000002
 30
0.0
 40
10.447314841315981
 50
155.9958322695019
 51
204.00416773049801
  0
ARC
  5
3C0
  8
0
 10
142.55268515868389
 20
105.7500000000002
 30
0.0
 40
10.447314841315981
 50
335.99583226950188
 51
24.004167730498061
  0
ARC
  5
3C1
  8
0
 10
157.447314841316
 20
114.2500000000002
 30
0.0
 40
10.447314841315981
 50
155.9958322695019
 51
204.00416773049801
  0
ARC
  5
3C2
  8
0
 10
142.55268515868389
 20
114.2500000000002
 30
0.0
 40
10.447314841315981
 50
335.99583226950188
 51
24.004167730498061
  0
LINE
  5
3C3
  8
0
 10
147.9035269458532
 20
110.0000000000002
 30
0.0
 11
152.0964730541468
 21
110.0000000000002
 31
0.0
  0
LINE
  5
3C4
  8
0
 10
146.4999999999998
 20
120.0000000000002
 30
0.0
 11
130.49999999999969
 21
120.0000000000002
 31
0.0
  0
LINE
  5
3C5
  8
0
 10
129.9999999999998
 20
119.5000000000002
 30
0.0
 11
129.9999999999998
 21
100.5000000000002
 31
0.0
  0
LINE
  5
3C6
  8
0
 10
130.49999999999969
 20
100.0000000000002
 30
0.0
 11
146.4999999999998
 21
100.0000000000002
 31
0.0
  0
LINE
  5
3C7
  8
0
 10
146.99999999999969
 20
100.5000000000002
 30
0.0
 11
146.99999999999969
 21
119.5000000000002
 31
0.0
  0
LINE
  5
3C8
  8
0
 10
146.99999999999969
 20
119.5000000000002
 30
0.0
 11
146.4999999999998
 21
120.0000000000002
 31
0.0
  0
LINE
  5
3C9
  8
0
 10
130.49999999999969
 20
120.0000000000002
 30
0.0
 11
129.9999999999998
 21
119.5000000000002
 31
0.0
  0
LINE
  5
3CA
  8
0
 10
129.9999999999998
 20
100.5000000000002
 30
0.0
 11
130.49999999999969
 21
100.0000000000002
 31
0.0
  0
LINE
  5
3CB
  8
0
 10
146.99999999999969
 20
100.5000000000002
 30
0.0
 11
146.4999999999998
 21
100.0000000000002
 31
0.0
  0
ARC
  5
3CC
  8
0
 10
138.4999999999998
 20
100.9375000000625
 30
0.0
 40
19.062499999937749
 50
63.518960169544073
 51
116.4810398304559
  0
ARC
  5
3CD
  8
0
 10
138.4999999999998
 20
119.0624999999381
 30
0.0
 40
19.062499999937749
 50
243.5189601695441
 51
296.48103983045593
  0
LINE
  5
3CE
  8
0
 10
143.49999999999679
 20
100.0000000000002
 30
0.0
 11
143.49999999999679
 21
76.000000000000455
 31
0.0
  0
LINE
  5
3CF
  8
0
 10
141.99999999999679
 20
50.000000000000227
 30
0.0
 11
138.4999999999998
 21
50.000000000000227
 31
0.0
  0
LINE
  5
3D0
  8
0
 10
143.49999999999679
 20
51.500000000000227
 30
0.0
 11
141.99999999999679
 21
50.000000000000227
 31
0.0
  0
LINE
  5
3D1
  8
0
 10
143.49999999999679
 20
51.500000000000227
 30
0.0
 11
138.4999999999998
 21
51.500000000000227
 31
0.0
  0
LINE
  5
3D2
  8
0
 10
143.49999999999679
 20
95.500000000003183
 30
0.0
 11
138.4999999999998
 21
95.500000000003183
 31
0.0
  0
LINE
  5
3D3
  8
3
 10
142.4999999999998
 20
50.500000000003183
 30
0.0
 11
142.4999999999998
 21
70.000000000000441
 31
0.0
  0
LINE
  5
3D4
  8
3
 10
142.4999999999998
 20
95.500000000003183
 30
0.0
 11
143.49999999999679
 21
97.232050807567248
 31
0.0
  0
LINE
  5
3D5
  8
3
 10
134.49999999999969
 20
95.500000000003183
 30
0.0
 11
133.5000000000027
 21
97.232050807567248
 31
0.0
  0
LINE
  5
3D6
  8
3
 10
134.49999999999969
 20
50.500000000003183
 30
0.0
 11
134.49999999999969
 21
70.000000000000441
 31
0.0
  0
LINE
  5
3D7
  8
0
 10
133.5000000000027
 20
95.500000000003183
 30
0.0
 11
138.4999999999998
 21
95.500000000003183
 31
0.0
  0
LINE
  5
3D8
  8
0
 10
133.5000000000027
 20
51.500000000000227
 30
0.0
 11
138.4999999999998
 21
51.500000000000227
 31
0.0
  0
LINE
  5
3D9
  8
0
 10
133.5000000000027
 20
51.500000000000227
 30
0.0
 11
135.0000000000027
 21
50.000000000000227
 31
0.0
  0
LINE
  5
3DA
  8
0
 10
135.0000000000027
 20
50.000000000000227
 30
0.0
 11
138.4999999999998
 21
50.000000000000227
 31
0.0
  0
LINE
  5
3DB
  8
0
 10
133.5000000000027
 20
100.0000000000002
 30
0.0
 11
133.5000000000027
 21
76.000000000000455
 31
0.0
  0
LINE
  5
3DC
  8
1
 10
138.4999999999998
 20
124.9871951934733
 30
0.0
 11
138.4999999999998
 21
44.73869071667832
 31
0.0
  0
LINE
  5
3DD
  8
0
 10
129.9999999999998
 20
105.0000000000002
 30
0.0
 11
114.7500000000002
 21
105.0000000000002
 31
0.0
  0
LINE
  5
3DE
  8
3
 10
153.0
 20
105.7500000000002
 30
0.0
 11
163.0000000000002
 21
105.7500000000002
 31
0.0
  0
LINE
  5
3DF
  8
3
 10
153.0
 20
114.2500000000002
 30
0.0
 11
163.0000000000002
 21
114.2500000000002
 31
0.0
  0
LINE
  5
3E0
  8
0
 10
129.9999999999998
 20
115.0000000000002
 30
0.0
 11
114.7500000000002
 21
115.0000000000002
 31
0.0
  0
LINE
  5
3E1
  8
0
 10
133.59252271188529
 20
75.096473054148191
 30
0.0
 11
133.59252271188751
 21
70.903526945852718
 31
0.0
  0
LINE
  5
3E2
  8
0
 10
143.40747728811101
 20
75.096473054148191
 30
0.0
 11
143.40747728811129
 21
70.903526945853613
 31
0.0
  0
ARC
  5
3E3
  8
0
 10
138.49999999999821
 20
83.793655589125137
 30
0.0
 40
13.79270639771015
 50
249.15737370518349
 51
290.84262629482868
  0
ARC
  5
3E4
  8
0
 10
138.49999999999821
 20
62.206344410876447
 30
0.0
 40
13.79270639771015
 50
69.157373705171324
 51
110.8426262948165
  0
LINE
  5
3E5
  8
0
 10
130.25000000000199
 20
70.000000000000455
 30
0.0
 11
146.7499999999979
 21
70.000000000000455
 31
0.0
  0
LINE
  5
3E6
  8
0
 10
146.75
 20
76.000000000000455
 30
0.0
 11
130.2500000000004
 21
76.000000000000455
 31
0.0
  0
LINE
  5
3E7
  8
0
 10
130.25
 20
70.000000000001592
 30
0.0
 11
128.6850454237767
 21
70.903526945853613
 31
0.0
  0
LINE
  5
3E8
  8
0
 10
128.6850454237767
 20
70.903526945853613
 30
0.0
 11
128.6850454237767
 21
75.096473054147964
 31
0.0
  0
LINE
  5
3E9
  8
0
 10
128.6850454237767
 20
75.096473054147964
 30
0.0
 11
130.25
 21
76.0
 31
0.0
  0
ARC
  5
3EA
  8
0
 10
131.1387840678326
 20
72.216386070941098
 30
0.0
 40
3.7836139290592721
 50
49.570103155168439
 51
109.57010315514999
  0
ARC
  5
3EB
  8
0
 10
131.1387840678326
 20
73.783613929060493
 30
0.0
 40
3.7836139290592721
 50
250.42989684484741
 51
310.42989684483149
  0
ARC
  5
3EC
  8
0
 10
145.86121593216711
 20
73.783613929060493
 30
0.0
 40
3.7836139290592721
 50
229.57010315516851
 51
289.57010315516038
  0
ARC
  5
3ED
  8
0
 10
145.86121593216711
 20
72.216386070941098
 30
0.0
 40
3.7836139290592721
 50
70.429896844842204
 51
130.42989684483149
  0
LINE
  5
3EE
  8
0
 10
148.31495457622319
 20
75.096473054147964
 30
0.0
 11
146.75
 21
76.0
 31
0.0
  0
LINE
  5
3EF
  8
0
 10
148.31495457622319
 20
70.903526945853613
 30
0.0
 11
148.31495457622319
 21
75.096473054147964
 31
0.0
  0
LINE
  5
3F0
  8
0
 10
146.75
 20
70.000000000001592
 30
0.0
 11
148.31495457622319
 21
70.903526945853613
 31
0.0
  0
LINE
  5
3F1
  8
3
 10
134.49999999999969
 20
76.000000000000441
 30
0.0
 11
134.49999999999969
 21
95.500000000003183
 31
0.0
  0
LINE
  5
3F2
  8
0
 10
133.5000000000027
 20
70.000000000000441
 30
0.0
 11
133.5000000000027
 21
51.500000000000227
 31
0.0
  0
LINE
  5
3F3
  8
0
 10
143.49999999999679
 20
70.000000000000441
 30
0.0
 11
143.49999999999679
 21
51.500000000000227
 31
0.0
  0
LINE
  5
3F4
  8
3
 10
142.4999999999998
 20
76.000000000000441
 30
0.0
 11
142.4999999999998
 21
95.500000000003183
 31
0.0
  0
LINE
  5
40B
  8
0
 10
50.0
 20
119.5
 30
0.0
 11
50.0
 21
100.5
 31
0.0
  0
CIRCLE
  5
40C
  8
3
 10
58.499999999999758
 20
110.0
 30
0.0
 40
5.0
  0
CIRCLE
  5
40D
  8
0
 10
58.499999999999758
 20
110.0
 30
0.0
 40
4.2999999999999989
  0
LINE
  5
40E
  8
1
 10
71.799011509569937
 20
110.0
 30
0.0
 11
45.140821095097628
 21
110.0
 31
0.0
  0
LINE
  5
40F
  8
1
 10
58.499999999999758
 20
121.7914380117013
 30
0.0
 11
58.499999999999758
 21
97.620152609049015
 31
0.0
  0
LINE
  5
410
  8
1
 10
58.499999999999758
 20
124.9871951934733
 30
0.0
 11
58.499999999999758
 21
44.73869071667832
 31
0.0
  0
LINE
  5
411
  8
0
 10
53.500000000002721
 20
100.0
 30
0.0
 11
53.500000000002721
 21
76.000000000000213
 31
0.0
  0
LINE
  5
412
  8
0
 10
55.000000000002721
 20
50.0
 30
0.0
 11
58.499999999999758
 21
50.0
 31
0.0
  0
LINE
  5
413
  8
0
 10
53.500000000002721
 20
51.5
 30
0.0
 11
55.000000000002721
 21
50.0
 31
0.0
  0
LINE
  5
414
  8
0
 10
53.500000000002721
 20
51.5
 30
0.0
 11
58.499999999999758
 21
51.5
 31
0.0
  0
LINE
  5
415
  8
0
 10
53.500000000002721
 20
95.500000000003183
 30
0.0
 11
58.499999999999758
 21
95.500000000003183
 31
0.0
  0
LINE
  5
416
  8
3
 10
54.499999999999773
 20
50.500000000003183
 30
0.0
 11
54.499999999999773
 21
70.000000000000227
 31
0.0
  0
LINE
  5
417
  8
3
 10
54.499999999999993
 20
95.500000000003183
 30
0.0
 11
53.500000000002721
 21
97.23205080756702
 31
0.0
  0
LINE
  5
418
  8
3
 10
62.499999999999758
 20
95.500000000003183
 30
0.0
 11
63.49999999999681
 21
97.23205080756702
 31
0.0
  0
LINE
  5
419
  8
3
 10
62.499999999999758
 20
50.500000000003183
 30
0.0
 11
62.499999999999758
 21
70.000000000000227
 31
0.0
  0
LINE
  5
41A
  8
0
 10
63.49999999999681
 20
95.500000000003183
 30
0.0
 11
58.499999999999758
 21
95.500000000003183
 31
0.0
  0
LINE
  5
41B
  8
0
 10
63.49999999999681
 20
51.5
 30
0.0
 11
58.499999999999758
 21
51.5
 31
0.0
  0
LINE
  5
41C
  8
0
 10
63.49999999999681
 20
51.5
 30
0.0
 11
61.99999999999681
 21
50.0
 31
0.0
  0
LINE
  5
41D
  8
0
 10
61.99999999999681
 20
50.0
 30
0.0
 11
58.499999999999758
 21
50.0
 31
0.0
  0
LINE
  5
41E
  8
0
 10
63.49999999999681
 20
100.0
 30
0.0
 11
63.499999999996788
 21
76.000000000000213
 31
0.0
  0
ARC
  5
41F
  8
0
 10
58.499999999999758
 20
119.0624999999379
 30
0.0
 40
19.062499999937749
 50
243.51896016954629
 51
296.4810398304536
  0
ARC
  5
420
  8
0
 10
58.499999999999758
 20
100.9375000000623
 30
0.0
 40
19.062499999937749
 50
63.518960169546347
 51
116.4810398304536
  0
LINE
  5
421
  8
0
 10
66.999999999999773
 20
100.5
 30
0.0
 11
66.499999999999773
 21
100.0
 31
0.0
  0
LINE
  5
422
  8
0
 10
50.0
 20
100.5
 30
0.0
 11
50.499999999999993
 21
100.0
 31
0.0
  0
LINE
  5
423
  8
0
 10
50.499999999999993
 20
120.0
 30
0.0
 11
50.0
 21
119.5
 31
0.0
  0
LINE
  5
424
  8
0
 10
66.999999999999773
 20
119.5
 30
0.0
 11
66.499999999999773
 21
120.0
 31
0.0
  0
LINE
  5
425
  8
0
 10
66.999999999999773
 20
100.5
 30
0.0
 11
66.999999999999773
 21
119.5
 31
0.0
  0
LINE
  5
426
  8
0
 10
50.499999999999993
 20
100.0
 30
0.0
 11
66.499999999999773
 21
100.0
 31
0.0
  0
LINE
  5
427
  8
0
 10
66.499999999999773
 20
120.0
 30
0.0
 11
50.499999999999993
 21
120.0
 31
0.0
  0
LINE
  5
428
  8
0
 10
58.499999999999758
 20
75.096473054147054
 30
0.0
 11
58.499999999999758
 21
70.9035269458534
 31
0.0
  0
LINE
  5
429
  8
0
 10
49.999999999999758
 20
75.550000000000182
 30
0.0
 11
49.999999999999758
 21
70.450000000000273
 31
0.0
  0
LINE
  5
42A
  8
0
 10
50.449999999999811
 20
70.000000000000227
 30
0.0
 11
66.549999999999713
 21
70.000000000000227
 31
0.0
  0
LINE
  5
42B
  8
0
 10
66.999999999999773
 20
70.450000000000273
 30
0.0
 11
66.999999999999773
 21
75.550000000000182
 31
0.0
  0
LINE
  5
42C
  8
0
 10
66.549999999999713
 20
76.000000000000213
 30
0.0
 11
50.449999999999811
 21
76.000000000000213
 31
0.0
  0
LINE
  5
42D
  8
0
 10
50.449999999999811
 20
76.000000000000213
 30
0.0
 11
49.999999999999758
 21
75.550000000000182
 31
0.0
  0
LINE
  5
42E
  8
0
 10
49.999999999999758
 20
70.450000000000273
 30
0.0
 11
50.449999999999811
 21
70.000000000000227
 31
0.0
  0
LINE
  5
42F
  8
0
 10
66.549999999999713
 20
70.000000000000227
 30
0.0
 11
66.999999999999773
 21
70.450000000000273
 31
0.0
  0
LINE
  5
430
  8
0
 10
66.999999999999773
 20
75.550000000000182
 30
0.0
 11
66.549999999999713
 21
76.000000000000213
 31
0.0
  0
ARC
  5
431
  8
0
 10
54.249999999999758
 20
65.552685158684184
 30
0.0
 40
10.447314841315981
 50
65.995832269502202
 51
114.0041677304977
  0
ARC
  5
432
  8
0
 10
54.249999999999758
 20
80.447314841316256
 30
0.0
 40
10.447314841315981
 50
245.99583226950219
 51
294.00416773049778
  0
ARC
  5
433
  8
0
 10
62.749999999999773
 20
65.552685158684184
 30
0.0
 40
10.447314841315981
 50
65.995832269502202
 51
114.0041677304977
  0
ARC
  5
434
  8
0
 10
62.749999999999773
 20
80.447314841316256
 30
0.0
 40
10.447314841315981
 50
245.99583226950219
 51
294.00416773049778
  0
LINE
  5
435
  8
0
 10
58.499999999999758
 20
75.096473054147054
 30
0.0
 11
58.499999999999758
 21
70.9035269458534
 31
0.0
  0
LINE
  5
436
  8
3
 10
54.499999999999773
 20
76.000000000000213
 30
0.0
 11
54.499999999999773
 21
95.500000000003183
 31
0.0
  0
LINE
  5
437
  8
0
 10
53.500000000002721
 20
70.000000000000227
 30
0.0
 11
53.500000000002721
 21
51.5
 31
0.0
  0
LINE
  5
438
  8
0
 10
63.499999999996788
 20
70.000000000000227
 30
0.0
 11
63.49999999999681
 21
51.5
 31
0.0
  0
LINE
  5
439
  8
3
 10
62.499999999999758
 20
76.000000000000213
 30
0.0
 11
62.499999999999758
 21
95.500000000003183
 31
0.0
  0
LINE
  5
43A
  8
0
 10
147.90352694585201
 20
165.09252271188569
 30
0.0
 11
152.09647305414751
 21
165.09252271188799
 31
0.0
  0
LINE
  5
43B
  8
0
 10
147.90352694585201
 20
174.90747728811149
 30
0.0
 11
152.0964730541466
 21
174.90747728811169
 31
0.0
  0
ARC
  5
43C
  8
0
 10
139.20634441087509
 20
169.99999999999861
 30
0.0
 40
13.79270639771015
 50
339.15737370518349
 51
20.842626294828609
  0
ARC
  5
43D
  8
0
 10
160.79365558912369
 20
169.99999999999861
 30
0.0
 40
13.79270639771015
 50
159.15737370517141
 51
200.84262629481651
  0
LINE
  5
43E
  8
0
 10
152.9999999999998
 20
161.7500000000025
 30
0.0
 11
152.9999999999998
 21
178.24999999999841
 31
0.0
  0
LINE
  5
43F
  8
0
 10
146.99999999999969
 20
178.2500000000004
 30
0.0
 11
146.99999999999969
 21
161.75000000000091
 31
0.0
  0
LINE
  5
440
  8
0
 10
152.99999999999861
 20
161.7500000000004
 30
0.0
 11
152.0964730541466
 21
160.18504542377721
 31
0.0
  0
LINE
  5
441
  8
0
 10
152.0964730541466
 20
160.18504542377721
 30
0.0
 11
147.90352694585221
 21
160.18504542377721
 31
0.0
  0
LINE
  5
442
  8
0
 10
147.90352694585221
 20
160.18504542377721
 30
0.0
 11
147.0000000000002
 21
161.7500000000004
 31
0.0
  0
ARC
  5
443
  8
0
 10
150.7836139290591
 20
162.638784067833
 30
0.0
 40
3.7836139290592721
 50
139.5701031551686
 51
199.57010315515279
  0
ARC
  5
444
  8
0
 10
149.21638607093971
 20
162.638784067833
 30
0.0
 40
3.7836139290592721
 50
340.42989684484729
 51
40.429896844831411
  0
ARC
  5
445
  8
0
 10
149.21638607093971
 20
177.3612159321676
 30
0.0
 40
3.7836139290592721
 50
319.57010315516862
 51
19.570103155157788
  0
ARC
  5
446
  8
0
 10
150.7836139290591
 20
177.3612159321676
 30
0.0
 40
3.7836139290592721
 50
160.42989684483931
 51
220.4298968448314
  0
LINE
  5
447
  8
0
 10
147.90352694585221
 20
179.8149545762237
 30
0.0
 11
147.0000000000002
 21
178.2500000000004
 31
0.0
  0
LINE
  5
448
  8
0
 10
152.0964730541466
 20
179.8149545762237
 30
0.0
 11
147.90352694585221
 21
179.8149545762237
 31
0.0
  0
LINE
  5
449
  8
0
 10
152.99999999999861
 20
178.2500000000004
 30
0.0
 11
152.0964730541466
 21
179.8149545762237
 31
0.0
  0
ARC
  5
44B
  8
0
 10
138.4999999999998
 20
170.00000000000011
 30
0.0
 40
11.5
 50
222.34260545220721
 51
227.65739454779231
  0
ARC
  5
44C
  8
0
 10
138.4999999999998
 20
170.00000000000011
 30
0.0
 40
11.5
 50
312.34260545220792
 51
317.65739454779242
  0
ARC
  5
44D
  8
0
 10
138.4999999999998
 20
170.00000000000011
 30
0.0
 40
11.5
 50
42.342605452207593
 51
47.657394547793423
  0
ARC
  5
44E
  8
0
 10
138.4999999999998
 20
170.00000000000011
 30
0.0
 40
11.5
 50
132.34260545220661
 51
137.65739454779279
  0
LINE
  5
44F
  8
0
 10
146.24596669241441
 20
178.50000000000011
 30
0.0
 11
130.7540333075851
 21
178.50000000000011
 31
0.0
  0
LINE
  5
450
  8
0
 10
130.75403330758471
 20
161.50000000000011
 30
0.0
 11
146.24596669241461
 21
161.50000000000011
 31
0.0
  0
LINE
  5
451
  8
0
 10
129.9999999999998
 20
177.74596669241501
 30
0.0
 11
129.9999999999998
 21
162.2540333075853
 31
0.0
  0
CIRCLE
  5
452
  8
0
 10
138.4999999999998
 20
170.00000000000011
 30
0.0
 40
8.5
  0
LINE
  5
453
  8
0
 10
136.2224318643359
 20
178.50000000000011
 30
0.0
 11
138.4999999999998
 21
179.81495457622341
 31
0.0
  0
LINE
  5
454
  8
0
 10
138.4999999999998
 20
179.81495457622341
 30
0.0
 11
140.77756813566361
 21
178.50000000000011
 31
0.0
  0
LINE
  5
455
  8
0
 10
136.22243186433451
 20
161.50000000000011
 30
0.0
 11
138.4999999999998
 21
160.18504542377619
 31
0.0
  0
LINE
  5
456
  8
0
 10
138.4999999999998
 20
160.18504542377619
 30
0.0
 11
140.77756813566501
 21
161.50000000000011
 31
0.0
  0
LINE
  5
457
  8
1
 10
138.4999999999998
 20
185.2840654977594
 30
0.0
 11
138.4999999999998
 21
155.01687187959229
 31
0.0
  0
LINE
  5
458
  8
0
 10
114.75
 20
165.0000000000002
 30
0.0
 11
114.75
 21
175.0000000000002
 31
0.0
  0
LINE
  5
459
  8
0
 10
113.5
 20
173.7500000000002
 30
0.0
 11
114.75
 21
175.0000000000002
 31
0.0
  0
LINE
  5
45A
  8
0
 10
113.5
 20
166.2500000000002
 30
0.0
 11
113.5
 21
173.7500000000002
 31
0.0
  0
LINE
  5
45B
  8
0
 10
114.75
 20
165.0000000000002
 30
0.0
 11
113.5
 21
166.2500000000002
 31
0.0
  0
LINE
  5
45C
  8
1
 10
170.51185339673791
 20
170.0000000000002
 30
0.0
 11
106.998574675295
 21
170.0000000000002
 31
0.0
  0
LINE
  5
45D
  8
0
 10
163.5
 20
166.2500000000002
 30
0.0
 11
163.5
 21
173.7500000000002
 31
0.0
  0
LINE
  5
45E
  8
0
 10
162.25
 20
165.0000000000002
 30
0.0
 11
163.5
 21
166.2500000000002
 31
0.0
  0
LINE
  5
45F
  8
0
 10
163.5
 20
173.7500000000002
 30
0.0
 11
162.25
 21
175.0000000000002
 31
0.0
  0
LINE
  5
460
  8
0
 10
162.25
 20
165.0000000000002
 30
0.0
 11
162.25
 21
175.0000000000002
 31
0.0
  0
LINE
  5
461
  8
0
 10
162.25
 20
175.0000000000002
 30
0.0
 11
152.9999999999998
 21
175.0000000000002
 31
0.0
  0
LINE
  5
462
  8
0
 10
162.25
 20
165.0000000000002
 30
0.0
 11
152.9999999999998
 21
165.0000000000002
 31
0.0
  0
LINE
  5
463
  8
3
 10
114.0
 20
165.7500000000002
 30
0.0
 11
129.9999999999998
 21
165.7500000000002
 31
0.0
  0
LINE
  5
464
  8
3
 10
114.0
 20
174.2500000000002
 30
0.0
 11
129.9999999999998
 21
174.2500000000002
 31
0.0
  0
LINE
  5
465
  8
3
 10
152.9999999999998
 20
174.2500000000002
 30
0.0
 11
163.0
 21
174.2500000000002
 31
0.0
  0
LINE
  5
466
  8
0
 10
129.99999999999969
 20
175.0000000000002
 30
0.0
 11
114.75
 21
175.0000000000002
 31
0.0
  0
LINE
  5
467
  8
0
 10
129.99999999999969
 20
165.0000000000002
 30
0.0
 11
114.75
 21
165.0000000000002
 31
0.0
  0
LINE
  5
468
  8
3
 10
152.9999999999998
 20
165.7500000000002
 30
0.0
 11
163.0
 21
165.7500000000002
 31
0.0
  0
ENDSEC
  0
EOF
