  0
SECTION
  2
HEADER
  9
$ACADVER
  1
AC1009
  9
$INSBASE
 10
0.0
 20
0.0
 30
0.0
  9
$EXTMIN
 10
0.0
 20
-2.960436562073669
 30
0.0
  9
$EXTMAX
 10
179.3470371658795
 20
130.27846032066489
 30
0.0
  9
$LIMMIN
 10
0.0
 20
0.0
  9
$LIMMAX
 10
12.0
 20
9.0
  9
$ORTHOMODE
 70
     1
  9
$REGENMODE
 70
     1
  9
$FILLMODE
 70
     1
  9
$QTEXTMODE
 70
     0
  9
$MIRRTEXT
 70
     0
  9
$DRAGMODE
 70
     2
  9
$LTSCALE
 40
5.0
  9
$OSMODE
 70
  3071
  9
$ATTMODE
 70
     1
  9
$TEXTSIZE
 40
0.2
  9
$TRACEWID
 40
0.05
  9
$TEXTSTYLE
  7
STANDARD
  9
$CLAYER
  8
1
  9
$CELTYPE
  6
BYLAYER
  9
$CECOLOR
 62
   256
  9
$DIMSCALE
 40
1.0
  9
$DIMASZ
 40
0.18
  9
$DIMEXO
 40
0.0625
  9
$DIMDLI
 40
0.38
  9
$DIMRND
 40
0.0
  9
$DIMDLE
 40
0.0
  9
$DIMEXE
 40
0.18
  9
$DIMTP
 40
0.0
  9
$DIMTM
 40
0.0
  9
$DIMTXT
 40
0.18
  9
$DIMCEN
 40
0.09
  9
$DIMTSZ
 40
0.0
  9
$DIMTOL
 70
     0
  9
$DIMLIM
 70
     0
  9
$DIMTIH
 70
     1
  9
$DIMTOH
 70
     1
  9
$DIMSE1
 70
     0
  9
$DIMSE2
 70
     0
  9
$DIMTAD
 70
     0
  9
$DIMZIN
 70
     0
  9
$DIMBLK
  1

  9
$DIMASO
 70
     1
  9
$DIMSHO
 70
     1
  9
$DIMPOST
  1

  9
$DIMAPOST
  1

  9
$DIMALT
 70
     0
  9
$DIMALTD
 70
     2
  9
$DIMALTF
 40
25.399999999999999
  9
$DIMLFAC
 40
1.0
  9
$DIMTOFL
 70
     0
  9
$DIMTVP
 40
0.0
  9
$DIMTIX
 70
     0
  9
$DIMSOXD
 70
     0
  9
$DIMSAH
 70
     0
  9
$DIMBLK1
  1

  9
$DIMBLK2
  1

  9
$DIMSTYLE
  2
STANDARD
  9
$DIMCLRD
 70
     0
  9
$DIMCLRE
 70
     0
  9
$DIMCLRT
 70
     0
  9
$DIMTFAC
 40
1.0
  9
$DIMGAP
 40
0.09
  9
$LUNITS
 70
     2
  9
$LUPREC
 70
     4
  9
$SKETCHINC
 40
0.1
  9
$FILLETRAD
 40
0.0
  9
$AUNITS
 70
     0
  9
$AUPREC
 70
     0
  9
$MENU
  1
.
  9
$ELEVATION
 40
0.0
  9
$PELEVATION
 40
0.0
  9
$THICKNESS
 40
0.0
  9
$LIMCHECK
 70
     0
  9
$BLIPMODE
 70
     0
  9
$CHAMFERA
 40
0.0
  9
$CHAMFERB
 40
0.0
  9
$SKPOLY
 70
     0
  9
$TDCREATE
 40
2453083.4120647679
  9
$TDUPDATE
 40
2456597.666442188
  9
$TDINDWG
 40
0.2482181944
  9
$TDUSRTIMER
 40
0.2482180787
  9
$USRTIMER
 70
     1
  9
$ANGBASE
 50
0.0
  9
$ANGDIR
 70
     0
  9
$PDMODE
 70
     0
  9
$PDSIZE
 40
0.0
  9
$PLINEWID
 40
0.0
  9
$COORDS
 70
     1
  9
$SPLFRAME
 70
     0
  9
$SPLINETYPE
 70
     6
  9
$SPLINESEGS
 70
     8
  9
$ATTDIA
 70
     0
  9
$ATTREQ
 70
     1
  9
$HANDLING
 70
     1
  9
$HANDSEED
  5
D8C
  9
$SURFTAB1
 70
     6
  9
$SURFTAB2
 70
     6
  9
$SURFTYPE
 70
     6
  9
$SURFU
 70
     6
  9
$SURFV
 70
     6
  9
$UCSNAME
  2

  9
$UCSORG
 10
0.0
 20
0.0
 30
0.0
  9
$UCSXDIR
 10
1.0
 20
0.0
 30
0.0
  9
$UCSYDIR
 10
0.0
 20
1.0
 30
0.0
  9
$PUCSNAME
  2

  9
$PUCSORG
 10
0.0
 20
0.0
 30
0.0
  9
$PUCSXDIR
 10
1.0
 20
0.0
 30
0.0
  9
$PUCSYDIR
 10
0.0
 20
1.0
 30
0.0
  9
$USERI1
 70
     0
  9
$USERI2
 70
     1
  9
$USERI3
 70
     0
  9
$USERI4
 70
     0
  9
$USERI5
 70
     0
  9
$USERR1
 40
0.0
  9
$USERR2
 40
0.0
  9
$USERR3
 40
0.0
  9
$USERR4
 40
0.0
  9
$USERR5
 40
0.0
  9
$WORLDVIEW
 70
     1
  9
$SHADEDGE
 70
     3
  9
$SHADEDIF
 70
    70
  9
$TILEMODE
 70
     1
  9
$MAXACTVP
 70
    64
  9
$PLIMCHECK
 70
     0
  9
$PEXTMIN
 10
0.0
 20
0.0
 30
0.0
  9
$PEXTMAX
 10
0.0
 20
0.0
 30
0.0
  9
$PLIMMIN
 10
0.0
 20
0.0
  9
$PLIMMAX
 10
12.0
 20
9.0
  9
$UNITMODE
 70
     0
  9
$VISRETAIN
 70
     1
  9
$PLINEGEN
 70
     0
  9
$PSLTSCALE
 70
     1
  0
ENDSEC
  0
SECTION
  2
TABLES
  0
TABLE
  2
VPORT
 70
     1
  0
VPORT
  2
*ACTIVE
 70
     0
 10
0.0
 20
0.0
 11
1.0
 21
1.0
 12
93.36568745104347
 22
63.658251260598469
 13
0.0
 23
0.0
 14
0.5
 24
0.5
 15
0.5
 25
0.5
 16
0.0
 26
0.0
 36
1.0
 17
0.0
 27
0.0
 37
0.0
 40
134.4434229413479
 41
1.831871345029239
 42
50.0
 43
0.0
 44
0.0
 50
0.0
 51
0.0
 71
     0
 72
  1000
 73
     1
 74
     2
 75
     0
 76
     0
 77
     0
 78
     0
  0
ENDTAB
  0
TABLE
  2
LTYPE
 70
     4
  0
LTYPE
  2
CONTINUOUS
 70
     0
  3
Solid Line
 72
    65
 73
     0
 40
0.0
  0
LTYPE
  2
CENTER
 70
     0
  3
____ _ ____ _ ____ _ ____ _ ____ _ ____ _ ____
 72
    65
 73
     4
 40
2.0
 49
1.25
 49
-0.25
 49
0.25
 49
-0.25
  0
LTYPE
  2
HIDDEN
 70
     0
  3
_ _ _ _ _ _ _ _ _ _ _ _ _ _ _ _ _ _ _ _ _ _ _
 72
    65
 73
     2
 40
0.375
 49
0.25
 49
-0.125
  0
LTYPE
  2
PHANTOM2
 70
     0
  3
___ _ _ ___ _ _ ___ _ _ ___ _ _
 72
    65
 73
     6
 40
1.25
 49
0.625
 49
-0.125
 49
0.125
 49
-0.125
 49
0.125
 49
-0.125
  0
ENDTAB
  0
TABLE
  2
LAYER
 70
     4
  0
LAYER
  2
0
 70
     0
 62
     7
  6
CONTINUOUS
  0
LAYER
  2
1
 70
     0
 62
     1
  6
CENTER
  0
LAYER
  2
2
 70
     0
 62
     2
  6
HIDDEN
  0
LAYER
  2
3
 70
     0
 62
     3
  6
CONTINUOUS
  0
ENDTAB
  0
TABLE
  2
STYLE
 70
     2
  0
STYLE
  2
STANDARD
 70
     0
 40
0.0
 41
1.0
 50
0.0
 71
     0
 42
0.2
  3
simplex.shx
  4
bigfont.shx
  0
STYLE
  2
STANDARD1
 70
     0
 40
0.0
 41
1.0
 50
0.0
 71
     0
 42
3.0
  3
txt
  4

  0
ENDTAB
  0
TABLE
  2
VIEW
 70
     0
  0
ENDTAB
  0
TABLE
  2
UCS
 70
     0
  0
ENDTAB
  0
TABLE
  2
APPID
 70
     3
  0
APPID
  2
ACAD
 70
     0
  0
APPID
  2
ACAD_MLEADERVER
 70
     0
  0
APPID
  2
ACAD_NAV_VCDISPLAY
 70
     0
  0
ENDTAB
  0
TABLE
  2
DIMSTYLE
 70
     1
  0
DIMSTYLE
  2
STANDARD
 70
     0
  3

  4

  5

  6

  7

 40
1.0
 41
0.18
 42
0.0625
 43
0.38
 44
0.18
 45
0.0
 46
0.0
 47
0.0
 48
0.0
140
0.18
141
0.09
142
0.0
143
25.399999999999999
144
1.0
145
0.0
146
1.0
147
0.09
 71
     0
 72
     0
 73
     1
 74
     1
 75
     0
 76
     0
 77
     0
 78
     0
170
     0
171
     2
172
     0
173
     0
174
     0
175
     0
176
     0
177
     0
178
     0
  0
ENDTAB
  0
ENDSEC
  0
SECTION
  2
BLOCKS
  0
BLOCK
  8
0
  2
$MODEL_SPACE
 70
     0
 10
0.0
 20
0.0
 30
0.0
  3
$MODEL_SPACE
  1

  0
ENDBLK
  5
21
  8
0
  0
BLOCK
 67
     1
  8
0
  2
$PAPER_SPACE
 70
     0
 10
0.0
 20
0.0
 30
0.0
  3
$PAPER_SPACE
  1

  0
ENDBLK
  5
5B
 67
     1
  8
0
  0
ENDSEC
  0
SECTION
  2
ENTITIES
  0
LINE
  5
911
  8
0
 10
96.745048069816107
 20
100.1440775575263
 30
0.0
 11
96.562004301186676
 21
100.2821405412776
 31
0.0
  0
LINE
  5
912
  8
0
 10
97.319261522453303
 20
99.792375694416222
 30
0.0
 11
96.745048069816107
 21
100.1440775575263
 31
0.0
  0
LINE
  5
913
  8
0
 10
97.944067676972622
 20
99.526724311910314
 30
0.0
 11
97.319261522453303
 21
99.792375694416222
 31
0.0
  0
LINE
  5
914
  8
0
 10
98.609393348407025
 20
99.359593819282694
 30
0.0
 11
97.944067676972622
 21
99.526724311910314
 31
0.0
  0
LINE
  5
915
  8
0
 10
99.295068988349954
 20
99.298709537289795
 30
0.0
 11
98.609393348407025
 21
99.359593819282694
 31
0.0
  0
LINE
  5
916
  8
0
 10
100.05440534088019
 20
99.361211526594815
 30
0.0
 11
99.295068988349954
 21
99.298709537289795
 31
0.0
  0
LINE
  5
917
  8
0
 10
100.788740909148
 20
99.553578998349366
 30
0.0
 11
100.05440534088019
 21
99.361211526594815
 31
0.0
  0
LINE
  5
918
  8
0
 10
101.4857896393649
 20
99.8736270697934
 30
0.0
 11
100.788740909148
 21
99.553578998349366
 31
0.0
  0
LINE
  5
919
  8
0
 10
102.1147692831718
 20
100.2997723402602
 30
0.0
 11
101.4857896393649
 21
99.8736270697934
 31
0.0
  0
LINE
  5
921
  8
1
 10
93.331620041509325
 20
102.4220539970532
 30
0.0
 11
105.3316200415093
 21
102.4220539970532
 31
0.0
  0
LINE
  5
944
  8
0
 10
96.74504806981605
 20
67.340055150615854
 30
0.0
 11
96.562004301186619
 21
67.393386406528634
 31
0.0
  0
LINE
  5
945
  8
0
 10
97.319261522453246
 20
67.205147487747354
 30
0.0
 11
96.74504806981605
 21
67.340055150615854
 31
0.0
  0
LINE
  5
946
  8
0
 10
97.944067676972566
 20
67.104030070531053
 30
0.0
 11
97.319261522453246
 21
67.205147487747354
 31
0.0
  0
LINE
  5
947
  8
0
 10
98.609393348406968
 20
67.04050828300683
 30
0.0
 11
97.944067676972566
 21
67.104030070531053
 31
0.0
  0
LINE
  5
948
  8
0
 10
99.295068988349897
 20
67.016945821869058
 30
0.0
 11
98.609393348406968
 21
67.04050828300683
 31
0.0
  0
LINE
  5
949
  8
0
 10
100.05440534088009
 20
67.039388833272142
 30
0.0
 11
99.295068988349897
 21
67.016945821869058
 31
0.0
  0
LINE
  5
94A
  8
0
 10
100.788740909148
 20
67.110737455713434
 30
0.0
 11
100.05440534088009
 21
67.039388833272142
 31
0.0
  0
LINE
  5
94B
  8
0
 10
101.4857896393649
 20
67.230986101257486
 30
0.0
 11
100.788740909148
 21
67.110737455713434
 31
0.0
  0
LINE
  5
94C
  8
0
 10
102.1147692831717
 20
67.393386406528634
 30
0.0
 11
101.4857896393649
 21
67.230986101257486
 31
0.0
  0
LINE
  5
984
  8
0
 10
165.49063063679321
 20
52.393386689650839
 30
0.0
 11
165.49063063679321
 21
49.143386689650839
 31
0.0
  0
LINE
  5
987
  8
1
 10
154.49063063679341
 20
57.393386689650839
 30
0.0
 11
176.4906306367933
 21
57.393386689650818
 31
0.0
  0
LINE
  5
A09
  8
1
 10
165.4906306367933
 20
26.393386689650779
 30
0.0
 11
165.4906306367933
 21
72.393386019215001
 31
0.0
  0
LINE
  5
A0A
  8
0
 10
170.59063063679341
 20
42.893386689650747
 30
0.0
 11
170.59063063679341
 21
42.893386689650747
 31
0.0
  0
LINE
  5
A0B
  8
0
 10
170.59063063679341
 20
42.893386689650747
 30
0.0
 11
170.59063063679341
 21
42.893386689650747
 31
0.0
  0
LINE
  5
A0C
  8
0
 10
160.3906306367933
 20
42.893386689650789
 30
0.0
 11
160.3906306367933
 21
42.893386689650789
 31
0.0
  0
LINE
  5
A0D
  8
3
 10
160.3906306367933
 20
32.493386689650798
 30
0.0
 11
160.3906306367933
 21
42.893386689650789
 31
0.0
  0
LINE
  5
A0E
  8
0
 10
170.59063063679341
 20
42.893386689650747
 30
0.0
 11
170.59063063679341
 21
42.893386689650747
 31
0.0
  0
LINE
  5
A0F
  8
3
 10
170.59063063679321
 20
32.493386689650762
 30
0.0
 11
170.59063063679341
 21
42.893386689650747
 31
0.0
  0
LINE
  5
A10
  8
0
 10
170.19063063679329
 20
45.393386689650761
 30
0.0
 11
160.79063063679331
 21
45.393386689650818
 31
0.0
  0
LINE
  5
A12
  8
0
 10
160.79063063679331
 20
43.893386689650782
 30
0.0
 11
170.19063063679329
 21
43.893386689650747
 31
0.0
  0
LINE
  5
A22
  8
0
 10
158.4906306367933
 20
45.393386689650789
 30
0.0
 11
154.4906306367933
 21
45.393386689650811
 31
0.0
  0
LINE
  5
A23
  8
0
 10
159.4906306367933
 20
42.893386689650782
 30
0.0
 11
171.4906306367933
 21
42.89338668965074
 31
0.0
  0
LINE
  5
A25
  8
0
 10
159.49063063679321
 20
33.39338668965086
 30
0.0
 11
171.4906306367933
 21
33.393386689650747
 31
0.0
  0
LINE
  5
A26
  8
0
 10
169.49063063679321
 20
31.393386689650761
 30
0.0
 11
161.49063063679321
 21
31.393386689650828
 31
0.0
  0
LINE
  5
A2A
  8
0
 10
158.56242747498729
 20
51.578431991565061
 30
0.0
 11
158.56242747498729
 21
47.753858632112859
 31
0.0
  0
LINE
  5
A2B
  8
0
 10
158.56242747498749
 20
66.032914114820784
 30
0.0
 11
158.56242747498749
 21
63.208341268527342
 31
0.0
  0
LINE
  5
A2D
  8
0
 10
172.41883379859911
 20
51.578431991565012
 30
0.0
 11
172.41883379859911
 21
47.753858632112816
 31
0.0
  0
LINE
  5
A2E
  8
0
 10
172.4188337985992
 20
66.032914114820755
 30
0.0
 11
172.4188337985992
 21
63.208341268527299
 31
0.0
  0
LINE
  5
A30
  8
0
 10
158.4906306367933
 20
45.393386689650789
 30
0.0
 11
158.49063042705319
 21
46.393386689650796
 31
0.0
  0
LINE
  5
A31
  8
0
 10
154.4906307027247
 20
46.393386689650811
 30
0.0
 11
154.4906306367933
 21
45.393386689650811
 31
0.0
  0
LINE
  5
A32
  8
0
 10
170.19063063679329
 20
43.893386689650747
 30
0.0
 11
170.19063063679329
 21
45.393386689650761
 31
0.0
  0
LINE
  5
A33
  8
0
 10
160.79063063679331
 20
45.393386689650789
 30
0.0
 11
160.79063063679331
 21
43.893386689650782
 31
0.0
  0
ARC
  5
A34
  8
0
 10
159.79063063679331
 20
45.393386689650789
 30
0.0
 40
1.0
 50
0.0
 51
90.0
  0
ARC
  5
A35
  8
0
 10
171.19063063679329
 20
45.393386689650747
 30
0.0
 40
1.0
 50
90.0
 51
180.0000000000004
  0
ARC
  5
A36
  8
0
 10
171.19063063679329
 20
43.893386689650733
 30
0.0
 40
1.0
 50
180.0000000000004
 51
270.0
  0
ARC
  5
A37
  8
0
 10
159.79063063679331
 20
43.893386689650782
 30
0.0
 40
1.0
 50
270.0
 51
0.0
  0
LINE
  5
A38
  8
0
 10
171.4906306367933
 20
33.393386689650747
 30
0.0
 11
171.4906306367933
 21
42.89338668965074
 31
0.0
  0
LINE
  5
A39
  8
0
 10
159.4906306367933
 20
42.893386689650782
 30
0.0
 11
159.49063063679321
 21
33.393386689650796
 31
0.0
  0
LINE
  5
A3A
  8
0
 10
169.49063063679321
 20
31.393386689650761
 30
0.0
 11
171.4906306367933
 21
33.393386689650747
 31
0.0
  0
LINE
  5
A3B
  8
0
 10
159.49063063679321
 20
33.393386689650796
 30
0.0
 11
161.49063063679321
 21
31.393386689650779
 31
0.0
  0
LINE
  5
A40
  8
1
 10
99.302952063690967
 20
26.39338668965064
 30
0.0
 11
99.302952063690896
 21
72.393386019234697
 31
0.0
  0
LINE
  5
A41
  8
1
 10
131.63422424473339
 20
57.393386689650768
 30
0.0
 11
71.634224244733161
 21
57.393386689650541
 31
0.0
  0
LINE
  5
A42
  8
0
 10
104.4029520636909
 20
42.893386689650669
 30
0.0
 11
104.4029520636909
 21
42.893386689650669
 31
0.0
  0
LINE
  5
A43
  8
0
 10
104.4029520636909
 20
42.893386689650669
 30
0.0
 11
104.4029520636909
 21
42.893386689650669
 31
0.0
  0
LINE
  5
A44
  8
0
 10
94.20295206369093
 20
42.893386689650619
 30
0.0
 11
94.20295206369093
 21
42.893386689650619
 31
0.0
  0
LINE
  5
A45
  8
3
 10
94.202952063691043
 20
32.493386689650649
 30
0.0
 11
94.20295206369093
 21
42.893386689650619
 31
0.0
  0
LINE
  5
A46
  8
0
 10
104.4029520636909
 20
42.893386689650669
 30
0.0
 11
104.4029520636909
 21
42.893386689650669
 31
0.0
  0
LINE
  5
A47
  8
3
 10
104.4029520636909
 20
32.493386689650677
 30
0.0
 11
104.4029520636909
 21
42.893386689650669
 31
0.0
  0
LINE
  5
A49
  8
0
 10
104.002952063691
 20
45.393386689650669
 30
0.0
 11
94.602952063690907
 21
45.393386689650598
 31
0.0
  0
LINE
  5
A4A
  8
0
 10
94.602952063690907
 20
43.893386689650619
 30
0.0
 11
104.002952063691
 21
43.893386689650647
 31
0.0
  0
LINE
  5
A60
  8
0
 10
93.302952063690952
 20
42.893386689650598
 30
0.0
 11
105.3029520636909
 21
42.893386689650647
 31
0.0
  0
LINE
  5
A61
  8
0
 10
93.302952063690952
 20
33.393386689650633
 30
0.0
 11
105.3029520636909
 21
33.393386689650683
 31
0.0
  0
LINE
  5
A62
  8
0
 10
103.3029520636909
 20
31.393386689650651
 30
0.0
 11
95.302952063690938
 21
31.39338668965063
 31
0.0
  0
LINE
  5
A6B
  8
0
 10
99.302952063690839
 20
66.032914114820642
 30
0.0
 11
99.302952063690839
 21
47.753858632112717
 31
0.0
  0
LINE
  5
A78
  8
0
 10
101.3316200415093
 20
45.393386689650647
 30
0.0
 11
101.3316201301776
 21
46.393386689650683
 31
0.0
  0
LINE
  5
A79
  8
0
 10
97.331619940187863
 20
46.393386689650661
 30
0.0
 11
97.331620041509325
 21
45.393386689650647
 31
0.0
  0
LINE
  5
A7A
  8
0
 10
104.002952063691
 20
43.893386689650647
 30
0.0
 11
104.002952063691
 21
45.393386689650669
 31
0.0
  0
LINE
  5
A7B
  8
0
 10
94.602952063690907
 20
45.39338668965064
 30
0.0
 11
94.602952063690907
 21
43.893386689650619
 31
0.0
  0
ARC
  5
A7C
  8
0
 10
93.602952063690907
 20
45.393386689650619
 30
0.0
 40
1.0
 50
0.0
 51
90.0
  0
ARC
  5
A7D
  8
0
 10
105.002952063691
 20
45.393386689650669
 30
0.0
 40
1.0
 50
90.0
 51
180.0000000000004
  0
ARC
  5
A7E
  8
0
 10
105.002952063691
 20
43.893386689650647
 30
0.0
 40
1.0
 50
180.0000000000004
 51
270.0
  0
ARC
  5
A7F
  8
0
 10
93.602952063690907
 20
43.893386689650612
 30
0.0
 40
1.0
 50
270.00000000000171
 51
0.0
  0
LINE
  5
A80
  8
0
 10
105.3029520636909
 20
33.393386689650683
 30
0.0
 11
105.3029520636909
 21
42.893386689650647
 31
0.0
  0
LINE
  5
A81
  8
0
 10
93.302952063690952
 20
42.893386689650598
 30
0.0
 11
93.302952063690952
 21
33.393386689650633
 31
0.0
  0
LINE
  5
A82
  8
0
 10
103.3029520636909
 20
31.393386689650651
 30
0.0
 11
105.3029520636909
 21
33.393386689650683
 31
0.0
  0
LINE
  5
A83
  8
0
 10
93.302952063690952
 20
33.393386689650633
 30
0.0
 11
95.302952063690938
 21
31.39338668965063
 31
0.0
  0
LINE
  5
A88
  8
1
 10
131.63422424473319
 20
111.4220539970531
 30
0.0
 11
71.634224244732991
 21
111.4220539970533
 31
0.0
  0
LINE
  5
A89
  8
1
 10
99.302952063691023
 20
130.27846032066489
 30
0.0
 11
99.302952063690896
 21
92.393386019234697
 31
0.0
  0
ARC
  5
A9E
  8
0
 10
99.331620041509325
 20
102.4220539970532
 30
0.0
 40
3.5000000000000071
 50
322.67277803232668
 51
217.69107378283971
  0
ARC
  5
A9F
  8
0
 10
99.302952063690952
 20
111.4220539970532
 30
0.0
 40
11.500000000000011
 50
283.80916120035317
 51
256.49856501368862
  0
LINE
  5
AA1
  8
0
 10
87.302951959382767
 20
104.4938508352474
 30
0.0
 11
87.302951959382867
 21
118.35025715885909
 31
0.0
  0
CIRCLE
  5
AB7
  8
0
 10
165.4906306367933
 20
57.393386689650818
 30
0.0
 40
5.0
  0
CIRCLE
  5
AB8
  8
3
 10
165.4906306367933
 20
57.393386689650818
 30
0.0
 40
4.1879999999998736
  0
LINE
  5
AB9
  8
0
 10
167.99063063475759
 20
58.836762361450617
 30
0.0
 11
167.99063063475759
 21
55.950011015502938
 31
0.0
  0
LINE
  5
ABA
  8
0
 10
167.9906306347558
 20
55.950011017850791
 30
0.0
 11
165.49063063475771
 21
54.506635344876727
 31
0.0
  0
LINE
  5
ABB
  8
0
 10
165.4906306367931
 20
54.506635346053159
 30
0.0
 11
162.9906306367931
 21
55.950011019026782
 31
0.0
  0
LINE
  5
ABC
  8
0
 10
162.9906306388267
 20
55.95001101785261
 30
0.0
 11
162.9906306388267
 21
58.836762363800297
 31
0.0
  0
LINE
  5
ABD
  8
0
 10
162.9906306388267
 20
58.836762361450617
 30
0.0
 11
165.4906306388267
 21
60.280138034424681
 31
0.0
  0
LINE
  5
ABE
  8
0
 10
165.4906306367931
 20
60.280138033248242
 30
0.0
 11
167.9906306367931
 21
58.836762360274648
 31
0.0
  0
LINE
  5
AD6
  8
0
 10
125.83422424473321
 20
116.4220539970532
 30
0.0
 11
126.6342242447333
 21
115.036413350998
 31
0.0
  0
LINE
  5
AD7
  8
0
 10
125.83422424473321
 20
106.4220539970534
 30
0.0
 11
126.6342242447333
 21
107.80769464310841
 31
0.0
  0
LINE
  5
AD8
  8
0
 10
125.83422424473321
 20
106.4220539970534
 30
0.0
 11
125.83422424473321
 21
116.4220539970533
 31
0.0
  0
LINE
  5
ADA
  8
0
 10
126.6342242447333
 20
107.80769464310841
 30
0.0
 11
126.6342242447332
 21
115.0364133509979
 31
0.0
  0
LINE
  5
ADB
  8
0
 10
76.634224244732934
 20
107.9220539970534
 30
0.0
 11
76.634224244733048
 21
114.9220539970533
 31
0.0
  0
LINE
  5
ADC
  8
3
 10
77.322224244733036
 20
107.23405399705339
 30
0.0
 11
87.302951959382824
 21
107.23405399705339
 31
0.0
  0
LINE
  5
ADD
  8
3
 10
77.322224244733036
 20
115.6100539970533
 30
0.0
 11
87.302951959382824
 21
115.6100539970533
 31
0.0
  0
LINE
  5
ADE
  8
0
 10
78.134224244733048
 20
106.4220539970533
 30
0.0
 11
78.134224244733048
 21
116.4220539970533
 31
0.0
  0
LINE
  5
ADF
  8
0
 10
76.634224244733048
 20
107.9220539970533
 30
0.0
 11
78.134224244733048
 21
106.4220539970533
 31
0.0
  0
LINE
  5
AE0
  8
0
 10
76.634224244733048
 20
114.9220539970533
 30
0.0
 11
78.134224244733048
 21
116.4220539970533
 31
0.0
  0
LINE
  5
AE1
  8
0
 10
78.134224244733048
 20
106.4220539970533
 30
0.0
 11
87.302951959382767
 21
106.4220539970533
 31
0.0
  0
LINE
  5
AE2
  8
0
 10
78.134224244733048
 20
116.4220539970533
 30
0.0
 11
87.302951959382867
 21
116.4220539970533
 31
0.0
  0
LINE
  5
AFD
  8
0
 10
99.302952063690896
 20
97.565647673441504
 30
0.0
 11
87.302951959382767
 21
104.4938508352474
 31
0.0
  0
LINE
  5
AFE
  8
0
 10
87.302951959382867
 20
118.35025715885909
 30
0.0
 11
99.302952063691023
 21
125.278460320665
 31
0.0
  0
LINE
  5
AFF
  8
0
 10
99.302952063690952
 20
97.565647673441504
 30
0.0
 11
111.30295216799909
 21
104.4938508352474
 31
0.0
  0
LINE
  5
B00
  8
0
 10
111.3029521679989
 20
118.35025715885909
 30
0.0
 11
99.302952063690839
 21
125.278460320665
 31
0.0
  0
ARC
  5
B01
  8
0
 10
104.8831079622845
 20
107.172053997053
 30
0.0
 40
12.275506638416489
 50
339.74384199960662
 51
20.256158000393459
  0
LINE
  5
B02
  8
0
 10
117.1586146007009
 20
102.922053997053
 30
0.0
 11
117.302952167999
 21
103.17205399705411
 31
0.0
  0
LINE
  5
B03
  8
0
 10
111.44728973529639
 20
102.922053997053
 30
0.0
 11
111.3029521679983
 21
103.17205399705411
 31
0.0
  0
ARC
  5
B04
  8
0
 10
123.7227963737128
 20
107.172053997053
 30
0.0
 40
12.275506638416489
 50
159.7438419996065
 51
200.2561580003935
  0
LINE
  5
B05
  8
0
 10
117.1586146007009
 20
102.922053997053
 30
0.0
 11
111.44728973529639
 21
102.922053997053
 31
0.0
  0
LINE
  5
B06
  8
0
 10
116.3994252221466
 20
111.422053997053
 30
0.0
 11
112.20647911385051
 21
111.422053997053
 31
0.0
  0
LINE
  5
B07
  8
0
 10
117.1586146007009
 20
119.9220539970531
 30
0.0
 11
111.44728973529639
 21
119.922053997053
 31
0.0
  0
LINE
  5
B08
  8
0
 10
111.44728973529639
 20
119.9220539970531
 30
0.0
 11
111.3029521679983
 21
119.672053997052
 31
0.0
  0
ARC
  5
B09
  8
0
 10
123.7227963737128
 20
115.672053997053
 30
0.0
 40
12.275506638416489
 50
159.7438419996065
 51
200.2561580003935
  0
LINE
  5
B0A
  8
0
 10
117.1586146007009
 20
119.9220539970531
 30
0.0
 11
117.302952167999
 21
119.672053997052
 31
0.0
  0
ARC
  5
B0B
  8
0
 10
104.8831079622845
 20
115.672053997053
 30
0.0
 40
12.275506638416489
 50
339.74384199960662
 51
20.256158000393459
  0
LINE
  5
B0C
  8
0
 10
117.302952167999
 20
103.17205399705411
 30
0.0
 11
117.302952167999
 21
119.672053997052
 31
0.0
  0
LINE
  5
B0D
  8
0
 10
111.302952167999
 20
119.6720539970531
 30
0.0
 11
111.302952167999
 21
103.172053997053
 31
0.0
  0
LINE
  5
B0E
  8
0
 10
111.3029521679989
 20
118.35025715885909
 30
0.0
 11
111.30295216799909
 21
104.4938508352474
 31
0.0
  0
LINE
  5
B0F
  8
0
 10
117.302952167999
 20
116.4220539970533
 30
0.0
 11
125.83422424473309
 21
116.4220539970533
 31
0.0
  0
LINE
  5
B10
  8
3
 10
117.302952167999
 20
115.6100539970531
 30
0.0
 11
126.30303266331519
 21
115.6100539970531
 31
0.0
  0
LINE
  5
B11
  8
3
 10
117.302952167999
 20
107.23405399705339
 30
0.0
 11
126.30303266331531
 21
107.23405399705339
 31
0.0
  0
LINE
  5
B12
  8
0
 10
117.302952167999
 20
106.4220539970534
 30
0.0
 11
125.83422424473321
 21
106.4220539970535
 31
0.0
  0
CIRCLE
  5
B13
  8
3
 10
99.331620041509325
 20
102.4220539970532
 30
0.0
 40
2.458499999999999
  0
CIRCLE
  5
B14
  8
0
 10
99.331620041509325
 20
102.4220539970532
 30
0.0
 40
3.0
  0
LINE
  5
B15
  8
0
 10
98.465594638429252
 20
103.9220539958323
 30
0.0
 11
100.19764544599811
 21
103.9220539958323
 31
0.0
  0
LINE
  5
B16
  8
0
 10
100.1976454445893
 20
103.9220539958305
 30
0.0
 11
101.0636708483738
 21
102.4220539958323
 31
0.0
  0
LINE
  5
B17
  8
0
 10
101.06367084766779
 20
102.4220539970529
 30
0.0
 11
100.1976454438837
 21
100.9220539970529
 31
0.0
  0
LINE
  5
B18
  8
0
 10
100.1976454445884
 20
100.92205399827429
 30
0.0
 11
98.465594637019535
 21
100.92205399827429
 31
0.0
  0
LINE
  5
B19
  8
0
 10
98.465594638429494
 20
100.92205399827429
 30
0.0
 11
97.599569234644946
 21
102.42205399827429
 31
0.0
  0
LINE
  5
B1A
  8
0
 10
97.599569235350941
 20
102.4220539970529
 30
0.0
 11
98.46559463913502
 21
103.9220539970529
 31
0.0
  0
ARC
  5
B31
  8
0
 10
115.7921883033101
 20
50.032170757509597
 30
0.0
 40
4.3448986723233833
 50
145.61575253199521
 51
205.6157525321087
  0
ARC
  5
B32
  8
0
 10
127.6881002524534
 20
57.393386689676831
 30
0.0
 40
16.24081062146659
 50
162.41204622602811
 51
197.58795377397189
  0
LINE
  5
B33
  8
0
 10
112.2064790095407
 20
47.578432113453779
 30
0.0
 11
111.30295206368849
 21
49.143386689677342
 31
0.0
  0
LINE
  5
B34
  8
0
 10
116.3994251178368
 20
47.578432113453779
 30
0.0
 11
117.30295206368891
 21
49.143386689677342
 31
0.0
  0
ARC
  5
B35
  8
0
 10
112.8137158240674
 20
50.032170757509597
 30
0.0
 40
4.3448986723233833
 50
334.38424746789133
 51
34.384247468004801
  0
ARC
  5
B36
  8
0
 10
100.9178038749241
 20
57.393386689676831
 30
0.0
 40
16.24081062146659
 50
342.41204622602811
 51
17.587953773971911
  0
LINE
  5
B37
  8
0
 10
112.2064790095408
 20
47.578432113453779
 30
0.0
 11
116.3994251178367
 21
47.578432113453779
 31
0.0
  0
LINE
  5
B38
  8
0
 10
112.2064790095407
 20
52.485909401564513
 30
0.0
 11
116.3994251178369
 21
52.485909401565138
 31
0.0
  0
LINE
  5
B39
  8
0
 10
112.2064790095407
 20
62.300863977790179
 30
0.0
 11
116.3994251178369
 21
62.300863977789561
 31
0.0
  0
LINE
  5
B3A
  8
0
 10
112.2064790095408
 20
67.208341265900913
 30
0.0
 11
116.3994251178367
 21
67.208341265900913
 31
0.0
  0
ARC
  5
B3B
  8
0
 10
112.8137158240674
 20
64.754602621845095
 30
0.0
 40
4.3448986723233833
 50
325.6157525319951
 51
25.615752532108729
  0
LINE
  5
B3C
  8
0
 10
116.3994251178368
 20
67.208341265900913
 30
0.0
 11
117.30295206368891
 21
65.643386689677357
 31
0.0
  0
LINE
  5
B3D
  8
0
 10
112.2064790095407
 20
67.208341265900913
 30
0.0
 11
111.30295206368849
 21
65.643386689677357
 31
0.0
  0
ARC
  5
B3E
  8
0
 10
115.7921883033101
 20
64.754602621845095
 30
0.0
 40
4.3448986723233833
 50
154.3842474678913
 51
214.38424746800479
  0
LINE
  5
B3F
  8
0
 10
111.30295206368849
 20
49.143386689677342
 30
0.0
 11
111.30295206368881
 21
65.643386689677641
 31
0.0
  0
LINE
  5
B40
  8
0
 10
117.30295206368871
 20
65.643386689677698
 30
0.0
 11
117.30295206368871
 21
49.143386689677001
 31
0.0
  0
ARC
  5
B50
  8
0
 10
105.3029520636891
 20
49.774583867317197
 30
0.0
 40
17.330127017333279
 50
69.743841997639166
 51
110.25615800236081
  0
LINE
  5
B51
  8
0
 10
111.3029520637041
 20
67.104710884650544
 30
0.0
 11
110.8029520636891
 21
67.393386019253967
 31
0.0
  0
LINE
  5
B52
  8
0
 10
111.30295206370749
 20
46.682061862282829
 30
0.0
 11
110.8029520636925
 21
46.393386727679427
 31
0.0
  0
ARC
  5
B53
  8
0
 10
105.3029520636925
 20
64.012188879616176
 30
0.0
 40
17.330127017333279
 50
249.74384199763921
 51
290.25615800236091
  0
LINE
  5
B54
  8
0
 10
111.3029520637041
 20
67.104710884650544
 30
0.0
 11
111.3029520636716
 21
46.682061862262103
 31
0.0
  0
LINE
  5
B56
  8
0
 10
87.302952063674127
 20
67.104710884650544
 30
0.0
 11
87.302952063706641
 21
46.682061862265989
 31
0.0
  0
ARC
  5
B57
  8
0
 10
93.302952063692544
 20
64.012188879616176
 30
0.0
 40
17.330127017333279
 50
249.74384199763921
 51
290.25615800236091
  0
LINE
  5
B58
  8
0
 10
87.302952063677537
 20
46.682061862282829
 30
0.0
 11
87.802952063692544
 21
46.393386727679427
 31
0.0
  0
LINE
  5
B59
  8
0
 10
87.302952063674127
 20
67.104710884650544
 30
0.0
 11
87.802952063689133
 21
67.393386019253967
 31
0.0
  0
ARC
  5
B5A
  8
0
 10
93.302952063689133
 20
49.774583867317197
 30
0.0
 40
17.330127017333279
 50
69.743841997639166
 51
110.25615800236081
  0
LINE
  5
B5B
  8
0
 10
87.802952063622726
 20
67.393386019215541
 30
0.0
 11
110.8029520636891
 21
67.393386019253967
 31
0.0
  0
LINE
  5
B5C
  8
0
 10
110.8029520636925
 20
46.393386727679427
 30
0.0
 11
87.802952063626137
 21
46.393386727717854
 31
0.0
  0
LINE
  5
B5D
  8
0
 10
117.30295216799909
 20
52.393386689650697
 30
0.0
 11
125.83422424473341
 21
52.393386689650718
 31
0.0
  0
LINE
  5
B5E
  8
3
 10
117.30295216799909
 20
53.205386689650616
 30
0.0
 11
126.30303266331541
 21
53.205386689650616
 31
0.0
  0
LINE
  5
B5F
  8
0
 10
126.6342242447334
 20
53.779027335705642
 30
0.0
 11
126.6342242447333
 21
61.007746043595212
 31
0.0
  0
LINE
  5
B60
  8
0
 10
125.83422424473341
 20
52.393386689650612
 30
0.0
 11
125.83422424473341
 21
62.393386689650583
 31
0.0
  0
LINE
  5
B61
  8
0
 10
125.83422424473341
 20
52.393386689650612
 30
0.0
 11
126.6342242447334
 21
53.779027335705642
 31
0.0
  0
LINE
  5
B62
  8
3
 10
117.30295216799909
 20
61.581386689650401
 30
0.0
 11
126.30303266331531
 21
61.581386689650401
 31
0.0
  0
LINE
  5
B63
  8
0
 10
117.30295216799909
 20
62.393386689650583
 30
0.0
 11
125.83422424473321
 21
62.393386689650583
 31
0.0
  0
LINE
  5
B64
  8
0
 10
125.83422424473341
 20
62.393386689650413
 30
0.0
 11
126.6342242447334
 21
61.007746043595262
 31
0.0
  0
LINE
  5
B65
  8
0
 10
78.134224244733161
 20
52.393386689650548
 30
0.0
 11
87.302951959382938
 21
52.393386689650583
 31
0.0
  0
LINE
  5
B66
  8
0
 10
76.634224244733161
 20
53.893386689650562
 30
0.0
 11
78.134224244733161
 21
52.393386689650548
 31
0.0
  0
LINE
  5
B67
  8
0
 10
78.134224244733161
 20
52.393386689650548
 30
0.0
 11
78.134224244733161
 21
62.393386689650583
 31
0.0
  0
LINE
  5
B68
  8
3
 10
77.32222424473315
 20
53.205386689650616
 30
0.0
 11
87.302951959382938
 21
53.205386689650616
 31
0.0
  0
LINE
  5
B69
  8
0
 10
76.634224244733105
 20
53.893386689650612
 30
0.0
 11
76.634224244733218
 21
60.893386689650519
 31
0.0
  0
LINE
  5
B6A
  8
0
 10
78.134224244733161
 20
62.393386689650583
 30
0.0
 11
87.302951959383051
 21
62.393386689650526
 31
0.0
  0
LINE
  5
B6B
  8
0
 10
76.634224244733161
 20
60.89338668965059
 30
0.0
 11
78.134224244733161
 21
62.393386689650583
 31
0.0
  0
LINE
  5
B6C
  8
3
 10
77.32222424473315
 20
61.581386689650571
 30
0.0
 11
87.302951959382938
 21
61.581386689650508
 31
0.0
  0
LINE
  5
B72
  8
0
 10
156.99063063679341
 20
62.300863977762667
 30
0.0
 11
156.9906306367933
 21
52.485909401538962
 31
0.0
  0
LINE
  5
B73
  8
0
 10
156.9906306367933
 20
52.485909401538962
 30
0.0
 11
165.49063063679341
 21
47.578432113427162
 31
0.0
  0
LINE
  5
B74
  8
0
 10
165.49063063679341
 20
47.578432113427162
 30
0.0
 11
173.9906306367933
 21
52.485909401538962
 31
0.0
  0
LINE
  5
B75
  8
0
 10
173.9906306367933
 20
52.485909401538962
 30
0.0
 11
173.9906306367933
 21
62.30086397776256
 31
0.0
  0
LINE
  5
B76
  8
0
 10
173.9906306367933
 20
62.30086397776256
 30
0.0
 11
165.4906306367933
 21
67.208341265874367
 31
0.0
  0
LINE
  5
B77
  8
0
 10
165.4906306367933
 20
67.208341265874367
 30
0.0
 11
156.99063063679341
 21
62.300863977762667
 31
0.0
  0
CIRCLE
  5
B78
  8
0
 10
165.4906306367933
 20
57.393386689650818
 30
0.0
 40
8.25
  0
ARC
  5
B7B
  8
0
 10
165.49063070526279
 20
44.176507656510488
 30
0.0
 40
22.928203228139491
 50
72.412046224314139
 51
107.5879537756858
  0
ARC
  5
B7C
  8
0
 10
155.0983258598493
 20
60.970736288929203
 30
0.0
 40
6.1339745957208214
 50
55.61575252879237
 51
115.615752530148
  0
LINE
  5
B7D
  8
0
 10
151.63422424468979
 20
66.032914114820784
 30
0.0
 11
153.99063070537059
 21
67.393386019215001
 31
0.0
  0
LINE
  5
B81
  8
0
 10
151.6342242447335
 20
66.032914114820784
 30
0.0
 11
151.63422424473339
 21
47.753858553025509
 31
0.0
  0
LINE
  5
B87
  8
0
 10
179.34703716583579
 20
66.032914114820784
 30
0.0
 11
176.9906307051551
 21
67.393386019215001
 31
0.0
  0
ARC
  5
B88
  8
0
 10
175.88293555067631
 20
60.970736288929203
 30
0.0
 40
6.1339745957208214
 50
64.384247469851942
 51
124.3842474712076
  0
LINE
  5
B89
  8
0
 10
153.99063070526279
 20
67.393386019215001
 30
0.0
 11
176.9906307051551
 21
67.393386019215001
 31
0.0
  0
LINE
  5
B8B
  8
0
 10
176.99063056821589
 20
46.393386727718408
 30
0.0
 11
153.99063056843141
 21
46.393386727718408
 31
0.0
  0
LINE
  5
B8C
  8
0
 10
179.34703702889669
 20
47.753858632112617
 30
0.0
 11
176.99063056821589
 21
46.393386727718408
 31
0.0
  0
ARC
  5
B8D
  8
0
 10
175.88293541373719
 20
52.816036458004199
 30
0.0
 40
6.1339745957208214
 50
235.61575252879231
 51
295.61575253014809
  0
ARC
  5
B8E
  8
0
 10
165.4906305683237
 20
69.610265090422899
 30
0.0
 40
22.928203228139491
 50
252.41204622431411
 51
287.58795377568589
  0
ARC
  5
B8F
  8
0
 10
155.0983257229102
 20
52.816036458004199
 30
0.0
 40
6.1339745957208214
 50
244.384247469852
 51
304.38424747120757
  0
LINE
  5
B90
  8
0
 10
151.6342241077507
 20
47.753858632112617
 30
0.0
 11
153.99063056843141
 21
46.393386727718408
 31
0.0
  0
LINE
  5
B91
  8
0
 10
179.3470371658795
 20
66.032914114820784
 30
0.0
 11
179.34703716587941
 21
47.753858553025509
 31
0.0
  0
LINE
  5
BE1
  8
1
 10
156.4906306367933
 20
42.893386689650811
 30
0.0
 11
156.4906306367933
 21
69.893386019215001
 31
0.0
  0
LINE
  5
BEE
  8
1
 10
42.115273490588493
 20
42.893386689650811
 30
0.0
 11
42.115273490588493
 21
69.893386019215001
 31
0.0
  0
LINE
  5
BEF
  8
2
 10
39.115478985052903
 20
47.093386712188817
 30
0.0
 11
39.815478969523333
 21
46.393386727718408
 31
0.0
  0
LINE
  5
BF0
  8
2
 10
39.115478985052903
 20
47.093386712188817
 30
0.0
 11
45.115478985050572
 21
47.093386712188817
 31
0.0
  0
LINE
  5
BF1
  8
2
 10
44.41547900058012
 20
46.393386727718408
 30
0.0
 11
45.115478985050508
 21
47.093386712188817
 31
0.0
  0
LINE
  5
BF2
  8
2
 10
39.115478985052953
 20
61.893387497107511
 30
0.0
 11
39.981504388837422
 21
62.393387497107447
 31
0.0
  0
LINE
  5
BF3
  8
2
 10
45.115478985050558
 20
61.893387497107511
 30
0.0
 11
44.249453581266081
 21
62.393387497107447
 31
0.0
  0
LINE
  5
BF4
  8
2
 10
39.115478985052889
 20
61.893387497107462
 30
0.0
 11
45.115478985050501
 21
61.893387497107462
 31
0.0
  0
LINE
  5
BF5
  8
2
 10
39.115478985052889
 20
61.893387497107462
 30
0.0
 11
39.115478985052881
 21
46.393386727718408
 31
0.0
  0
LINE
  5
BF6
  8
2
 10
39.656978985053399
 20
66.393386737148234
 30
0.0
 11
39.656978985053357
 21
46.393386727718408
 31
0.0
  0
LINE
  5
BF7
  8
2
 10
44.573978985049898
 20
66.39338673714829
 30
0.0
 11
44.573978985049862
 21
46.393386727718408
 31
0.0
  0
LINE
  5
BF8
  8
2
 10
45.115478985050501
 20
61.893387497107462
 30
0.0
 11
45.115478985050508
 21
46.682180465127459
 31
0.0
  0
LINE
  5
BF9
  8
2
 10
39.981504388837422
 20
62.393387497107447
 30
0.0
 11
44.249453581266202
 21
62.393387497107447
 31
0.0
  0
LINE
  5
BFA
  8
2
 10
42.115479217882047
 20
58.893387088139363
 30
0.0
 11
40.615479204843929
 21
59.893387087325522
 31
0.0
  0
LINE
  5
BFB
  8
2
 10
43.615479230920961
 20
59.89338708732555
 30
0.0
 11
42.115479217882047
 21
58.893387088139363
 31
0.0
  0
LINE
  5
BFC
  8
0
 10
19.258866961502289
 20
66.032914114820784
 30
0.0
 11
19.258866961502349
 21
47.753858553025509
 31
0.0
  0
LINE
  5
BFD
  8
0
 10
46.971680019631087
 20
47.753858632112617
 30
0.0
 11
44.615273558950307
 21
46.393386727718408
 31
0.0
  0
ARC
  5
BFE
  8
0
 10
43.50757840447158
 20
52.816036458004199
 30
0.0
 40
6.1339745957208214
 50
235.61575252879231
 51
295.61575253014809
  0
ARC
  5
BFF
  8
0
 10
33.115273559058103
 20
69.610265090422899
 30
0.0
 40
22.928203228139491
 50
252.41204622431411
 51
287.58795377568589
  0
ARC
  5
C00
  8
0
 10
22.722968713644601
 20
52.816036458004199
 30
0.0
 40
6.1339745957208214
 50
244.384247469852
 51
304.38424747120757
  0
LINE
  5
C01
  8
0
 10
19.258867098485101
 20
47.753858632112617
 30
0.0
 11
21.615273559165871
 21
46.393386727718408
 31
0.0
  0
LINE
  5
C02
  8
0
 10
21.615273559165871
 20
46.393386727718408
 30
0.0
 11
44.615273558950307
 21
46.393386727718408
 31
0.0
  0
LINE
  5
C03
  8
0
 10
44.615273422118939
 20
67.393386019215001
 30
0.0
 11
21.615273422226721
 21
67.393386019215001
 31
0.0
  0
ARC
  5
C04
  8
0
 10
22.722968576705458
 20
60.970736288929203
 30
0.0
 40
6.1339745957208214
 50
55.615752528792363
 51
115.615752530148
  0
LINE
  5
C05
  8
0
 10
19.258866961545952
 20
66.032914114820784
 30
0.0
 11
21.615273422226721
 21
67.393386019215001
 31
0.0
  0
LINE
  5
C06
  8
0
 10
46.971679882648289
 20
66.032914114820784
 30
0.0
 11
46.971679882648338
 21
47.753858553025509
 31
0.0
  0
LINE
  5
C07
  8
0
 10
46.971679882691937
 20
66.032914114820784
 30
0.0
 11
44.615273422011171
 21
67.393386019215001
 31
0.0
  0
ARC
  5
C08
  8
0
 10
43.507578267532438
 20
60.970736288929203
 30
0.0
 40
6.1339745957208214
 50
64.384247469851942
 51
124.3842474712076
  0
ARC
  5
C09
  8
0
 10
33.115273422118953
 20
44.176507656510488
 30
0.0
 40
22.928203228139491
 50
72.412046224314153
 51
107.5879537756858
  0
CIRCLE
  5
C18
  8
3
 10
33.115273490588443
 20
57.393386689650818
 30
0.0
 40
4.1879999999998736
  0
CIRCLE
  5
C19
  8
0
 10
33.115273490588443
 20
57.393386689650818
 30
0.0
 40
5.0
  0
LINE
  5
C1A
  8
0
 10
39.11527349058855
 20
33.393386689650796
 30
0.0
 11
37.11527349058855
 21
31.393386689650779
 31
0.0
  0
LINE
  5
C1B
  8
0
 10
29.11527349058855
 20
31.393386689650761
 30
0.0
 11
27.115273490588439
 21
33.393386689650747
 31
0.0
  0
LINE
  5
C1C
  8
0
 10
39.115273490588429
 20
42.893386689650782
 30
0.0
 11
39.11527349058855
 21
33.393386689650796
 31
0.0
  0
LINE
  5
C1D
  8
0
 10
27.115273490588439
 20
33.393386689650747
 30
0.0
 11
27.115273490588439
 21
42.89338668965074
 31
0.0
  0
ARC
  5
C1E
  8
0
 10
38.815273490588481
 20
43.893386689650782
 30
0.0
 40
1.0
 50
180.0
 51
270.0
  0
ARC
  5
C1F
  8
0
 10
27.415273490588511
 20
43.893386689650733
 30
0.0
 40
1.0
 50
270.0
 51
359.9999999999996
  0
ARC
  5
C20
  8
0
 10
27.415273490588511
 20
45.393386689650747
 30
0.0
 40
1.0
 50
359.9999999999996
 51
90.0
  0
ARC
  5
C21
  8
0
 10
38.815273490588481
 20
45.393386689650789
 30
0.0
 40
1.0
 50
90.0
 51
180.0
  0
LINE
  5
C22
  8
0
 10
37.815273490588481
 20
45.393386689650789
 30
0.0
 11
37.815273490588481
 21
43.893386689650782
 31
0.0
  0
LINE
  5
C23
  8
0
 10
28.4152734905885
 20
43.893386689650747
 30
0.0
 11
28.4152734905885
 21
45.393386689650761
 31
0.0
  0
LINE
  5
C24
  8
0
 10
44.115273424657047
 20
46.393386689650811
 30
0.0
 11
44.115273490588478
 21
45.393386689650811
 31
0.0
  0
LINE
  5
C25
  8
0
 10
40.115273490588471
 20
45.393386689650789
 30
0.0
 11
40.11527370032853
 21
46.393386689650796
 31
0.0
  0
LINE
  5
C27
  8
0
 10
26.187070328782681
 20
66.032914158228749
 30
0.0
 11
26.187070328782681
 21
47.753858632112816
 31
0.0
  0
LINE
  5
C29
  8
0
 10
40.043476652394418
 20
66.032914114820755
 30
0.0
 11
40.043476652394418
 21
47.753858632112859
 31
0.0
  0
LINE
  5
C2A
  8
0
 10
29.11527349058855
 20
31.393386689650761
 30
0.0
 11
37.115273490588613
 21
31.393386689650828
 31
0.0
  0
LINE
  5
C2B
  8
0
 10
39.115273490588613
 20
33.39338668965086
 30
0.0
 11
27.115273490588439
 21
33.393386689650747
 31
0.0
  0
LINE
  5
C2C
  8
0
 10
39.115273490588429
 20
42.893386689650782
 30
0.0
 11
27.115273490588439
 21
42.89338668965074
 31
0.0
  0
LINE
  5
C2D
  8
0
 10
40.115273490588471
 20
45.393386689650789
 30
0.0
 11
44.115273490588478
 21
45.393386689650811
 31
0.0
  0
LINE
  5
C2E
  8
0
 10
37.815273490588481
 20
43.893386689650782
 30
0.0
 11
28.4152734905885
 21
43.893386689650747
 31
0.0
  0
LINE
  5
C2F
  8
0
 10
28.4152734905885
 20
45.393386689650761
 30
0.0
 11
37.815273490588481
 21
45.393386689650818
 31
0.0
  0
LINE
  5
C30
  8
3
 10
28.01527349058853
 20
32.493386689650762
 30
0.0
 11
28.01527349058842
 21
42.893386689650747
 31
0.0
  0
LINE
  5
C31
  8
0
 10
28.01527349058842
 20
42.893386689650747
 30
0.0
 11
28.01527349058842
 21
42.893386689650747
 31
0.0
  0
LINE
  5
C32
  8
3
 10
38.215273490588459
 20
32.493386689650798
 30
0.0
 11
38.215273490588459
 21
42.893386689650789
 31
0.0
  0
LINE
  5
C33
  8
0
 10
38.215273490588459
 20
42.893386689650789
 30
0.0
 11
38.215273490588459
 21
42.893386689650789
 31
0.0
  0
LINE
  5
C34
  8
0
 10
28.01527349058842
 20
42.893386689650747
 30
0.0
 11
28.01527349058842
 21
42.893386689650747
 31
0.0
  0
LINE
  5
C35
  8
0
 10
28.01527349058842
 20
42.893386689650747
 30
0.0
 11
28.01527349058842
 21
42.893386689650747
 31
0.0
  0
LINE
  5
C36
  8
1
 10
33.115273490588443
 20
26.393386689650779
 30
0.0
 11
33.115273490588493
 21
72.393386019215001
 31
0.0
  0
LINE
  5
C37
  8
2
 10
38.656932018592961
 20
67.393386737148234
 30
0.0
 11
39.656978985053399
 21
66.393386737148234
 31
0.0
  0
LINE
  5
C38
  8
2
 10
44.573978985049898
 20
66.39338673714829
 30
0.0
 11
45.223089447663646
 21
67.042463273186755
 31
0.0
  0
LINE
  5
C39
  8
2
 10
39.656978985053428
 20
66.393386737148234
 30
0.0
 11
44.573978985049919
 21
66.39338673714829
 31
0.0
  0
LINE
  5
C3A
  8
2
 10
43.615479230920961
 20
59.89338708732555
 30
0.0
 11
43.615479230920961
 21
62.393387497107483
 31
0.0
  0
LINE
  5
C3B
  8
2
 10
40.615479204843929
 20
59.893387087325522
 30
0.0
 11
43.615479230920961
 21
59.89338708732555
 31
0.0
  0
LINE
  5
C3C
  8
2
 10
40.615479204843929
 20
62.393387497107447
 30
0.0
 11
40.615479204843929
 21
59.893387087325522
 31
0.0
  0
LINE
  5
C3D
  8
2
 10
42.115478985051801
 20
59.893387087325522
 30
0.0
 11
42.115478985051801
 21
62.393387497107447
 31
0.0
  0
LINE
  5
C3E
  8
2
 10
44.415300920645997
 20
46.393386737148262
 30
0.0
 11
44.942165933589749
 21
46.920218804555937
 31
0.0
  0
LINE
  5
C3F
  8
1
 10
44.115273490588322
 20
57.393386689650839
 30
0.0
 11
22.115273490588439
 21
57.393386689650818
 31
0.0
  0
LINE
  5
C40
  8
0
 10
33.11527349058855
 20
52.393386689650839
 30
0.0
 11
33.11527349058855
 21
49.143386689650839
 31
0.0
  0
TEXT
  5
CF8
  8
0
 62
     3
 10
0.0
 20
0.0
 30
0.0
 40
10.0
  1
BJ214-12001
  7
STANDARD1
  0
ENDSEC
  0
EOF
