  0
SECTION
  2
HEADER
  9
$ACADVER
  1
AC1009
  9
$INSBASE
 10
0.0
 20
0.0
 30
0.0
  9
$EXTMIN
 10
0.0
 20
-2.960436562073669
 30
0.0
  9
$EXTMAX
 10
192.67387241125101
 20
197.00000073760739
 30
0.0
  9
$LIMMIN
 10
0.0
 20
0.0
  9
$LIMMAX
 10
187.5
 20
135.0
  9
$ORTHOMODE
 70
     0
  9
$REGENMODE
 70
     1
  9
$FILLMODE
 70
     1
  9
$QTEXTMODE
 70
     0
  9
$MIRRTEXT
 70
     0
  9
$DRAGMODE
 70
     2
  9
$LTSCALE
 40
5.0
  9
$OSMODE
 70
    37
  9
$ATTMODE
 70
     1
  9
$TEXTSIZE
 40
0.2
  9
$TRACEWID
 40
0.05
  9
$TEXTSTYLE
  7
STANDARD
  9
$CLAYER
  8
0
  9
$CELTYPE
  6
BYLAYER
  9
$CECOLOR
 62
   256
  9
$DIMSCALE
 40
0.5
  9
$DIMASZ
 40
3.0
  9
$DIMEXO
 40
2.0
  9
$DIMDLI
 40
0.38
  9
$DIMRND
 40
0.0
  9
$DIMDLE
 40
0.0
  9
$DIMEXE
 40
2.0
  9
$DIMTP
 40
0.0
  9
$DIMTM
 40
0.0
  9
$DIMTXT
 40
3.0
  9
$DIMCEN
 40
0.0
  9
$DIMTSZ
 40
0.0
  9
$DIMTOL
 70
     0
  9
$DIMLIM
 70
     0
  9
$DIMTIH
 70
     0
  9
$DIMTOH
 70
     0
  9
$DIMSE1
 70
     0
  9
$DIMSE2
 70
     0
  9
$DIMTAD
 70
     1
  9
$DIMZIN
 70
     0
  9
$DIMBLK
  1

  9
$DIMASO
 70
     0
  9
$DIMSHO
 70
     0
  9
$DIMPOST
  1

  9
$DIMAPOST
  1

  9
$DIMALT
 70
     0
  9
$DIMALTD
 70
     2
  9
$DIMALTF
 40
25.399999999999999
  9
$DIMLFAC
 40
1.0
  9
$DIMTOFL
 70
     1
  9
$DIMTVP
 40
1.6000000000000001
  9
$DIMTIX
 70
     1
  9
$DIMSOXD
 70
     0
  9
$DIMSAH
 70
     0
  9
$DIMBLK1
  1

  9
$DIMBLK2
  1

  9
$DIMSTYLE
  2
STANDARD
  9
$DIMCLRD
 70
     0
  9
$DIMCLRE
 70
     0
  9
$DIMCLRT
 70
     0
  9
$DIMTFAC
 40
1.0
  9
$DIMGAP
 40
0.09
  9
$LUNITS
 70
     2
  9
$LUPREC
 70
     4
  9
$SKETCHINC
 40
0.1
  9
$FILLETRAD
 40
0.0
  9
$AUNITS
 70
     0
  9
$AUPREC
 70
     4
  9
$MENU
  1
E:\r13\win\SUPPORT\ACAD
  9
$ELEVATION
 40
0.0
  9
$PELEVATION
 40
0.0
  9
$THICKNESS
 40
0.0
  9
$LIMCHECK
 70
     0
  9
$BLIPMODE
 70
     0
  9
$CHAMFERA
 40
0.0
  9
$CHAMFERB
 40
0.0
  9
$SKPOLY
 70
     0
  9
$TDCREATE
 40
2449840.3512499998
  9
$TDUPDATE
 40
2456969.403633276
  9
$TDINDWG
 40
0.2581290046
  9
$TDUSRTIMER
 40
0.2581290046
  9
$USRTIMER
 70
     1
  9
$ANGBASE
 50
0.0
  9
$ANGDIR
 70
     0
  9
$PDMODE
 70
     0
  9
$PDSIZE
 40
0.0
  9
$PLINEWID
 40
0.0
  9
$COORDS
 70
     1
  9
$SPLFRAME
 70
     0
  9
$SPLINETYPE
 70
     6
  9
$SPLINESEGS
 70
     8
  9
$ATTDIA
 70
     0
  9
$ATTREQ
 70
     1
  9
$HANDLING
 70
     1
  9
$HANDSEED
  5
2130
  9
$SURFTAB1
 70
     6
  9
$SURFTAB2
 70
     6
  9
$SURFTYPE
 70
     6
  9
$SURFU
 70
     6
  9
$SURFV
 70
     6
  9
$UCSNAME
  2

  9
$UCSORG
 10
0.0
 20
0.0
 30
0.0
  9
$UCSXDIR
 10
1.0
 20
0.0
 30
0.0
  9
$UCSYDIR
 10
0.0
 20
1.0
 30
0.0
  9
$PUCSNAME
  2

  9
$PUCSORG
 10
0.0
 20
0.0
 30
0.0
  9
$PUCSXDIR
 10
1.0
 20
0.0
 30
0.0
  9
$PUCSYDIR
 10
0.0
 20
1.0
 30
0.0
  9
$USERI1
 70
     3
  9
$USERI2
 70
     1
  9
$USERI3
 70
     0
  9
$USERI4
 70
     0
  9
$USERI5
 70
     0
  9
$USERR1
 40
0.5
  9
$USERR2
 40
3.0
  9
$USERR3
 40
3.0
  9
$USERR4
 40
3.0
  9
$USERR5
 40
10.0
  9
$WORLDVIEW
 70
     1
  9
$SHADEDGE
 70
     3
  9
$SHADEDIF
 70
    70
  9
$TILEMODE
 70
     1
  9
$MAXACTVP
 70
    16
  9
$PLIMCHECK
 70
     0
  9
$PEXTMIN
 10
1.0000000000000000E+020
 20
1.0000000000000000E+020
 30
1.0000000000000000E+020
  9
$PEXTMAX
 10
-1.0000000000000000E+020
 20
-1.0000000000000000E+020
 30
-1.0000000000000000E+020
  9
$PLIMMIN
 10
0.0
 20
0.0
  9
$PLIMMAX
 10
12.0
 20
9.0
  9
$UNITMODE
 70
     0
  9
$VISRETAIN
 70
     0
  9
$PLINEGEN
 70
     0
  9
$PSLTSCALE
 70
     0
  0
ENDSEC
  0
SECTION
  2
TABLES
  0
TABLE
  2
VPORT
 70
     1
  0
VPORT
  2
*ACTIVE
 70
     0
 10
0.0
 20
0.0
 11
1.0
 21
1.0
 12
235.63977746870651
 22
135.0
 13
0.0
 23
0.0
 14
5.0
 24
5.0
 15
10.0
 25
10.0
 16
0.0
 26
0.0
 36
1.0
 17
0.0
 27
0.0
 37
0.0
 40
270.0
 41
1.7454798331015291
 42
50.0
 43
0.0
 44
0.0
 50
0.0
 51
0.0
 71
     0
 72
   100
 73
     1
 74
     0
 75
     0
 76
     0
 77
     0
 78
     2
  0
ENDTAB
  0
TABLE
  2
LTYPE
 70
     4
  0
LTYPE
  2
CONTINUOUS
 70
     0
  3
Solid Line
 72
    65
 73
     0
 40
0.0
  0
LTYPE
  2
CENTER
 70
     0
  3
____ _ ____ _ ____ _ ____ _ ____ _ ____ _ ____
 72
    65
 73
     4
 40
2.0
 49
1.25
 49
-0.25
 49
0.25
 49
-0.25
  0
LTYPE
  2
HIDDEN
 70
     0
  3
__ __ __ __ __ __ __ __ __ __ __ __ __ __ __ __
 72
    65
 73
     2
 40
0.375
 49
0.25
 49
-0.125
  0
LTYPE
  2
PHANTOM2
 70
     0
  3
___ _ _ ___ _ _ ___ _ _ ___ _ _
 72
    65
 73
     6
 40
1.25
 49
0.625
 49
-0.125
 49
0.125
 49
-0.125
 49
0.125
 49
-0.125
  0
ENDTAB
  0
TABLE
  2
LAYER
 70
     5
  0
LAYER
  2
0
 70
     0
 62
     7
  6
CONTINUOUS
  0
LAYER
  2
1
 70
     0
 62
     1
  6
CENTER
  0
LAYER
  2
3
 70
     0
 62
     3
  6
CONTINUOUS
  0
LAYER
  2
2
 70
     0
 62
     2
  6
HIDDEN
  0
LAYER
  2
DEFPOINTS
 70
     0
 62
     7
  6
CONTINUOUS
  0
ENDTAB
  0
TABLE
  2
STYLE
 70
     2
  0
STYLE
  2
STANDARD
 70
     0
 40
0.0
 41
1.0
 50
0.0
 71
     0
 42
0.2
  3
TXT
  4
BIGFONT
  0
STYLE
  2
STANDARD1
 70
     0
 40
0.0
 41
1.0
 50
0.0
 71
     0
 42
3.0
  3
txt
  4

  0
ENDTAB
  0
TABLE
  2
VIEW
 70
     0
  0
ENDTAB
  0
TABLE
  2
UCS
 70
     0
  0
ENDTAB
  0
TABLE
  2
APPID
 70
    41
  0
APPID
  2
ACAD
 70
     0
  0
APPID
  2
ACAD_MLEADERVER
 70
     0
  0
APPID
  2
_CALL_MAC$
 70
     0
  0
APPID
  2
DCO15
 70
     0
  0
APPID
  2
GENIUS_GENOREF_13
 70
     0
  0
APPID
  2
GENIUS_GENOENT_13
 70
     0
  0
APPID
  2
GENIUS_GENBH_13
 70
     0
  0
APPID
  2
GENIUS_GENOBJ_13
 70
     0
  0
APPID
  2
GENIUS_GENODEF_13
 70
     0
  0
APPID
  2
GENIUS_GENOLIS_13
 70
     0
  0
APPID
  2
GENIUS_GENOBJ-NBEHI-BHF_13
 70
     0
  0
APPID
  2
GENIUS_GENOBJ-NBEHI-BHB_13
 70
     0
  0
APPID
  2
GENIUS_GENOBJ-F-PART_13
 70
     0
  0
APPID
  2
GENIUS_GEFSTDP_13
 70
     0
  0
APPID
  2
GENIUS_GENOBJ-N-RSSYM_13
 70
     0
  0
APPID
  2
GENIUS_GENSYMENT_13
 70
     0
  0
APPID
  2
GENIUS_GENOBJ-N-TIT_13
 70
     0
  0
APPID
  2
GENIUS_GENTITLE_13
 70
     0
  0
APPID
  2
GENIUS_GENZVEED_13
 70
     0
  0
APPID
  2
GENIUS_GENOBJ-N-LEADER_13
 70
     0
  0
APPID
  2
GENIUS_GENOBJ-N-FIL_13
 70
     0
  0
APPID
  2
GENIUS_GENOBJ-N-SEC_13
 70
     0
  0
APPID
  2
GENIUS_GENOBJ-N-CRS_13
 70
     0
  0
APPID
  2
GENIUS_GENOBJ-N-ZOO_13
 70
     0
  0
APPID
  2
GENIUS_GENZOO_13
 70
     0
  0
APPID
  2
GENIUS_GENOBJ-F-TOL_13
 70
     0
  0
APPID
  2
GENIUS_GENFIL_13
 70
     0
  0
APPID
  2
GENIUS_GENOBJ-N-CHA_13
 70
     0
  0
APPID
  2
ASM_BASE
 70
     0
  0
APPID
  2
ASM_EXPLO_VER_2_00
 70
     0
  0
APPID
  2
ASM_CADM_VER_12_00
 70
     0
  0
APPID
  2
ASM_BASEFORO
 70
     0
  0
APPID
  2
ASM_BASETRAVI
 70
     0
  0
APPID
  2
ASM_BASETRAVI1
 70
     0
  0
APPID
  2
ASM_GRUPPI
 70
     0
  0
APPID
  2
ASM_CADM_ALBERO
 70
     0
  0
APPID
  2
ASM_GOLE
 70
     0
  0
APPID
  2
ACAD_EXEMPT_FROM_CAD_STANDARDS
 70
     0
  0
APPID
  2
ACAD_NAV_VCDISPLAY
 70
     0
  0
APPID
  2
ACAD_DSTYLE_DIMJAG
 70
     0
  0
APPID
  2
ACAD_DSTYLE_DIMTALN
 70
     0
  0
ENDTAB
  0
TABLE
  2
DIMSTYLE
 70
     1
  0
DIMSTYLE
  2
STANDARD
 70
     0
  3

  4

  5

  6

  7

 40
1.0
 41
0.18
 42
0.0625
 43
0.38
 44
0.18
 45
0.0
 46
0.0
 47
0.0
 48
0.0
140
0.18
141
0.09
142
0.0
143
25.399999999999999
144
1.0
145
0.0
146
1.0
147
0.09
 71
     0
 72
     0
 73
     1
 74
     1
 75
     0
 76
     0
 77
     0
 78
     0
170
     0
171
     2
172
     0
173
     0
174
     0
175
     0
176
     0
177
     0
178
     0
  0
ENDTAB
  0
ENDSEC
  0
SECTION
  2
BLOCKS
  0
BLOCK
  8
0
  2
$MODEL_SPACE
 70
     0
 10
0.0
 20
0.0
 30
0.0
  3
$MODEL_SPACE
  1

  0
ENDBLK
  5
196
  8
0
  0
BLOCK
 67
     1
  8
0
  2
$PAPER_SPACE
 70
     0
 10
0.0
 20
0.0
 30
0.0
  3
$PAPER_SPACE
  1

  0
ENDBLK
  5
194
 67
     1
  8
0
  0
ENDSEC
  0
SECTION
  2
ENTITIES
  0
TEXT
  5
12A0
  8
0
 62
     3
 10
0.0
 20
0.0
 30
0.0
 40
10.0
  1
BJ351-08001C
  7
STANDARD1
  0
LINE
  5
180B
  8
0
 10
153.13714757561681
 20
178.5000009275972
 30
0.0
 11
144.13722060620779
 21
178.5000009275972
 31
0.0
  0
LINE
  5
180C
  8
0
 10
144.13722060620779
 20
170.50000054761759
 30
0.0
 11
153.13714757561681
 21
170.50000054761759
 31
0.0
  0
LINE
  5
180D
  8
0
 10
127.3465195298195
 20
159.50000107288361
 30
0.0
 11
139.19877834618089
 21
159.50000107288361
 31
0.0
  0
LINE
  5
180E
  8
0
 10
139.19877834618089
 20
189.5000004023313
 30
0.0
 11
127.3465195298195
 21
189.5000004023313
 31
0.0
  0
LINE
  5
180F
  8
0
 10
139.19877834618089
 20
164.50000096112481
 30
0.0
 11
144.13722060620779
 21
164.50000096112481
 31
0.0
  0
LINE
  5
1810
  8
0
 10
144.13722060620779
 20
184.50000051409
 30
0.0
 11
139.19877834618089
 21
184.50000051409
 31
0.0
  0
LINE
  5
1811
  8
0
 10
168.73049669433379
 20
177.0000006817281
 30
0.0
 11
167.28712097741661
 21
174.50000073760739
 31
0.0
  0
LINE
  5
1812
  8
0
 10
168.73049669433379
 20
172.00000079348681
 30
0.0
 11
167.28712097741661
 21
174.50000073760739
 31
0.0
  0
LINE
  5
1813
  8
0
 10
168.73049669433379
 20
172.00000079348681
 30
0.0
 11
171.61724812816831
 21
172.00000079348681
 31
0.0
  0
LINE
  5
1814
  8
0
 10
168.73049669433379
 20
177.0000006817281
 30
0.0
 11
171.61724812816831
 21
177.0000006817281
 31
0.0
  0
LINE
  5
1816
  8
0
 10
171.61724812816831
 20
172.00000079348681
 30
0.0
 11
173.0606238450855
 21
174.50000073760739
 31
0.0
  0
LINE
  5
1817
  8
0
 10
171.61724812816831
 20
177.0000006817281
 30
0.0
 11
173.0606238450855
 21
174.50000073760739
 31
0.0
  0
CIRCLE
  5
1818
  8
0
 10
139.61537224578191
 20
174.50218872911231
 30
0.0
 40
0.6969459181548238
  0
CIRCLE
  5
1819
  8
0
 10
139.61867473976841
 20
174.50277418961511
 30
0.0
 40
1.0953229756910201
  0
POLYLINE
  5
181A
  8
0
 66
     1
 10
0.0
 20
0.0
 30
0.0
 70
   128
  0
VERTEX
  5
1FBA
  8
0
 10
139.19877834618089
 20
164.50000096112481
 30
0.0
  0
VERTEX
  5
1FBB
  8
0
 10
139.1208024322986
 20
164.5124313235282
 30
0.0
  0
VERTEX
  5
1FBC
  8
0
 10
138.9656254649162
 20
164.6116926148533
 30
0.0
  0
VERTEX
  5
1FBD
  8
0
 10
138.81276562809941
 20
164.80922799557439
 30
0.0
  0
VERTEX
  5
1FBE
  8
0
 10
138.6637428402901
 20
165.10307423770419
 30
0.0
  0
VERTEX
  5
1FBF
  8
0
 10
138.5200360417366
 20
165.49031164497131
 30
0.0
  0
VERTEX
  5
1FC0
  8
0
 10
138.38307574391359
 20
165.96709199249739
 30
0.0
  0
VERTEX
  5
1FC1
  8
0
 10
138.25422167778009
 20
166.52867577970019
 30
0.0
  0
VERTEX
  5
1FC2
  8
0
 10
138.1347553431988
 20
167.16948205605141
 30
0.0
  0
VERTEX
  5
1FC3
  8
0
 10
138.02586138248441
 20
167.88314243778581
 30
0.0
  0
VERTEX
  5
1FC4
  8
0
 10
137.92862758040431
 20
168.66256397217509
 30
0.0
  0
VERTEX
  5
1FC5
  8
0
 10
137.84401506185529
 20
169.5000008493661
 30
0.0
  0
VERTEX
  5
1FC6
  8
0
 10
137.77286946773529
 20
170.3871298395097
 30
0.0
  0
VERTEX
  5
1FC7
  8
0
 10
137.71589487791061
 20
171.31513434462241
 30
0.0
  0
VERTEX
  5
1FC8
  8
0
 10
137.6736538112163
 20
172.27479147724799
 30
0.0
  0
VERTEX
  5
1FC9
  8
0
 10
137.64657467603681
 20
173.25656367931509
 30
0.0
  0
VERTEX
  5
1FCA
  8
0
 10
137.63492196798319
 20
174.25069383345539
 30
0.0
  0
VERTEX
  5
1FCB
  8
0
 10
137.63880744576451
 20
175.24730165489009
 30
0.0
  0
VERTEX
  5
1FCC
  8
0
 10
137.65820130705831
 20
176.23648252803829
 30
0.0
  0
VERTEX
  5
1FCD
  8
0
 10
137.69290238618851
 20
177.2084055282175
 30
0.0
  0
VERTEX
  5
1FCE
  8
0
 10
137.7425716817379
 20
178.1534110940992
 30
0.0
  0
VERTEX
  5
1FCF
  8
0
 10
137.80671373009679
 20
179.06210718676439
 30
0.0
  0
VERTEX
  5
1FD0
  8
0
 10
137.88468778133389
 20
179.9254632368683
 30
0.0
  0
VERTEX
  5
1FD1
  8
0
 10
137.97572642564771
 20
180.734898969531
 30
0.0
  0
VERTEX
  5
1FD2
  8
0
 10
138.0789169669151
 20
181.48236868903041
 30
0.0
  0
VERTEX
  5
1FD3
  8
0
 10
138.1932386755943
 20
182.16044509783379
 30
0.0
  0
VERTEX
  5
1FD4
  8
0
 10
138.317551612854
 20
182.7623882144689
 30
0.0
  0
VERTEX
  5
1FD5
  8
0
 10
138.4506264328956
 20
183.28221615403891
 30
0.0
  0
VERTEX
  5
1FD6
  8
0
 10
138.59113320708269
 20
183.71476240456099
 30
0.0
  0
VERTEX
  5
1FD7
  8
0
 10
138.73767867684359
 20
184.05572891235349
 30
0.0
  0
VERTEX
  5
1FD8
  8
0
 10
138.88880997896189
 20
184.3017256632447
 30
0.0
  0
VERTEX
  5
1FD9
  8
0
 10
139.0430202335119
 20
184.45030886679879
 30
0.0
  0
VERTEX
  5
1FDA
  8
0
 10
139.19877834618089
 20
184.50000051409
 30
0.0
  0
VERTEX
  5
1FDB
  8
0
 10
139.19877834618089
 20
184.50000051409
 30
0.0
  0
SEQEND
  5
1FDC
  8
0
  0
POLYLINE
  5
181B
  8
0
 66
     1
 10
0.0
 20
0.0
 30
0.0
 70
   128
  0
VERTEX
  5
1FDD
  8
0
 10
139.19877834618089
 20
189.5000004023313
 30
0.0
  0
VERTEX
  5
1FDE
  8
0
 10
139.39004220068449
 20
189.45008989423511
 30
0.0
  0
VERTEX
  5
1FDF
  8
0
 10
139.58003200590611
 20
189.30068805813781
 30
0.0
  0
VERTEX
  5
1FE0
  8
0
 10
139.76748488843441
 20
189.05279047787181
 30
0.0
  0
VERTEX
  5
1FE1
  8
0
 10
139.95115287601951
 20
188.70804559439421
 30
0.0
  0
VERTEX
  5
1FE2
  8
0
 10
140.12981407344341
 20
188.2687491178512
 30
0.0
  0
VERTEX
  5
1FE3
  8
0
 10
140.30228011310101
 20
187.73782446980471
 30
0.0
  0
VERTEX
  5
1FE4
  8
0
 10
140.46740174293521
 20
187.11880415678019
 30
0.0
  0
VERTEX
  5
1FE5
  8
0
 10
140.62408000230789
 20
186.41580741852519
 30
0.0
  0
VERTEX
  5
1FE6
  8
0
 10
140.7712755352259
 20
185.6335122883319
 30
0.0
  0
VERTEX
  5
1FE7
  8
0
 10
140.90800486505029
 20
184.77712672203771
 30
0.0
  0
VERTEX
  5
1FE8
  8
0
 10
140.9477686136961
 20
184.50000051409
 30
0.0
  0
SEQEND
  5
1FE9
  8
0
  0
POLYLINE
  5
181C
  8
0
 66
     1
 10
0.0
 20
0.0
 30
0.0
 70
   128
  0
VERTEX
  5
1FEA
  8
0
 10
140.9477686136961
 20
164.50000096112481
 30
0.0
  0
VERTEX
  5
1FEB
  8
0
 10
140.8410073816776
 20
163.7857659533619
 30
0.0
  0
VERTEX
  5
1FEC
  8
0
 10
140.69892667233941
 20
162.965742945671
 30
0.0
  0
VERTEX
  5
1FED
  8
0
 10
140.5468621850014
 20
162.22247861325741
 30
0.0
  0
VERTEX
  5
1FEE
  8
0
 10
140.3858290612697
 20
161.56091921031469
 30
0.0
  0
VERTEX
  5
1FEF
  8
0
 10
140.21689459681511
 20
160.98546802997581
 30
0.0
  0
VERTEX
  5
1FF0
  8
0
 10
140.0411838293075
 20
160.49995280802241
 30
0.0
  0
VERTEX
  5
1FF1
  8
0
 10
139.859868362546
 20
160.10760616511101
 30
0.0
  0
VERTEX
  5
1FF2
  8
0
 10
139.67415332794189
 20
159.81103859841821
 30
0.0
  0
VERTEX
  5
1FF3
  8
0
 10
139.4852755218744
 20
159.61222358047959
 30
0.0
  0
VERTEX
  5
1FF4
  8
0
 10
139.29449036717409
 20
159.51248358935109
 30
0.0
  0
VERTEX
  5
1FF5
  8
0
 10
139.1030681878328
 20
159.51248358935109
 30
0.0
  0
VERTEX
  5
1FF6
  8
0
 10
138.9122830331325
 20
159.61222358047959
 30
0.0
  0
VERTEX
  5
1FF7
  8
0
 10
138.72340336441991
 20
159.81103859841821
 30
0.0
  0
VERTEX
  5
1FF8
  8
0
 10
138.53769019246101
 20
160.10760616511101
 30
0.0
  0
VERTEX
  5
1FF9
  8
0
 10
138.3563728630543
 20
160.49995280802241
 30
0.0
  0
VERTEX
  5
1FFA
  8
0
 10
138.18066209554669
 20
160.98546802997581
 30
0.0
  0
VERTEX
  5
1FFB
  8
0
 10
138.0117276310921
 20
161.56091921031469
 30
0.0
  0
VERTEX
  5
1FFC
  8
0
 10
137.8506945073604
 20
162.22247861325741
 30
0.0
  0
VERTEX
  5
1FFD
  8
0
 10
137.69863188266751
 20
162.965742945671
 30
0.0
  0
VERTEX
  5
1FFE
  8
0
 10
137.5565493106842
 20
163.7857659533619
 30
0.0
  0
VERTEX
  5
1FFF
  8
0
 10
137.4254004657268
 20
164.6770900860428
 30
0.0
  0
VERTEX
  5
2000
  8
0
 10
137.3060496151447
 20
165.63378375023601
 30
0.0
  0
VERTEX
  5
2001
  8
0
 10
137.19929397106171
 20
166.64948135614389
 30
0.0
  0
VERTEX
  5
2002
  8
0
 10
137.10584878921509
 20
167.71742196753621
 30
0.0
  0
VERTEX
  5
2003
  8
0
 10
137.02632874250409
 20
168.8305000588297
 30
0.0
  0
VERTEX
  5
2004
  8
0
 10
136.96126654744151
 20
169.98130789026609
 30
0.0
  0
VERTEX
  5
2005
  8
0
 10
136.9110943377018
 20
171.16218673065299
 30
0.0
  0
VERTEX
  5
2006
  8
0
 10
136.8761473894119
 20
172.3652780801057
 30
0.0
  0
VERTEX
  5
2007
  8
0
 10
136.8566529452801
 20
173.5825758241117
 30
0.0
  0
VERTEX
  5
2008
  8
0
 10
136.85274884104729
 20
174.80597879504779
 30
0.0
  0
VERTEX
  5
2009
  8
0
 10
136.8644574284553
 20
176.0273455455899
 30
0.0
  0
VERTEX
  5
200A
  8
0
 10
136.891700476408
 20
177.2385480161756
 30
0.0
  0
VERTEX
  5
200B
  8
0
 10
136.93429544568059
 20
178.43152590095991
 30
0.0
  0
VERTEX
  5
200C
  8
0
 10
136.99195921421051
 20
179.5983403734862
 30
0.0
  0
VERTEX
  5
200D
  8
0
 10
137.06431180238721
 20
180.73122583329669
 30
0.0
  0
VERTEX
  5
200E
  8
0
 10
137.150868922472
 20
181.8226436898112
 30
0.0
  0
VERTEX
  5
200F
  8
0
 10
137.25105315446851
 20
182.8653310239315
 30
0.0
  0
VERTEX
  5
2010
  8
0
 10
137.36419767141339
 20
183.85234761983151
 30
0.0
  0
VERTEX
  5
2011
  8
0
 10
137.48955368995669
 20
184.77712672203771
 30
0.0
  0
VERTEX
  5
2012
  8
0
 10
137.62628301978111
 20
185.6335122883319
 30
0.0
  0
VERTEX
  5
2013
  8
0
 10
137.77347669005391
 20
186.41580741852519
 30
0.0
  0
VERTEX
  5
2014
  8
0
 10
137.93015494942659
 20
187.11880415678019
 30
0.0
  0
VERTEX
  5
2015
  8
0
 10
138.095278441906
 20
187.73782446980471
 30
0.0
  0
VERTEX
  5
2016
  8
0
 10
138.2677444815636
 20
188.2687491178512
 30
0.0
  0
VERTEX
  5
2017
  8
0
 10
138.4464056789875
 20
188.70804559439421
 30
0.0
  0
VERTEX
  5
2018
  8
0
 10
138.6300736665726
 20
189.05279047787181
 30
0.0
  0
VERTEX
  5
2019
  8
0
 10
138.8175265491009
 20
189.30068805813781
 30
0.0
  0
VERTEX
  5
201A
  8
0
 10
139.00751635432241
 20
189.45008989423511
 30
0.0
  0
VERTEX
  5
201B
  8
0
 10
139.19877834618089
 20
189.5000004023313
 30
0.0
  0
VERTEX
  5
201C
  8
0
 10
139.19877834618089
 20
189.5000004023313
 30
0.0
  0
SEQEND
  5
201D
  8
0
  0
POLYLINE
  5
181D
  8
0
 66
     1
 10
0.0
 20
0.0
 30
0.0
 70
   128
  0
VERTEX
  5
201E
  8
0
 10
127.3465195298195
 20
159.50000107288361
 30
0.0
  0
VERTEX
  5
201F
  8
0
 10
127.25080564618111
 20
159.51248358935109
 30
0.0
  0
VERTEX
  5
2020
  8
0
 10
127.060022354126
 20
159.61222358047959
 30
0.0
  0
VERTEX
  5
2021
  8
0
 10
126.8711426854133
 20
159.81103859841821
 30
0.0
  0
VERTEX
  5
2022
  8
0
 10
126.68542951345439
 20
160.10760616511101
 30
0.0
  0
VERTEX
  5
2023
  8
0
 10
126.5041121840477
 20
160.49995280802241
 30
0.0
  0
VERTEX
  5
2024
  8
0
 10
126.3284014165401
 20
160.98546802997581
 30
0.0
  0
VERTEX
  5
2025
  8
0
 10
126.15946695208549
 20
161.56091921031469
 30
0.0
  0
VERTEX
  5
2026
  8
0
 10
125.9984338283539
 20
162.22247861325741
 30
0.0
  0
VERTEX
  5
2027
  8
0
 10
125.84637120366099
 20
162.965742945671
 30
0.0
  0
VERTEX
  5
2028
  8
0
 10
125.7042923569679
 20
163.7857659533619
 30
0.0
  0
VERTEX
  5
2029
  8
0
 10
125.5731397867203
 20
164.6770900860428
 30
0.0
  0
VERTEX
  5
202A
  8
0
 10
125.4537889361381
 20
165.63378375023601
 30
0.0
  0
VERTEX
  5
202B
  8
0
 10
125.3470370173454
 20
166.64948135614389
 30
0.0
  0
VERTEX
  5
202C
  8
0
 10
125.2535881102085
 20
167.71742196753621
 30
0.0
  0
VERTEX
  5
202D
  8
0
 10
125.1740680634975
 20
168.8305000588297
 30
0.0
  0
VERTEX
  5
202E
  8
0
 10
125.10900586843491
 20
169.98130789026609
 30
0.0
  0
VERTEX
  5
202F
  8
0
 10
125.05883365869521
 20
171.16218673065299
 30
0.0
  0
VERTEX
  5
2030
  8
0
 10
125.02388671040531
 20
172.3652780801057
 30
0.0
  0
VERTEX
  5
2031
  8
0
 10
125.0043959915638
 20
173.5825758241117
 30
0.0
  0
VERTEX
  5
2032
  8
0
 10
125.0004881620407
 20
174.80597879504779
 30
0.0
  0
VERTEX
  5
2033
  8
0
 10
125.0121967494488
 20
176.0273455455899
 30
0.0
  0
VERTEX
  5
2034
  8
0
 10
125.0394397974014
 20
177.2385480161756
 30
0.0
  0
VERTEX
  5
2035
  8
0
 10
125.082034766674
 20
178.43152590095991
 30
0.0
  0
VERTEX
  5
2036
  8
0
 10
125.1397022604942
 20
179.5983403734862
 30
0.0
  0
VERTEX
  5
2037
  8
0
 10
125.2120511233806
 20
180.73122583329669
 30
0.0
  0
VERTEX
  5
2038
  8
0
 10
125.2986082434654
 20
181.8226436898112
 30
0.0
  0
VERTEX
  5
2039
  8
0
 10
125.3987924754619
 20
182.8653310239315
 30
0.0
  0
VERTEX
  5
203A
  8
0
 10
125.5119369924068
 20
183.85234761983151
 30
0.0
  0
VERTEX
  5
203B
  8
0
 10
125.6372930109501
 20
184.77712672203771
 30
0.0
  0
VERTEX
  5
203C
  8
0
 10
125.77402234077449
 20
185.6335122883319
 30
0.0
  0
VERTEX
  5
203D
  8
0
 10
125.92121601104731
 20
186.41580741852519
 30
0.0
  0
VERTEX
  5
203E
  8
0
 10
126.0778942704201
 20
187.11880415678019
 30
0.0
  0
VERTEX
  5
203F
  8
0
 10
126.2430177628994
 20
187.73782446980471
 30
0.0
  0
VERTEX
  5
2040
  8
0
 10
126.41548380255701
 20
188.2687491178512
 30
0.0
  0
VERTEX
  5
2041
  8
0
 10
126.5941449999809
 20
188.70804559439421
 30
0.0
  0
VERTEX
  5
2042
  8
0
 10
126.77781298756599
 20
189.05279047787181
 30
0.0
  0
VERTEX
  5
2043
  8
0
 10
126.9652658700943
 20
189.30068805813781
 30
0.0
  0
VERTEX
  5
2044
  8
0
 10
127.1552556753158
 20
189.45008989423511
 30
0.0
  0
VERTEX
  5
2045
  8
0
 10
127.3465195298195
 20
189.5000004023313
 30
0.0
  0
SEQEND
  5
2046
  8
0
  0
POLYLINE
  5
181E
  8
0
 66
     1
 10
0.0
 20
0.0
 30
0.0
 70
   128
  0
VERTEX
  5
2047
  8
0
 10
144.13722060620779
 20
184.50000051409
 30
0.0
  0
VERTEX
  5
2048
  8
0
 10
144.29297871887681
 20
184.45030886679879
 30
0.0
  0
VERTEX
  5
2049
  8
0
 10
144.44718897342679
 20
184.3017256632447
 30
0.0
  0
VERTEX
  5
204A
  8
0
 10
144.5983184129
 20
184.05572891235349
 30
0.0
  0
VERTEX
  5
204B
  8
0
 10
144.74486574530599
 20
183.71476240456099
 30
0.0
  0
VERTEX
  5
204C
  8
0
 10
144.8853743821382
 20
183.28221615403891
 30
0.0
  0
VERTEX
  5
204D
  8
0
 10
145.0184473395347
 20
182.7623882144689
 30
0.0
  0
VERTEX
  5
204E
  8
0
 10
145.14276213943961
 20
182.16044509783379
 30
0.0
  0
VERTEX
  5
204F
  8
0
 10
145.2570819854736
 20
181.48236868903041
 30
0.0
  0
VERTEX
  5
2050
  8
0
 10
145.36027438938621
 20
180.734898969531
 30
0.0
  0
VERTEX
  5
2051
  8
0
 10
145.45131117105481
 20
179.9254632368683
 30
0.0
  0
VERTEX
  5
2052
  8
0
 10
145.5292870849371
 20
179.06210718676439
 30
0.0
  0
VERTEX
  5
2053
  8
0
 10
145.57096563279629
 20
178.5000009275972
 30
0.0
  0
SEQEND
  5
2054
  8
0
  0
POLYLINE
  5
181F
  8
0
 66
     1
 10
0.0
 20
0.0
 30
0.0
 70
   128
  0
VERTEX
  5
2055
  8
0
 10
145.57096563279629
 20
170.50000054761759
 30
0.0
  0
VERTEX
  5
2056
  8
0
 10
145.5631294846535
 20
170.3871298395097
 30
0.0
  0
VERTEX
  5
2057
  8
0
 10
145.4919820278883
 20
169.5000008493661
 30
0.0
  0
VERTEX
  5
2058
  8
0
 10
145.40737137198451
 20
168.66256397217509
 30
0.0
  0
VERTEX
  5
2059
  8
0
 10
145.31013570725921
 20
167.88314243778581
 30
0.0
  0
VERTEX
  5
205A
  8
0
 10
145.20124547183511
 20
167.16948205605141
 30
0.0
  0
VERTEX
  5
205B
  8
0
 10
145.0817791372537
 20
166.52867577970019
 30
0.0
  0
VERTEX
  5
205C
  8
0
 10
144.95292507112021
 20
165.96709199249739
 30
0.0
  0
VERTEX
  5
205D
  8
0
 10
144.81596477329731
 20
165.49031164497131
 30
0.0
  0
VERTEX
  5
205E
  8
0
 10
144.67225797474379
 20
165.10307423770419
 30
0.0
  0
VERTEX
  5
205F
  8
0
 10
144.52323332428929
 20
164.80922799557439
 30
0.0
  0
VERTEX
  5
2060
  8
0
 10
144.37037348747251
 20
164.6116926148533
 30
0.0
  0
VERTEX
  5
2061
  8
0
 10
144.2151965200901
 20
164.5124313235282
 30
0.0
  0
VERTEX
  5
2062
  8
0
 10
144.05924469232559
 20
164.5124313235282
 30
0.0
  0
VERTEX
  5
2063
  8
0
 10
143.9040677249431
 20
164.6116926148533
 30
0.0
  0
VERTEX
  5
2064
  8
0
 10
143.7512060254812
 20
164.80922799557439
 30
0.0
  0
VERTEX
  5
2065
  8
0
 10
143.6021832376718
 20
165.10307423770419
 30
0.0
  0
VERTEX
  5
2066
  8
0
 10
143.45847643911841
 20
165.49031164497131
 30
0.0
  0
VERTEX
  5
2067
  8
0
 10
143.3215161412954
 20
165.96709199249739
 30
0.0
  0
VERTEX
  5
2068
  8
0
 10
143.19266207516191
 20
166.52867577970019
 30
0.0
  0
VERTEX
  5
2069
  8
0
 10
143.0731957405805
 20
167.16948205605141
 30
0.0
  0
VERTEX
  5
206A
  8
0
 10
142.9643036425114
 20
167.88314243778581
 30
0.0
  0
VERTEX
  5
206B
  8
0
 10
142.86706984043121
 20
168.66256397217509
 30
0.0
  0
VERTEX
  5
206C
  8
0
 10
142.78245732188219
 20
169.5000008493661
 30
0.0
  0
VERTEX
  5
206D
  8
0
 10
142.71131172776219
 20
170.3871298395097
 30
0.0
  0
VERTEX
  5
206E
  8
0
 10
142.6543352752924
 20
171.31513434462241
 30
0.0
  0
VERTEX
  5
206F
  8
0
 10
142.61209793388841
 20
172.27479147724799
 30
0.0
  0
VERTEX
  5
2070
  8
0
 10
142.58501693606379
 20
173.25656367931509
 30
0.0
  0
VERTEX
  5
2071
  8
0
 10
142.573362365365
 20
174.25069383345539
 30
0.0
  0
VERTEX
  5
2072
  8
0
 10
142.5772497057915
 20
175.24730165489009
 30
0.0
  0
VERTEX
  5
2073
  8
0
 10
142.59664170444009
 20
176.23648252803829
 30
0.0
  0
VERTEX
  5
2074
  8
0
 10
142.63134464621541
 20
177.2084055282175
 30
0.0
  0
VERTEX
  5
2075
  8
0
 10
142.6810139417648
 20
178.1534110940992
 30
0.0
  0
VERTEX
  5
2076
  8
0
 10
142.7451541274786
 20
179.06210718676439
 30
0.0
  0
VERTEX
  5
2077
  8
0
 10
142.8231300413608
 20
179.9254632368683
 30
0.0
  0
VERTEX
  5
2078
  8
0
 10
142.91416682302949
 20
180.734898969531
 30
0.0
  0
VERTEX
  5
2079
  8
0
 10
143.01735736429691
 20
181.48236868903041
 30
0.0
  0
VERTEX
  5
207A
  8
0
 10
143.13167907297611
 20
182.16044509783379
 30
0.0
  0
VERTEX
  5
207B
  8
0
 10
143.25599387288091
 20
182.7623882144689
 30
0.0
  0
VERTEX
  5
207C
  8
0
 10
143.38906683027739
 20
183.28221615403891
 30
0.0
  0
VERTEX
  5
207D
  8
0
 10
143.5295736044645
 20
183.71476240456099
 30
0.0
  0
VERTEX
  5
207E
  8
0
 10
143.6761209368706
 20
184.05572891235349
 30
0.0
  0
VERTEX
  5
207F
  8
0
 10
143.8272522389889
 20
184.3017256632447
 30
0.0
  0
VERTEX
  5
2080
  8
0
 10
143.9814624935388
 20
184.45030886679879
 30
0.0
  0
VERTEX
  5
2081
  8
0
 10
144.13722060620779
 20
184.50000051409
 30
0.0
  0
VERTEX
  5
2082
  8
0
 10
144.13722060620779
 20
184.50000051409
 30
0.0
  0
SEQEND
  5
2083
  8
0
  0
POLYLINE
  5
1821
  8
0
 66
     1
 10
0.0
 20
0.0
 30
0.0
 70
   128
  0
VERTEX
  5
2084
  8
0
 10
144.13722060620779
 20
170.50000054761759
 30
0.0
  0
VERTEX
  5
2085
  8
0
 10
144.03933301568031
 20
170.54924748837939
 30
0.0
  0
VERTEX
  5
2086
  8
0
 10
143.943857550621
 20
170.6957745645195
 30
0.0
  0
VERTEX
  5
2087
  8
0
 10
143.85314114391801
 20
170.9359745308756
 30
0.0
  0
VERTEX
  5
2088
  8
0
 10
143.7694208323955
 20
171.26393279060721
 30
0.0
  0
VERTEX
  5
2089
  8
0
 10
143.6947567015886
 20
171.6715736128389
 30
0.0
  0
VERTEX
  5
208A
  8
0
 10
143.6309871822595
 20
172.14885966852299
 30
0.0
  0
VERTEX
  5
208B
  8
0
 10
143.57968434691429
 20
172.6840387145057
 30
0.0
  0
VERTEX
  5
208C
  8
0
 10
143.5421092063188
 20
173.26393276918671
 30
0.0
  0
VERTEX
  5
208D
  8
0
 10
143.5191856324673
 20
173.87426285305989
 30
0.0
  0
VERTEX
  5
208E
  8
0
 10
143.51148173212999
 20
174.50000073760751
 30
0.0
  0
VERTEX
  5
208F
  8
0
 10
143.5191856324673
 20
175.12573862215501
 30
0.0
  0
VERTEX
  5
2090
  8
0
 10
143.5421092063188
 20
175.73606870602811
 30
0.0
  0
VERTEX
  5
2091
  8
0
 10
143.57968434691429
 20
176.3159627607092
 30
0.0
  0
VERTEX
  5
2092
  8
0
 10
143.6309871822595
 20
176.8511418066918
 30
0.0
  0
VERTEX
  5
2093
  8
0
 10
143.6947567015886
 20
177.32842786237589
 30
0.0
  0
VERTEX
  5
2094
  8
0
 10
143.7694208323955
 20
177.73606868460769
 30
0.0
  0
VERTEX
  5
2095
  8
0
 10
143.85314114391801
 20
178.06402694433919
 30
0.0
  0
VERTEX
  5
2096
  8
0
 10
143.943857550621
 20
178.30422691069541
 30
0.0
  0
VERTEX
  5
2097
  8
0
 10
144.03933301568031
 20
178.45075398683539
 30
0.0
  0
VERTEX
  5
2098
  8
0
 10
144.13722060620779
 20
178.5000009275972
 30
0.0
  0
SEQEND
  5
2099
  8
0
  0
CIRCLE
  5
1824
  8
0
 10
170.1738724112511
 20
174.50000073760739
 30
0.0
 40
3.3999999999999768
  0
CIRCLE
  5
1825
  8
0
 10
170.1738724112511
 20
174.50000073760739
 30
0.0
 40
9.5
  0
CIRCLE
  5
1827
  8
0
 10
170.1738724112511
 20
174.50000073760739
 30
0.0
 40
17.499999999999972
  0
CIRCLE
  5
1838
  8
3
 10
170.1738724112511
 20
174.50000073760739
 30
0.0
 40
4.0000001899898052
  0
ARC
  5
1957
  8
2
 10
171.36091863883729
 20
69.313537946490584
 30
0.0
 40
5.9999999999998828
 50
14.344031298215739
 51
71.395547344838505
  0
LINE
  5
1958
  8
2
 10
177.17387262731791
 20
70.799999590963125
 30
0.0
 11
177.17387262731791
 21
69.999999552965164
 31
0.0
  0
LINE
  5
1960
  8
2
 10
163.1738721951842
 20
69.999999552965164
 30
0.0
 11
163.1738721951842
 21
70.799999590963125
 31
0.0
  0
ARC
  5
1961
  8
2
 10
168.9868261836649
 20
69.313537946490584
 30
0.0
 40
5.9999999999998828
 50
108.6044526551615
 51
165.65596870178379
  0
LINE
  5
1966
  8
2
 10
167.07262774329561
 20
74.999999441206455
 30
0.0
 11
173.27511651441449
 21
74.999999441206455
 31
0.0
  0
LINE
  5
199E
  8
0
 10
140.76312266820409
 20
81.488870707484054
 30
0.0
 11
145.70156499743459
 21
82.271043397486196
 31
0.0
  0
LINE
  5
199F
  8
0
 10
142.57287621498111
 20
102.0248105749488
 30
0.0
 11
137.63443388575061
 21
101.2426378849466
 31
0.0
  0
LINE
  5
19A0
  8
0
 10
141.54529586434359
 20
76.550428941845894
 30
0.0
 11
129.6930351853371
 21
74.673216044902802
 31
0.0
  0
LINE
  5
19A5
  8
0
 10
125.0000001490116
 20
104.3038649484515
 30
0.0
 11
136.85226082801819
 21
106.1810797080397
 31
0.0
  0
LINE
  5
19AA
  8
0
 10
141.54529586434359
 20
76.550428941845894
 30
0.0
 11
136.85226082801819
 21
106.1810797080397
 31
0.0
  0
LINE
  5
19AB
  8
0
 10
129.69304997295319
 20
74.673218387030147
 30
0.0
 11
125.0000001490116
 21
104.3038649484515
 31
0.0
  0
LINE
  5
19AC
  8
0
 10
145.7015612673772
 20
82.271042806702937
 30
0.0
 11
142.57287621498111
 21
102.0248105749488
 31
0.0
  0
LINE
  5
19BB
  8
2
 10
160.6738727167249
 20
88.999999873340116
 30
0.0
 11
161.2512228637934
 21
87.999999709427357
 31
0.0
  0
LINE
  5
19BC
  8
2
 10
179.09652195870871
 20
87.999999709427357
 30
0.0
 11
179.67387210577721
 21
88.999999873340116
 31
0.0
  0
LINE
  5
19BD
  8
2
 10
163.1738721951842
 20
87.500000558793545
 30
0.0
 11
163.67387227714059
 21
86.999999545514584
 31
0.0
  0
LINE
  5
19BE
  8
2
 10
176.67387254536149
 20
86.999999545514584
 30
0.0
 11
177.17387262731791
 21
87.500000558793545
 31
0.0
  0
LINE
  5
19BF
  8
2
 10
174.4398979097605
 20
86.999999545514584
 30
0.0
 11
173.57387245632711
 21
88.499998860061154
 31
0.0
  0
LINE
  5
19C0
  8
2
 10
166.773872366175
 20
88.499998860061154
 30
0.0
 11
165.9078469127416
 21
86.999999545514584
 31
0.0
  0
LINE
  5
19C1
  8
2
 10
166.773872366175
 20
88.499998860061154
 30
0.0
 11
173.57387245632711
 21
88.499998860061154
 31
0.0
  0
LINE
  5
19C5
  8
0
 10
160.6738727167249
 20
116.4999997243285
 30
0.0
 11
160.6738727167249
 21
106.99999909847971
 31
0.0
  0
LINE
  5
19C6
  8
0
 10
161.1738727986812
 20
117.00000073760749
 30
0.0
 11
160.6738727167249
 21
116.4999997243285
 31
0.0
  0
LINE
  5
19C8
  8
2
 10
165.61917183920741
 20
117.00000073760749
 30
0.0
 11
166.773872366175
 21
115.0000004097819
 31
0.0
  0
LINE
  5
19C9
  8
2
 10
166.773872366175
 20
88.499998860061154
 30
0.0
 11
166.773872366175
 21
115.0000004097819
 31
0.0
  0
LINE
  5
19CA
  8
2
 10
163.1738721951842
 20
87.999999709427357
 30
0.0
 11
163.1738721951842
 21
87.500000558793545
 31
0.0
  0
LINE
  5
19CB
  8
2
 10
161.2512228637934
 20
87.999999709427357
 30
0.0
 11
163.1738721951842
 21
87.999999709427357
 31
0.0
  0
LINE
  5
19CC
  8
2
 10
163.67387227714059
 20
86.999999545514584
 30
0.0
 11
176.67387254536149
 21
86.999999545514584
 31
0.0
  0
LINE
  5
19CD
  8
2
 10
173.57387245632711
 20
115.0000004097819
 30
0.0
 11
173.57387245632711
 21
88.499998860061154
 31
0.0
  0
LINE
  5
19CE
  8
2
 10
173.57387245632711
 20
115.0000004097819
 30
0.0
 11
174.7285729832947
 21
117.00000073760749
 31
0.0
  0
LINE
  5
19CF
  8
0
 10
179.17387202382091
 20
117.00000073760749
 30
0.0
 11
161.17387279868129
 21
117.00000073760739
 31
0.0
  0
LINE
  5
19D0
  8
0
 10
179.67387210577721
 20
116.4999997243285
 30
0.0
 11
179.17387202382091
 21
117.00000073760749
 31
0.0
  0
LINE
  5
19D1
  8
0
 10
179.67387210577721
 20
106.99999909847971
 30
0.0
 11
179.67387210577721
 21
116.4999997243285
 31
0.0
  0
LINE
  5
19D2
  8
2
 10
177.17387262731791
 20
87.999999709427357
 30
0.0
 11
179.09652195870871
 21
87.999999709427357
 31
0.0
  0
LINE
  5
19D3
  8
2
 10
177.17387262731791
 20
87.500000558793545
 30
0.0
 11
177.17387262731791
 21
87.999999709427357
 31
0.0
  0
LINE
  5
19D5
  8
2
 10
173.57387245632711
 20
115.0000004097819
 30
0.0
 11
166.773872366175
 21
115.0000004097819
 31
0.0
  0
LINE
  5
19D9
  8
2
 10
160.6738727167249
 20
70.800000432133373
 30
0.0
 11
160.6738727167249
 21
106.99999909847971
 31
0.0
  0
LINE
  5
19DC
  8
2
 10
179.67387210577721
 20
106.99999909847971
 30
0.0
 11
179.67387210577729
 21
70.800000432133302
 31
0.0
  0
LINE
  5
19E0
  8
0
 10
152.67387233674521
 20
65.999999712221253
 30
0.0
 11
152.67387233674521
 21
106.0000007972121
 31
0.0
  0
LINE
  5
19E3
  8
0
 10
187.6738724857569
 20
106.0000007972121
 30
0.0
 11
187.6738724857569
 21
65.999999712221324
 31
0.0
  0
LINE
  5
19E4
  8
2
 10
160.6738727167249
 20
75.001494213938713
 30
0.0
 11
152.67387233674521
 21
73.734418675303445
 31
0.0
  0
LINE
  5
19E5
  8
2
 10
152.67387233674521
 20
76.265581138432026
 30
0.0
 11
160.6738727167249
 21
77.532656677067266
 31
0.0
  0
LINE
  5
19E6
  8
0
 10
153.67387250065801
 20
64.999999664723873
 30
0.0
 11
152.67387233674521
 21
65.999999712221324
 31
0.0
  0
LINE
  5
19E7
  8
0
 10
187.6738724857569
 20
65.999999712221324
 30
0.0
 11
186.6738723218441
 21
64.999999664723873
 31
0.0
  0
LINE
  5
19EF
  8
0
 10
186.6738723218441
 20
106.99999909847971
 30
0.0
 11
187.6738724857569
 21
106.0000007972121
 31
0.0
  0
LINE
  5
19F1
  8
0
 10
186.6738723218441
 20
64.999999664723873
 30
0.0
 11
153.67387250065801
 21
64.999999664723873
 31
0.0
  0
LINE
  5
19F2
  8
0
 10
152.67387233674521
 20
106.0000007972121
 30
0.0
 11
153.67387250065801
 21
106.99999909847971
 31
0.0
  0
LINE
  5
19F3
  8
0
 10
153.67387250065801
 20
106.99999909847971
 30
0.0
 11
186.6738723218441
 21
106.99999909847971
 31
0.0
  0
LINE
  5
1A08
  8
2
 10
174.1738726012409
 20
116.0392297431826
 30
0.0
 11
174.1738726012409
 21
100.99999811500309
 31
0.0
  0
LINE
  5
1A09
  8
2
 10
166.17387222126121
 20
100.99999811500309
 30
0.0
 11
166.17387222126121
 21
116.0392297431826
 31
0.0
  0
LINE
  5
1A0C
  8
2
 10
166.17387222126121
 20
100.99999811500309
 30
0.0
 11
174.1738726012409
 21
100.99999811500309
 31
0.0
  0
LINE
  5
1A15
  8
1
 10
170.1738724112511
 20
45.0
 30
0.0
 11
170.1738724112511
 21
122.00000073760739
 31
0.0
  0
LINE
  5
1A16
  8
1
 10
150.74310309298701
 20
74.694195846854839
 30
0.0
 11
162.73137122044861
 21
76.592950984683341
 31
0.0
  0
LINE
  5
1A17
  8
1
 10
125.3711483393101
 20
89.175672993254281
 30
0.0
 11
162.73137122044861
 21
95.092950984683327
 31
0.0
  0
LINE
  5
1BB0
  8
0
 10
139.29449036717409
 20
159.51248358935109
 30
0.0
 11
139.19877834618089
 21
159.50000107288361
 31
0.0
  0
LINE
  5
1BC3
  8
3
 10
152.9923606107721
 20
171.176500737607
 30
0.0
 11
143.7917402541421
 21
171.176500737607
 31
0.0
  0
LINE
  5
1BC4
  8
3
 10
143.7917402541419
 20
177.82350073760711
 30
0.0
 11
152.99236061077201
 21
177.82350073760711
 31
0.0
  0
LINE
  5
1BD6
  8
1
 10
170.1738724112511
 20
197.00000073760739
 30
0.0
 11
170.1738724112511
 21
152.00000073760751
 31
0.0
  0
LINE
  5
1BD7
  8
1
 10
192.67387241125101
 20
174.50000073760739
 30
0.0
 11
120.001440018408
 21
174.50000073760739
 31
0.0
  0
LINE
  5
1C05
  8
3
 10
173.49737241125121
 20
64.999999664723873
 30
0.0
 11
173.49737241125109
 21
50.523500000000119
 31
0.0
  0
LINE
  5
1C06
  8
0
 10
174.17387241125101
 20
64.999999664723873
 30
0.0
 11
174.17387241125121
 21
51.199999999999989
 31
0.0
  0
LINE
  5
1C07
  8
0
 10
166.17387241125121
 20
64.999999664723873
 30
0.0
 11
166.17387241125121
 21
51.200000000000038
 31
0.0
  0
LINE
  5
1C08
  8
3
 10
166.8503724112509
 20
64.999999664723873
 30
0.0
 11
166.8503724112509
 21
50.523500000000119
 31
0.0
  0
LINE
  5
1C09
  8
0
 10
172.97387241125111
 20
50.0
 30
0.0
 11
167.37387241125111
 21
50.0
 31
0.0
  0
LINE
  5
1C0A
  8
0
 10
174.17387241125121
 20
51.199999999999932
 30
0.0
 11
166.17387241125121
 21
51.200000000000038
 31
0.0
  0
LINE
  5
1C0B
  8
0
 10
167.37387241125111
 20
50.0
 30
0.0
 11
166.17387241125121
 21
51.200000000000038
 31
0.0
  0
LINE
  5
1C0C
  8
0
 10
174.17387241125121
 20
51.199999999999989
 30
0.0
 11
172.97387241125111
 21
50.0
 31
0.0
  0
LINE
  5
1C12
  8
1
 10
166.1738724112511
 20
91.999999664723788
 30
0.0
 11
174.17387241125101
 21
91.999999664723788
 31
0.0
  0
LINE
  5
1C16
  8
0
 10
170.17387241125081
 20
90.84529912728479
 30
0.0
 11
169.17387241125081
 21
91.422649396474213
 31
0.0
  0
LINE
  5
1C17
  8
0
 10
171.17387241043591
 20
91.422649396003891
 30
0.0
 11
170.17387241043679
 21
90.845299126814126
 31
0.0
  0
CIRCLE
  5
1C18
  8
0
 10
170.1738724112511
 20
91.999999664723788
 30
0.0
 40
2.0
  0
CIRCLE
  5
1C19
  8
3
 10
170.1738724112511
 20
91.999999664723788
 30
0.0
 40
1.6500006914138079
  0
LINE
  5
1C1A
  8
0
 10
170.17387241125081
 20
93.154700202162786
 30
0.0
 11
171.17387241125081
 21
92.577349932973362
 31
0.0
  0
LINE
  5
1C1B
  8
0
 10
169.17387241206481
 20
92.577349933443685
 30
0.0
 11
170.17387241206481
 21
93.154700202633464
 31
0.0
  0
LINE
  5
1C1C
  8
0
 10
169.17387241206481
 20
91.422649396004459
 30
0.0
 11
169.17387241206481
 21
92.577349934383648
 31
0.0
  0
LINE
  5
1C1D
  8
0
 10
171.17387241043679
 20
92.577349933443799
 30
0.0
 11
171.17387241043679
 21
91.42264939506461
 31
0.0
  0
LINE
  5
1C20
  8
3
 10
145.26088669639509
 20
88.960970225586308
 30
0.0
 11
144.71234564172971
 21
88.516770437966244
 31
0.0
  0
LINE
  5
1C21
  8
0
 10
144.11523356329531
 20
96.194304944002695
 30
0.0
 11
145.36670928361721
 21
88.292798219241575
 31
0.0
  0
LINE
  5
1C22
  8
3
 10
144.22106147889491
 20
95.526133781590104
 30
0.0
 11
143.56210846674981
 21
95.779082143730946
 31
0.0
  0
LINE
  5
1C2E
  8
3
 10
152.67387233674521
 20
90.135071807366998
 30
0.0
 11
145.26088136801741
 21
88.960969381654195
 31
0.0
  0
LINE
  5
1C2F
  8
0
 10
144.76296467077839
 20
88.197174466638231
 30
0.0
 11
152.67387233674521
 21
89.450139149771445
 31
0.0
  0
LINE
  5
1C30
  8
3
 10
144.22106147889491
 20
95.526133781590104
 30
0.0
 11
152.67387233674521
 21
96.864927498479844
 31
0.0
  0
LINE
  5
1C31
  8
0
 10
152.67387233674509
 20
97.549860156075496
 30
0.0
 11
143.51148895045651
 21
96.098681191399322
 31
0.0
  0
LINE
  5
1C3A
  8
2
 10
163.17387241125061
 20
70.799999664723913
 30
0.0
 11
177.17387262731791
 21
70.799999664723913
 31
0.0
  0
LINE
  5
1C43
  8
2
 10
166.773872366175
 20
99.960767708534064
 30
0.0
 11
166.1738724112501
 21
100.99999811500309
 31
0.0
  0
LINE
  5
1C44
  8
2
 10
173.57387245632711
 20
99.96076770853692
 30
0.0
 11
174.17387241125039
 21
100.99999811500309
 31
0.0
  0
LINE
  5
1C52
  8
0
 10
152.67387233674521
 20
106.0000007972121
 30
0.0
 11
187.6738724857569
 21
106.0000007972121
 31
0.0
  0
LINE
  5
1C53
  8
0
 10
160.6738727167249
 20
116.4999997243285
 30
0.0
 11
179.67387210577721
 21
116.4999997243285
 31
0.0
  0
LINE
  5
1C54
  8
0
 10
152.67387233674521
 20
65.999999712221324
 30
0.0
 11
187.6738724857569
 21
65.999999712221324
 31
0.0
  0
LINE
  5
1C60
  8
2
 10
173.49737241125121
 20
67.499999552964482
 30
0.0
 11
173.49737241125109
 21
64.999999664723873
 31
0.0
  0
LINE
  5
1C61
  8
2
 10
174.17387241125101
 20
69.999999552965164
 30
0.0
 11
174.17387241125101
 21
64.999999664723873
 31
0.0
  0
LINE
  5
1C62
  8
2
 10
166.17387241125121
 20
69.999999552965164
 30
0.0
 11
166.17387241125121
 21
64.999999664723873
 31
0.0
  0
LINE
  5
1C63
  8
2
 10
166.8503724112509
 20
67.499999552964482
 30
0.0
 11
166.8503724112509
 21
64.999999664723873
 31
0.0
  0
LINE
  5
1CA3
  8
2
 10
174.17387241125101
 20
67.499999552964482
 30
0.0
 11
166.1738724112511
 21
67.499999552964482
 31
0.0
  0
LINE
  5
1CA4
  8
2
 10
166.8503724112509
 20
67.499999552964482
 30
0.0
 11
166.1738724112511
 21
68.671731924284586
 31
0.0
  0
LINE
  5
1CA5
  8
2
 10
173.49737241125121
 20
67.499999552964482
 30
0.0
 11
174.17387241125101
 21
68.671731924284586
 31
0.0
  0
LINE
  5
1CC6
  8
0
 10
58.00000037997961
 20
116.4999997243285
 30
0.0
 11
58.000000379979667
 21
106.99999909847971
 31
0.0
  0
LINE
  5
1CC7
  8
0
 10
58.50000046193599
 20
117.00000073760749
 30
0.0
 11
58.00000037997961
 21
116.4999997243285
 31
0.0
  0
LINE
  5
1CCF
  8
0
 10
76.499999687075615
 20
117.00000073760749
 30
0.0
 11
58.500000461936047
 21
117.00000073760739
 31
0.0
  0
LINE
  5
1CD0
  8
0
 10
76.999999769032001
 20
116.4999997243285
 30
0.0
 11
76.499999687075615
 21
117.00000073760749
 31
0.0
  0
LINE
  5
1CD1
  8
0
 10
76.999999769032001
 20
106.99999909847971
 30
0.0
 11
76.999999769032001
 21
116.4999997243285
 31
0.0
  0
LINE
  5
1CD7
  8
0
 10
50.0
 20
65.999999712221253
 30
0.0
 11
50.0
 21
106.0000007972121
 31
0.0
  0
LINE
  5
1CD8
  8
0
 10
85.000000149011612
 20
106.0000007972121
 30
0.0
 11
85.000000149011612
 21
65.999999712221324
 31
0.0
  0
LINE
  5
1CDB
  8
0
 10
51.000000163912773
 20
64.999999664723873
 30
0.0
 11
50.0
 21
65.999999712221324
 31
0.0
  0
LINE
  5
1CDC
  8
0
 10
85.000000149011612
 20
65.999999712221324
 30
0.0
 11
83.999999985098825
 21
64.999999664723873
 31
0.0
  0
LINE
  5
1CDD
  8
0
 10
83.999999985098825
 20
106.99999909847971
 30
0.0
 11
85.000000149011612
 21
106.0000007972121
 31
0.0
  0
LINE
  5
1CDF
  8
0
 10
83.999999985098825
 20
64.999999664723873
 30
0.0
 11
51.000000163912773
 21
64.999999664723873
 31
0.0
  0
LINE
  5
1CE0
  8
0
 10
50.0
 20
106.0000007972121
 30
0.0
 11
51.000000163912773
 21
106.99999909847971
 31
0.0
  0
LINE
  5
1CE1
  8
0
 10
51.000000163912773
 20
106.99999909847971
 30
0.0
 11
83.999999985098896
 21
106.99999909847971
 31
0.0
  0
LINE
  5
1CE5
  8
1
 10
67.500000074505863
 20
45.0
 30
0.0
 11
67.500000074505749
 21
122.00000073760739
 31
0.0
  0
LINE
  5
1CE8
  8
3
 10
70.823500074506001
 20
64.999999664723873
 30
0.0
 11
70.823500074505887
 21
50.523500000000119
 31
0.0
  0
LINE
  5
1CE9
  8
0
 10
71.500000074505863
 20
64.999999664723873
 30
0.0
 11
71.50000007450592
 21
51.199999999999989
 31
0.0
  0
LINE
  5
1CEA
  8
0
 10
63.50000007450592
 20
64.999999664723873
 30
0.0
 11
63.50000007450592
 21
51.200000000000038
 31
0.0
  0
LINE
  5
1CEB
  8
3
 10
64.176500074505668
 20
64.999999664723873
 30
0.0
 11
64.176500074505725
 21
50.523500000000119
 31
0.0
  0
LINE
  5
1CEC
  8
0
 10
70.300000074505874
 20
50.0
 30
0.0
 11
64.700000074505851
 21
50.0
 31
0.0
  0
LINE
  5
1CED
  8
0
 10
71.50000007450592
 20
51.199999999999932
 30
0.0
 11
63.50000007450592
 21
51.200000000000038
 31
0.0
  0
LINE
  5
1CEE
  8
0
 10
64.700000074505851
 20
50.0
 30
0.0
 11
63.50000007450592
 21
51.200000000000038
 31
0.0
  0
LINE
  5
1CEF
  8
0
 10
71.50000007450592
 20
51.199999999999989
 30
0.0
 11
70.300000074505874
 21
50.0
 31
0.0
  0
LINE
  5
1D03
  8
0
 10
50.0
 20
106.0000007972121
 30
0.0
 11
64.942163347548728
 21
106.0000007972121
 31
0.0
  0
LINE
  5
1D04
  8
0
 10
58.00000037997961
 20
116.4999997243285
 30
0.0
 11
76.999999769032001
 21
116.4999997243285
 31
0.0
  0
LINE
  5
1D05
  8
0
 10
50.0
 20
65.999999712221324
 30
0.0
 11
85.000000149011612
 21
65.999999712221324
 31
0.0
  0
LINE
  5
1D49
  8
0
 10
63.500000074506033
 20
90.583582161732295
 30
0.0
 11
63.500000074506033
 21
90.427147696692103
 31
0.0
  0
LINE
  5
1D4A
  8
0
 10
71.500000074506033
 20
90.427147696692288
 30
0.0
 11
71.500000074506033
 21
90.583582161732537
 31
0.0
  0
LINE
  5
1D4B
  8
0
 10
82.50000007450609
 20
89.488540906451206
 30
0.0
 11
82.500000074506033
 21
91.365754486933994
 31
0.0
  0
LINE
  5
1D4C
  8
0
 10
52.500000074506033
 20
91.365754486933184
 30
0.0
 11
52.50000007450609
 21
89.488540906450396
 31
0.0
  0
CIRCLE
  5
1D5A
  8
0
 10
67.49489577604578
 20
90.394315345328678
 30
0.0
 40
3.9835889838948839
  0
CIRCLE
  5
1D5B
  8
0
 10
67.495273068193725
 20
90.319065997106819
 30
0.0
 40
3.4867768633393919
  0
LINE
  5
1D5C
  8
0
 10
68.654700612885279
 20
88.373553782981816
 30
0.0
 11
66.345299536126788
 21
88.373553782981816
 31
0.0
  0
LINE
  5
1D5D
  8
0
 10
68.654700612885279
 20
88.373553782981816
 30
0.0
 11
69.809401151264581
 21
90.348930464172113
 31
0.0
  0
LINE
  5
1D5E
  8
0
 10
68.654700612885279
 20
92.324307145362368
 30
0.0
 11
69.809401151264581
 21
90.348930464172113
 31
0.0
  0
LINE
  5
1D5F
  8
0
 10
68.654700612885279
 20
92.324307145362368
 30
0.0
 11
66.345299536126788
 21
92.324307145362368
 31
0.0
  0
LINE
  5
1D60
  8
0
 10
66.345299536126788
 20
92.324307145362368
 30
0.0
 11
65.190598997747543
 21
90.348930464172085
 31
0.0
  0
LINE
  5
1D61
  8
0
 10
66.345299536126788
 20
88.373553782981816
 30
0.0
 11
65.190598997747543
 21
90.348930464172085
 31
0.0
  0
POLYLINE
  5
1D69
  8
0
 66
     1
 10
0.0
 20
0.0
 30
0.0
 70
   128
  0
VERTEX
  5
209A
  8
0
 10
52.50000007450609
 20
89.488540906450766
 30
0.0
  0
VERTEX
  5
209B
  8
0
 10
52.549911337093192
 20
88.280954371305313
 30
0.0
  0
VERTEX
  5
209C
  8
0
 10
52.699312973636722
 20
87.081404125313469
 30
0.0
  0
VERTEX
  5
209D
  8
0
 10
52.947210740895123
 20
85.897872977450504
 30
0.0
  0
VERTEX
  5
209E
  8
0
 10
53.291954920127473
 20
84.73823713223652
 30
0.0
  0
VERTEX
  5
209F
  8
0
 10
53.731251295699678
 20
83.610213774894973
 30
0.0
  0
VERTEX
  5
20A0
  8
0
 10
54.262176422711264
 20
82.521309714758246
 30
0.0
  0
VERTEX
  5
20A1
  8
0
 10
54.881197082038391
 20
81.478771428689967
 30
0.0
  0
VERTEX
  5
20A2
  8
0
 10
55.584193793324403
 20
80.489536836977265
 30
0.0
  0
VERTEX
  5
20A3
  8
0
 10
56.366488229442041
 20
79.560189132615761
 30
0.0
  0
VERTEX
  5
20A4
  8
0
 10
57.222874349988437
 20
78.696912971246377
 30
0.0
  0
VERTEX
  5
20A5
  8
0
 10
58.147653046625123
 20
77.905453313292497
 30
0.0
  0
VERTEX
  5
20A6
  8
0
 10
59.134670069703702
 20
77.191077192196161
 30
0.0
  0
VERTEX
  5
20A7
  8
0
 10
60.17735698378192
 20
76.55853866317949
 30
0.0
  0
VERTEX
  5
20A8
  8
0
 10
61.26877487947786
 20
76.012047165791557
 30
0.0
  0
VERTEX
  5
20A9
  8
0
 10
62.401660550766913
 20
75.555239510782769
 30
0.0
  0
VERTEX
  5
20AA
  8
0
 10
63.568474830419632
 20
75.191155677729256
 30
0.0
  0
VERTEX
  5
20AB
  8
0
 10
64.761452761915734
 20
74.922218584470343
 30
0.0
  0
VERTEX
  5
20AC
  8
0
 10
65.972655273948646
 20
74.750217962990206
 30
0.0
  0
VERTEX
  5
20AD
  8
0
 10
67.194022013635106
 20
74.676298449046669
 30
0.0
  0
VERTEX
  5
20AE
  8
0
 10
68.417424986833794
 20
74.700951964809178
 30
0.0
  0
VERTEX
  5
20AF
  8
0
 10
69.634722648605404
 20
74.824014445197861
 30
0.0
  0
VERTEX
  5
20B0
  8
0
 10
70.837814083850901
 20
75.044666929709635
 30
0.0
  0
VERTEX
  5
20B1
  8
0
 10
72.018692917564692
 20
75.361441012465178
 30
0.0
  0
VERTEX
  5
20B2
  8
0
 10
73.16950059593978
 20
75.772228614207762
 30
0.0
  0
VERTEX
  5
20B3
  8
0
 10
74.282578683746465
 20
76.274296011222958
 30
0.0
  0
VERTEX
  5
20B4
  8
0
 10
75.350519829955317
 20
76.864302027818979
 30
0.0
  0
VERTEX
  5
20B5
  8
0
 10
76.366217062436306
 20
77.538320271299511
 30
0.0
  0
VERTEX
  5
20B6
  8
0
 10
77.322911083685426
 20
78.291865261459321
 30
0.0
  0
VERTEX
  5
20B7
  8
0
 10
78.214235252834726
 20
79.119922280715116
 30
0.0
  0
VERTEX
  5
20B8
  8
0
 10
79.034257954596569
 20
80.016980746223524
 30
0.0
  0
VERTEX
  5
20B9
  8
0
 10
79.777522073185025
 20
80.977070881900815
 30
0.0
  0
VERTEX
  5
20BA
  8
0
 10
80.439081308520826
 20
81.993803446297775
 30
0.0
  0
VERTEX
  5
20BB
  8
0
 10
81.014533093042417
 20
83.060412251947454
 30
0.0
  0
VERTEX
  5
20BC
  8
0
 10
81.500047890066583
 20
84.169799193226225
 30
0.0
  0
VERTEX
  5
20BD
  8
0
 10
81.892394678723576
 20
85.314581483075898
 30
0.0
  0
VERTEX
  5
20BE
  8
0
 10
82.188962455867383
 20
86.487140784233333
 30
0.0
  0
VERTEX
  5
20BF
  8
0
 10
82.387777611871513
 20
87.679673908007942
 30
0.0
  0
VERTEX
  5
20C0
  8
0
 10
82.487517064674819
 20
88.88424474321512
 30
0.0
  0
VERTEX
  5
20C1
  8
0
 10
82.487517064674762
 20
90.092837069686794
 30
0.0
  0
VERTEX
  5
20C2
  8
0
 10
82.387777611871456
 20
91.29740790489403
 30
0.0
  0
VERTEX
  5
20C3
  8
0
 10
82.18896245586734
 20
92.489941028668611
 30
0.0
  0
VERTEX
  5
20C4
  8
0
 10
81.892394678723448
 20
93.662500329826017
 30
0.0
  0
VERTEX
  5
20C5
  8
0
 10
81.500047890066469
 20
94.807282619675718
 30
0.0
  0
VERTEX
  5
20C6
  8
0
 10
81.014533093042246
 20
95.916669560954475
 30
0.0
  0
VERTEX
  5
20C7
  8
0
 10
80.439081308520656
 20
96.983278366604125
 30
0.0
  0
VERTEX
  5
20C8
  8
0
 10
79.777522073184855
 20
98.000010931001071
 30
0.0
  0
VERTEX
  5
20C9
  8
0
 10
79.034257954596384
 20
98.960101066678348
 30
0.0
  0
VERTEX
  5
20CA
  8
0
 10
78.214235252834484
 20
99.857159532186714
 30
0.0
  0
VERTEX
  5
20CB
  8
0
 10
77.322911083685199
 20
100.68521655144249
 30
0.0
  0
VERTEX
  5
20CC
  8
0
 10
76.366217062436078
 20
101.4387615416023
 30
0.0
  0
VERTEX
  5
20CD
  8
0
 10
75.35051982995509
 20
102.11277978508279
 30
0.0
  0
VERTEX
  5
20CE
  8
0
 10
74.282578683746181
 20
102.7027858016788
 30
0.0
  0
VERTEX
  5
20CF
  8
0
 10
73.169500595939496
 20
103.204853198694
 30
0.0
  0
VERTEX
  5
20D0
  8
0
 10
72.018692917564408
 20
103.61564080043649
 30
0.0
  0
VERTEX
  5
20D1
  8
0
 10
70.83781408385056
 20
103.932414883192
 30
0.0
  0
VERTEX
  5
20D2
  8
0
 10
69.634722648605134
 20
104.1530673677038
 30
0.0
  0
VERTEX
  5
20D3
  8
0
 10
68.41742498683351
 20
104.2761298480924
 30
0.0
  0
VERTEX
  5
20D4
  8
0
 10
67.194022013634765
 20
104.3007833638549
 30
0.0
  0
VERTEX
  5
20D5
  8
0
 10
65.972655273948305
 20
104.2268638499113
 30
0.0
  0
VERTEX
  5
20D6
  8
0
 10
64.76145276191545
 20
104.0548632284312
 30
0.0
  0
VERTEX
  5
20D7
  8
0
 10
63.568474830419348
 20
103.7859261351723
 30
0.0
  0
VERTEX
  5
20D8
  8
0
 10
62.401660550766621
 20
103.4218423021187
 30
0.0
  0
VERTEX
  5
20D9
  8
0
 10
61.268774879477583
 20
102.9650346471099
 30
0.0
  0
VERTEX
  5
20DA
  8
0
 10
60.177356983781692
 20
102.418543149722
 30
0.0
  0
VERTEX
  5
20DB
  8
0
 10
59.134670069703468
 20
101.7860046207053
 30
0.0
  0
VERTEX
  5
20DC
  8
0
 10
58.147653046624903
 20
101.07162849960891
 30
0.0
  0
VERTEX
  5
20DD
  8
0
 10
57.222874349988267
 20
100.280168841655
 30
0.0
  0
VERTEX
  5
20DE
  8
0
 10
56.36648822944187
 20
99.416892680285613
 30
0.0
  0
VERTEX
  5
20DF
  8
0
 10
55.584193793324232
 20
98.487544975924095
 30
0.0
  0
VERTEX
  5
20E0
  8
0
 10
54.88119708203822
 20
97.498310384211365
 30
0.0
  0
VERTEX
  5
20E1
  8
0
 10
54.26217642271115
 20
96.455772098143072
 30
0.0
  0
VERTEX
  5
20E2
  8
0
 10
53.731251295699622
 20
95.366868038006317
 30
0.0
  0
VERTEX
  5
20E3
  8
0
 10
53.291954920127353
 20
94.238844680664798
 30
0.0
  0
VERTEX
  5
20E4
  8
0
 10
52.947210740895059
 20
93.079208835450814
 30
0.0
  0
VERTEX
  5
20E5
  8
0
 10
52.699312973636722
 20
91.895677687587835
 30
0.0
  0
VERTEX
  5
20E6
  8
0
 10
52.549911337093192
 20
90.696127441596005
 30
0.0
  0
VERTEX
  5
20E7
  8
0
 10
52.50000007450609
 20
89.488540906450766
 30
0.0
  0
SEQEND
  5
20E8
  8
0
  0
ARC
  5
1D6A
  8
0
 10
67.500000074506033
 20
91.218965027564266
 30
0.0
 40
15.00071822098468
 50
0.5606765359703027
 51
179.4393234640317
  0
POLYLINE
  5
1D6B
  8
0
 66
     1
 10
0.0
 20
0.0
 30
0.0
 70
   128
  0
VERTEX
  5
20E9
  8
0
 10
55.50000007450609
 20
89.488540906450766
 30
0.0
  0
VERTEX
  5
20EA
  8
0
 10
55.549717964127687
 20
88.410757267377889
 30
0.0
  0
VERTEX
  5
20EB
  8
0
 10
55.698459654901171
 20
87.341904482972254
 30
0.0
  0
VERTEX
  5
20EC
  8
0
 10
55.944992626332457
 20
86.290839404026684
 30
0.0
  0
VERTEX
  5
20ED
  8
0
 10
56.287274028578047
 20
85.266271486804499
 30
0.0
  0
VERTEX
  5
20EE
  8
0
 10
56.722467610141727
 20
84.276690623742098
 30
0.0
  0
VERTEX
  5
20EF
  8
0
 10
57.24696721994821
 20
83.330296793526387
 30
0.0
  0
VERTEX
  5
20F0
  8
0
 10
57.856426689046373
 20
82.434932113488941
 30
0.0
  0
VERTEX
  5
20F1
  8
0
 10
58.545795844333888
 20
81.598015857351896
 30
0.0
  0
VERTEX
  5
20F2
  8
0
 10
59.309362355882229
 20
80.826482976789464
 30
0.0
  0
VERTEX
  5
20F3
  8
0
 10
60.140799071101519
 20
80.126726636234238
 30
0.0
  0
VERTEX
  5
20F4
  8
0
 10
61.033216443519223
 20
79.504545237103144
 30
0.0
  0
VERTEX
  5
20F5
  8
0
 10
61.979219621732291
 20
78.965094370417262
 30
0.0
  0
VERTEX
  5
20F6
  8
0
 10
62.970969725474731
 20
78.512844095950982
 30
0.0
  0
VERTEX
  5
20F7
  8
0
 10
64.000248801048258
 20
78.151541901908843
 30
0.0
  0
VERTEX
  5
20F8
  8
0
 10
65.058527917874528
 20
77.884181652058089
 30
0.0
  0
VERTEX
  5
20F9
  8
0
 10
66.137037841900451
 20
77.71297877763061
 30
0.0
  0
VERTEX
  5
20FA
  8
0
 10
67.226841700232853
 20
77.639351919562017
 30
0.0
  0
VERTEX
  5
20FB
  8
0
 10
68.318909034882211
 20
77.663911173186051
 30
0.0
  0
VERTEX
  5
20FC
  8
0
 10
69.40419063198118
 20
77.786453032792593
 30
0.0
  0
VERTEX
  5
20FD
  8
0
 10
70.473693506420943
 20
78.005962077940012
 30
0.0
  0
VERTEX
  5
20FE
  8
0
 10
71.518555420557959
 20
78.320619387548646
 30
0.0
  0
VERTEX
  5
20FF
  8
0
 10
72.53011831950613
 20
78.727817612053911
 30
0.0
  0
VERTEX
  5
2100
  8
0
 10
73.500000074506147
 20
79.224182578725816
 30
0.0
  0
VERTEX
  5
2101
  8
0
 10
74.42016393988456
 20
79.805601251126802
 30
0.0
  0
VERTEX
  5
2102
  8
0
 10
75.282985148059197
 20
80.467255811027201
 30
0.0
  0
VERTEX
  5
2103
  8
0
 10
76.081314090764906
 20
81.20366358036415
 30
0.0
  0
VERTEX
  5
2104
  8
0
 10
76.80853556295915
 20
82.008722452438946
 30
0.0
  0
VERTEX
  5
2105
  8
0
 10
77.458623578494439
 20
82.875761455894803
 30
0.0
  0
VERTEX
  5
2106
  8
0
 10
78.026191303337271
 20
83.797596032486467
 30
0.0
  0
VERTEX
  5
2107
  8
0
 10
78.506535692571561
 20
84.766587570592534
 30
0.0
  0
VERTEX
  5
2108
  8
0
 10
78.895676461309961
 20
85.7747067011571
 30
0.0
  0
VERTEX
  5
2109
  8
0
 10
79.190389066587841
 20
86.813599831570286
 30
0.0
  0
VERTEX
  5
210A
  8
0
 10
79.38823142694207
 20
87.874658366167665
 30
0.0
  0
VERTEX
  5
210B
  8
0
 10
79.487564158266821
 20
88.949090039765053
 30
0.0
  0
VERTEX
  5
210C
  8
0
 10
79.487564158266821
 20
90.027991773136833
 30
0.0
  0
VERTEX
  5
210D
  8
0
 10
79.388231426942014
 20
91.102423446734193
 30
0.0
  0
VERTEX
  5
210E
  8
0
 10
79.190389066587784
 20
92.163481981331586
 30
0.0
  0
VERTEX
  5
210F
  8
0
 10
78.895676461309904
 20
93.202375111744743
 30
0.0
  0
VERTEX
  5
2110
  8
0
 10
78.506535692571447
 20
94.210494242309267
 30
0.0
  0
VERTEX
  5
2111
  8
0
 10
78.026191303337157
 20
95.179485780415362
 30
0.0
  0
VERTEX
  5
2112
  8
0
 10
77.458623578494326
 20
96.101320357007026
 30
0.0
  0
VERTEX
  5
2113
  8
0
 10
76.808535562959037
 20
96.968359360462912
 30
0.0
  0
VERTEX
  5
2114
  8
0
 10
76.081314090764806
 20
97.773418232537679
 30
0.0
  0
VERTEX
  5
2115
  8
0
 10
75.282985148059026
 20
98.509826001874643
 30
0.0
  0
VERTEX
  5
2116
  8
0
 10
74.420163939884375
 20
99.17148056177497
 30
0.0
  0
VERTEX
  5
2117
  8
0
 10
73.500000074505976
 20
99.752899234175956
 30
0.0
  0
VERTEX
  5
2118
  8
0
 10
72.530118319505902
 20
100.2492642008478
 30
0.0
  0
VERTEX
  5
2119
  8
0
 10
71.518555420557789
 20
100.656462425353
 30
0.0
  0
VERTEX
  5
211A
  8
0
 10
70.473693506420716
 20
100.9711197349617
 30
0.0
  0
VERTEX
  5
211B
  8
0
 10
69.404190631980953
 20
101.19062878010899
 30
0.0
  0
VERTEX
  5
211C
  8
0
 10
68.318909034881983
 20
101.31317063971559
 30
0.0
  0
VERTEX
  5
211D
  8
0
 10
67.226841700232626
 20
101.3377298933396
 30
0.0
  0
VERTEX
  5
211E
  8
0
 10
66.137037841900224
 20
101.26410303527101
 30
0.0
  0
VERTEX
  5
211F
  8
0
 10
65.058527917874301
 20
101.0929001608435
 30
0.0
  0
VERTEX
  5
2120
  8
0
 10
64.000248801048031
 20
100.8255399109927
 30
0.0
  0
VERTEX
  5
2121
  8
0
 10
62.970969725474497
 20
100.46423771695061
 30
0.0
  0
VERTEX
  5
2122
  8
0
 10
61.979219621732057
 20
100.0119874424843
 30
0.0
  0
VERTEX
  5
2123
  8
0
 10
61.033216443519002
 20
99.472536575798415
 30
0.0
  0
VERTEX
  5
2124
  8
0
 10
60.140799071101291
 20
98.850355176667264
 30
0.0
  0
VERTEX
  5
2125
  8
0
 10
59.309362355882051
 20
98.150598836111996
 30
0.0
  0
VERTEX
  5
2126
  8
0
 10
58.545795844333732
 20
97.379065955549606
 30
0.0
  0
VERTEX
  5
2127
  8
0
 10
57.856426689046202
 20
96.542149699412548
 30
0.0
  0
VERTEX
  5
2128
  8
0
 10
57.24696721994809
 20
95.646785019375031
 30
0.0
  0
VERTEX
  5
2129
  8
0
 10
56.722467610141621
 20
94.700391189159319
 30
0.0
  0
VERTEX
  5
212A
  8
0
 10
56.28727402857794
 20
93.710810326096905
 30
0.0
  0
VERTEX
  5
212B
  8
0
 10
55.944992626332407
 20
92.686242408874719
 30
0.0
  0
VERTEX
  5
212C
  8
0
 10
55.698459654901107
 20
91.635177329929135
 30
0.0
  0
VERTEX
  5
212D
  8
0
 10
55.549717964127638
 20
90.566324545523486
 30
0.0
  0
VERTEX
  5
212E
  8
0
 10
55.50000007450609
 20
89.488540906450766
 30
0.0
  0
SEQEND
  5
212F
  8
0
  0
ARC
  5
1D6C
  8
0
 10
67.500000074506033
 20
90.707618704607924
 30
0.0
 40
12.00598559279058
 50
183.76254392707551
 51
356.78154019233602
  0
ARC
  5
1D6D
  8
0
 10
67.500000074506033
 20
90.543704527835985
 30
0.0
 40
4.0001987732717961
 50
0.5711861070858219
 51
179.4288138929158
  0
ARC
  5
1D71
  8
0
 10
67.498459579865937
 20
74.956773867284966
 30
0.0
 40
1.2252381767656031
 50
190.6302187762698
 51
349.3229396004578
  0
LINE
  5
1D82
  8
0
 10
70.057836801463338
 20
106.0000007972121
 30
0.0
 11
85.000000149011612
 21
106.0000007972121
 31
0.0
  0
LINE
  5
1EB1
  8
2
 10
161.47387241125099
 20
70.000000737607252
 30
0.0
 11
160.67387241125101
 21
70.800000737607206
 31
0.0
1001
ACAD
1000
ASC_BOUNDS
1002
{
1070
    19
1005
0
1002
}
  0
LINE
  5
1EBB
  8
2
 10
178.87387241125111
 20
70.000000737607252
 30
0.0
 11
179.67387241125121
 21
70.800000737607206
 31
0.0
1001
ACAD
1000
ASC_BOUNDS
1002
{
1070
    19
1005
0
1002
}
  0
LINE
  5
1F18
  8
2
 10
161.47387241125099
 20
70.000000737607252
 30
0.0
 11
178.87387241125111
 21
70.000000737607252
 31
0.0
  0
ENDSEC
  0
EOF
