  0
SECTION
  2
HEADER
  9
$ACADVER
  1
AC1009
  9
$INSBASE
 10
0.0
 20
0.0
 30
0.0
  9
$EXTMIN
 10
0.0
 20
-2.960436562073669
 30
0.0
  9
$EXTMAX
 10
128.79445789113399
 20
125.927969860907
 30
0.0
  9
$LIMMIN
 10
0.0
 20
0.0
  9
$LIMMAX
 10
375.0
 20
270.0
  9
$ORTHOMODE
 70
     0
  9
$REGENMODE
 70
     1
  9
$FILLMODE
 70
     1
  9
$QTEXTMODE
 70
     0
  9
$MIRRTEXT
 70
     0
  9
$DRAGMODE
 70
     2
  9
$LTSCALE
 40
10.0
  9
$OSMODE
 70
  3071
  9
$ATTMODE
 70
     1
  9
$TEXTSIZE
 40
0.2
  9
$TRACEWID
 40
0.05
  9
$TEXTSTYLE
  7
STANDARD
  9
$CLAYER
  8
0
  9
$CELTYPE
  6
BYLAYER
  9
$CECOLOR
 62
   256
  9
$DIMSCALE
 40
1.0
  9
$DIMASZ
 40
3.0
  9
$DIMEXO
 40
2.0
  9
$DIMDLI
 40
0.38
  9
$DIMRND
 40
0.0
  9
$DIMDLE
 40
0.0
  9
$DIMEXE
 40
2.0
  9
$DIMTP
 40
0.0
  9
$DIMTM
 40
0.0
  9
$DIMTXT
 40
3.2000000000000002
  9
$DIMCEN
 40
0.0
  9
$DIMTSZ
 40
0.0
  9
$DIMTOL
 70
     0
  9
$DIMLIM
 70
     0
  9
$DIMTIH
 70
     0
  9
$DIMTOH
 70
     0
  9
$DIMSE1
 70
     0
  9
$DIMSE2
 70
     0
  9
$DIMTAD
 70
     1
  9
$DIMZIN
 70
     0
  9
$DIMBLK
  1

  9
$DIMASO
 70
     0
  9
$DIMSHO
 70
     0
  9
$DIMPOST
  1

  9
$DIMAPOST
  1

  9
$DIMALT
 70
     0
  9
$DIMALTD
 70
     2
  9
$DIMALTF
 40
25.399999999999999
  9
$DIMLFAC
 40
1.0
  9
$DIMTOFL
 70
     1
  9
$DIMTVP
 40
1.6000000000000001
  9
$DIMTIX
 70
     1
  9
$DIMSOXD
 70
     0
  9
$DIMSAH
 70
     0
  9
$DIMBLK1
  1

  9
$DIMBLK2
  1

  9
$DIMSTYLE
  2
STANDARD
  9
$DIMCLRD
 70
     0
  9
$DIMCLRE
 70
     0
  9
$DIMCLRT
 70
     0
  9
$DIMTFAC
 40
1.0
  9
$DIMGAP
 40
0.09
  9
$LUNITS
 70
     2
  9
$LUPREC
 70
     4
  9
$SKETCHINC
 40
0.1
  9
$FILLETRAD
 40
0.0
  9
$AUNITS
 70
     0
  9
$AUPREC
 70
     4
  9
$MENU
  1
E:\r13\win\SUPPORT\ACAD
  9
$ELEVATION
 40
0.0
  9
$PELEVATION
 40
0.0
  9
$THICKNESS
 40
0.0
  9
$LIMCHECK
 70
     0
  9
$BLIPMODE
 70
     0
  9
$CHAMFERA
 40
0.0
  9
$CHAMFERB
 40
0.0
  9
$SKPOLY
 70
     0
  9
$TDCREATE
 40
2449839.764814815
  9
$TDUPDATE
 40
2456597.680745
  9
$TDINDWG
 40
0.0033036343
  9
$TDUSRTIMER
 40
0.0033036343
  9
$USRTIMER
 70
     1
  9
$ANGBASE
 50
0.0
  9
$ANGDIR
 70
     0
  9
$PDMODE
 70
     0
  9
$PDSIZE
 40
0.0
  9
$PLINEWID
 40
0.0
  9
$COORDS
 70
     1
  9
$SPLFRAME
 70
     0
  9
$SPLINETYPE
 70
     6
  9
$SPLINESEGS
 70
     8
  9
$ATTDIA
 70
     0
  9
$ATTREQ
 70
     1
  9
$HANDLING
 70
     1
  9
$HANDSEED
  5
4CF
  9
$SURFTAB1
 70
     6
  9
$SURFTAB2
 70
     6
  9
$SURFTYPE
 70
     6
  9
$SURFU
 70
     6
  9
$SURFV
 70
     6
  9
$UCSNAME
  2

  9
$UCSORG
 10
0.0
 20
0.0
 30
0.0
  9
$UCSXDIR
 10
1.0
 20
0.0
 30
0.0
  9
$UCSYDIR
 10
0.0
 20
1.0
 30
0.0
  9
$PUCSNAME
  2

  9
$PUCSORG
 10
0.0
 20
0.0
 30
0.0
  9
$PUCSXDIR
 10
1.0
 20
0.0
 30
0.0
  9
$PUCSYDIR
 10
0.0
 20
1.0
 30
0.0
  9
$USERI1
 70
     0
  9
$USERI2
 70
     1
  9
$USERI3
 70
     0
  9
$USERI4
 70
     0
  9
$USERI5
 70
     0
  9
$USERR1
 40
0.0
  9
$USERR2
 40
0.0
  9
$USERR3
 40
0.0
  9
$USERR4
 40
0.0
  9
$USERR5
 40
0.0
  9
$WORLDVIEW
 70
     1
  9
$SHADEDGE
 70
     3
  9
$SHADEDIF
 70
    70
  9
$TILEMODE
 70
     1
  9
$MAXACTVP
 70
    16
  9
$PLIMCHECK
 70
     0
  9
$PEXTMIN
 10
1.0000000000000000E+020
 20
1.0000000000000000E+020
 30
1.0000000000000000E+020
  9
$PEXTMAX
 10
-1.0000000000000000E+020
 20
-1.0000000000000000E+020
 30
-1.0000000000000000E+020
  9
$PLIMMIN
 10
0.0
 20
0.0
  9
$PLIMMAX
 10
12.0
 20
9.0
  9
$UNITMODE
 70
     0
  9
$VISRETAIN
 70
     0
  9
$PLINEGEN
 70
     0
  9
$PSLTSCALE
 70
     0
  0
ENDSEC
  0
SECTION
  2
TABLES
  0
TABLE
  2
VPORT
 70
     1
  0
VPORT
  2
*ACTIVE
 70
     0
 10
0.0
 20
0.0
 11
1.0
 21
1.0
 12
195.0581083320873
 22
133.5127261426681
 13
0.0
 23
0.0
 14
10.0
 24
10.0
 15
10.0
 25
10.0
 16
0.0
 26
0.0
 36
1.0
 17
0.0
 27
0.0
 37
0.0
 40
275.42274993631997
 41
1.831871345029239
 42
50.0
 43
0.0
 44
0.0
 50
0.0
 51
0.0
 71
     0
 72
   500
 73
     1
 74
     0
 75
     0
 76
     0
 77
     0
 78
     2
  0
ENDTAB
  0
TABLE
  2
LTYPE
 70
     4
  0
LTYPE
  2
CONTINUOUS
 70
     0
  3
Solid Line
 72
    65
 73
     0
 40
0.0
  0
LTYPE
  2
CENTER
 70
     0
  3
____ _ ____ _ ____ _ ____ _ ____ _ ____ _ ____
 72
    65
 73
     4
 40
2.0
 49
1.25
 49
-0.25
 49
0.25
 49
-0.25
  0
LTYPE
  2
HIDDEN
 70
     0
  3
_ _ _ _ _ _ _ _ _ _ _ _ _ _ _ _ _ _ _ _ _ _ _
 72
    65
 73
     2
 40
0.375
 49
0.25
 49
-0.125
  0
LTYPE
  2
PHANTOM2
 70
     0
  3
___ _ _ ___ _ _ ___ _ _ ___ _ _
 72
    65
 73
     6
 40
1.25
 49
0.625
 49
-0.125
 49
0.125
 49
-0.125
 49
0.125
 49
-0.125
  0
ENDTAB
  0
TABLE
  2
LAYER
 70
     4
  0
LAYER
  2
0
 70
     0
 62
     7
  6
CONTINUOUS
  0
LAYER
  2
1
 70
     0
 62
     1
  6
CENTER
  0
LAYER
  2
3
 70
     0
 62
     3
  6
CONTINUOUS
  0
LAYER
  2
2
 70
     0
 62
     2
  6
HIDDEN
  0
ENDTAB
  0
TABLE
  2
STYLE
 70
     2
  0
STYLE
  2
STANDARD
 70
     0
 40
0.0
 41
1.0
 50
0.0
 71
     0
 42
0.2
  3
TXT
  4
BIGFONT
  0
STYLE
  2
STANDARD1
 70
     0
 40
0.0
 41
1.0
 50
0.0
 71
     0
 42
3.0
  3
txt
  4

  0
ENDTAB
  0
TABLE
  2
VIEW
 70
     1
  0
VIEW
  2
ALL
 70
     0
 40
179.5384664489153
 10
135.0
 20
89.769233224457665
 41
0.0
 11
0.0
 21
0.0
 31
1.0
 12
0.0
 22
0.0
 32
0.0
 42
0.0
 43
0.0
 44
0.0
 50
0.0
 71
     0
  0
ENDTAB
  0
TABLE
  2
UCS
 70
     0
  0
ENDTAB
  0
TABLE
  2
APPID
 70
     3
  0
APPID
  2
ACAD
 70
     0
  0
APPID
  2
ACAD_MLEADERVER
 70
     0
  0
APPID
  2
ACAD_NAV_VCDISPLAY
 70
     0
  0
ENDTAB
  0
TABLE
  2
DIMSTYLE
 70
     1
  0
DIMSTYLE
  2
STANDARD
 70
     0
  3

  4

  5

  6

  7

 40
1.0
 41
0.18
 42
0.0625
 43
0.38
 44
0.18
 45
0.0
 46
0.0
 47
0.0
 48
0.0
140
0.18
141
0.09
142
0.0
143
25.399999999999999
144
1.0
145
0.0
146
1.0
147
0.09
 71
     0
 72
     0
 73
     1
 74
     1
 75
     0
 76
     0
 77
     0
 78
     0
170
     0
171
     2
172
     0
173
     0
174
     0
175
     0
176
     0
177
     0
178
     0
  0
ENDTAB
  0
ENDSEC
  0
SECTION
  2
BLOCKS
  0
BLOCK
  8
0
  2
$MODEL_SPACE
 70
     0
 10
0.0
 20
0.0
 30
0.0
  3
$MODEL_SPACE
  1

  0
ENDBLK
  5
161
  8
0
  0
BLOCK
 67
     1
  8
0
  2
$PAPER_SPACE
 70
     0
 10
0.0
 20
0.0
 30
0.0
  3
$PAPER_SPACE
  1

  0
ENDBLK
  5
15F
 67
     1
  8
0
  0
ENDSEC
  0
SECTION
  2
ENTITIES
  0
LINE
  5
56
  8
0
 10
76.047234640866549
 20
107.9690406921349
 30
0.0
 11
79.800011390599138
 21
114.4690406921349
 31
0.0
  0
LINE
  5
57
  8
0
 10
68.541681141401398
 20
107.9690406921349
 30
0.0
 11
76.047234640866549
 21
107.9690406921349
 31
0.0
  0
LINE
  5
58
  8
0
 10
64.788904391668837
 20
114.4690406921349
 30
0.0
 11
68.541681141401398
 21
107.9690406921349
 31
0.0
  0
LINE
  5
59
  8
0
 10
68.541681141401426
 20
120.9690406921349
 30
0.0
 11
64.788904391668837
 21
114.4690406921349
 31
0.0
  0
LINE
  5
5A
  8
0
 10
76.047234640866563
 20
120.9690406921349
 30
0.0
 11
68.541681141401426
 21
120.9690406921349
 31
0.0
  0
LINE
  5
5B
  8
0
 10
79.800011390599138
 20
114.4690406921349
 30
0.0
 11
76.047234640866563
 21
120.9690406921349
 31
0.0
  0
LINE
  5
5C
  8
0
 10
64.788904391668837
 20
54.062118254008922
 30
0.0
 11
64.788904391668808
 21
77.612329952211496
 31
0.0
  0
LINE
  5
5D
  8
0
 10
76.294457891133959
 20
41.537224103110752
 30
0.0
 11
68.294457891133959
 21
41.537224103110752
 31
0.0
  0
LINE
  5
5E
  8
0
 10
75.094457891133942
 20
40.337224103110707
 30
0.0
 11
76.294457891133959
 21
41.537224103110702
 31
0.0
  0
LINE
  5
5F
  8
0
 10
68.294457891133959
 20
41.537224103110752
 30
0.0
 11
69.494457891133933
 21
40.337224103110771
 31
0.0
  0
LINE
  5
60
  8
0
 10
69.044457891133931
 20
52.937224103110758
 30
0.0
 11
69.044457891133931
 21
51.237224103110727
 31
0.0
  0
LINE
  5
61
  8
0
 10
68.294457891133931
 20
50.837224103110749
 30
0.0
 11
76.294457891133959
 21
50.837224103110749
 31
0.0
  0
LINE
  5
62
  8
0
 10
75.094457891133942
 20
40.337224103110707
 30
0.0
 11
69.494457891133933
 21
40.337224103110771
 31
0.0
  0
LINE
  5
63
  8
0
 10
68.294457891133959
 20
50.837224103110749
 30
0.0
 11
68.294457891133959
 21
41.537224103110752
 31
0.0
  0
LINE
  5
64
  8
3
 10
68.894457891134323
 20
50.924974203193962
 30
0.0
 11
68.894457891134323
 21
40.937224103110388
 31
0.0
  0
LINE
  5
65
  8
3
 10
75.694457891133624
 20
50.924974203193962
 30
0.0
 11
75.694457891133595
 21
40.937224103110331
 31
0.0
  0
LINE
  5
66
  8
0
 10
76.294457891133959
 20
50.837224103110749
 30
0.0
 11
76.294457891133959
 21
41.537224103110702
 31
0.0
  0
LINE
  5
67
  8
0
 10
66.044457891133959
 20
53.337224103110771
 30
0.0
 11
78.544457891133902
 21
53.337224103110771
 31
0.0
  0
LINE
  5
68
  8
1
 10
72.294457891133959
 20
84.587383183640497
 30
0.0
 11
72.294457891133959
 21
34.555794948714492
 31
0.0
  0
CIRCLE
  5
69
  8
3
 10
72.294457891133959
 20
114.4690406921349
 30
0.0
 40
4.0
  0
CIRCLE
  5
6A
  8
0
 10
72.294457891133959
 20
114.4690406921349
 30
0.0
 40
3.375
  0
LINE
  5
6B
  8
0
 10
66.044457891135892
 20
78.337224103110771
 30
0.0
 11
78.544457891131884
 21
78.337224103110771
 31
0.0
  0
CIRCLE
  5
6C
  8
0
 10
72.294457891133973
 20
114.4690406921349
 30
0.0
 40
6.25
  0
LINE
  5
6D
  8
0
 10
79.80001139059911
 20
54.062118254008958
 30
0.0
 11
79.80001139059911
 21
77.612329952211439
 31
0.0
  0
LINE
  5
6E
  8
0
 10
66.044457891135949
 20
78.337224103110771
 30
0.0
 11
64.788904391667955
 21
77.612329952210985
 31
0.0
  0
LINE
  5
6F
  8
0
 10
64.788904391667955
 20
77.612329952210985
 30
0.0
 11
66.044457891134115
 21
78.337224103109747
 31
0.0
  0
ARC
  5
70
  8
0
 10
66.665292766534463
 20
75.418568513985903
 30
0.0
 40
2.8867668040867791
 50
49.458660551155177
 51
90.00000000000081
  0
ARC
  5
71
  8
0
 10
77.923623015733426
 20
75.418568513985903
 30
0.0
 40
2.8867668040867791
 50
89.999999999999204
 51
130.54133944884481
  0
LINE
  5
72
  8
0
 10
79.800011390599963
 20
77.612329952210985
 30
0.0
 11
78.54445789113376
 21
78.337224103109747
 31
0.0
  0
LINE
  5
73
  8
0
 10
78.544457891131941
 20
78.337224103110771
 30
0.0
 11
79.800011390599934
 21
77.612329952210985
 31
0.0
  0
LINE
  5
74
  8
0
 10
68.541681141400886
 20
54.062118254009697
 30
0.0
 11
68.541681141400915
 21
77.612329952211496
 31
0.0
  0
LINE
  5
75
  8
0
 10
76.047234640866918
 20
54.062118254009633
 30
0.0
 11
76.047234640866947
 21
77.612329952211496
 31
0.0
  0
ARC
  5
76
  8
0
 10
72.294457891134073
 20
68.260715108502367
 30
0.0
 40
10.076508994607311
 50
68.134547241599904
 51
111.8654527584001
  0
ARC
  5
77
  8
0
 10
66.665292766534463
 20
56.255879692234522
 30
0.0
 40
2.8867668040867791
 50
269.9999999999992
 51
310.54133944884478
  0
LINE
  5
78
  8
0
 10
64.788904391667955
 20
54.062118254009427
 30
0.0
 11
66.044457891134115
 21
53.337224103110671
 31
0.0
  0
LINE
  5
79
  8
0
 10
79.800011390599963
 20
54.062118254009427
 30
0.0
 11
78.54445789113376
 21
53.337224103110671
 31
0.0
  0
ARC
  5
7A
  8
0
 10
77.923623015733426
 20
56.255879692234522
 30
0.0
 40
2.8867668040867791
 50
229.45866055115519
 51
270.0000000000008
  0
ARC
  5
7B
  8
0
 10
72.294457891134073
 20
63.413733097718072
 30
0.0
 40
10.076508994607311
 50
248.1345472415999
 51
291.86545275840012
  0
ARC
  5
7C
  8
0
 10
68.644457891133953
 20
52.937224103110758
 30
0.0
 40
0.4
 50
0.0000000000004071
 51
90.0
  0
ARC
  5
7D
  8
0
 10
68.644457891133953
 20
51.237224103110727
 30
0.0
 40
0.4
 50
270.0
 51
0.0000000000004071
  0
ARC
  5
7E
  8
0
 10
75.944457891133965
 20
51.237224103110727
 30
0.0
 40
0.4
 50
179.9999999999996
 51
270.0
  0
ARC
  5
7F
  8
0
 10
75.944457891133965
 20
52.937224103110758
 30
0.0
 40
0.4
 50
90.0
 51
179.9999999999996
  0
LINE
  5
80
  8
0
 10
75.544457891133959
 20
52.937224103110758
 30
0.0
 11
75.544457891133959
 21
51.237224103110727
 31
0.0
  0
LINE
  5
8A
  8
1
 10
72.294457891133973
 20
103.01011152336289
 30
0.0
 11
72.294457891133973
 21
125.927969860907
 31
0.0
  0
LINE
  5
8B
  8
1
 10
83.753387059906004
 20
114.4690406921349
 30
0.0
 11
60.835528722361971
 21
114.4690406921349
 31
0.0
  0
LINE
  5
8C
  8
0
 10
125.5444578911339
 20
52.937224103110758
 30
0.0
 11
125.5444578911339
 21
51.237224103110727
 31
0.0
  0
ARC
  5
8D
  8
0
 10
125.94445789113389
 20
52.937224103110758
 30
0.0
 40
0.4
 50
90.0
 51
179.9999999999996
  0
ARC
  5
8E
  8
0
 10
125.94445789113389
 20
51.237224103110727
 30
0.0
 40
0.4
 50
179.9999999999996
 51
270.0
  0
ARC
  5
8F
  8
0
 10
118.6444578911339
 20
51.237224103110727
 30
0.0
 40
0.4
 50
270.0
 51
0.0000000000004071
  0
ARC
  5
90
  8
0
 10
118.6444578911339
 20
52.937224103110758
 30
0.0
 40
0.4
 50
0.0000000000004071
 51
90.0
  0
LINE
  5
91
  8
0
 10
128.79445789113399
 20
53.481561670408212
 30
0.0
 11
128.5444578911337
 21
53.337224103110671
 31
0.0
  0
LINE
  5
92
  8
0
 10
115.7944578911339
 20
53.481561670408183
 30
0.0
 11
116.0444578911341
 21
53.337224103110671
 31
0.0
  0
LINE
  5
93
  8
0
 10
122.294457891134
 20
54.062118254009732
 30
0.0
 11
122.294457891134
 21
77.612329952211525
 31
0.0
  0
LINE
  5
94
  8
0
 10
116.0444578911339
 20
53.337224103110771
 30
0.0
 11
128.5444578911339
 21
53.337224103110771
 31
0.0
  0
LINE
  5
95
  8
0
 10
126.2944578911339
 20
50.837224103110749
 30
0.0
 11
126.2944578911339
 21
41.537224103110702
 31
0.0
  0
LINE
  5
96
  8
3
 10
125.6944578911336
 20
50.924974203193962
 30
0.0
 11
125.6944578911336
 21
40.937224103110331
 31
0.0
  0
LINE
  5
97
  8
3
 10
118.89445789113429
 20
50.924974203193962
 30
0.0
 11
118.89445789113429
 21
40.937224103110388
 31
0.0
  0
LINE
  5
98
  8
0
 10
118.2944578911339
 20
50.837224103110749
 30
0.0
 11
118.2944578911339
 21
41.537224103110752
 31
0.0
  0
LINE
  5
99
  8
0
 10
125.0944578911339
 20
40.337224103110707
 30
0.0
 11
119.49445789113391
 21
40.337224103110771
 31
0.0
  0
LINE
  5
9A
  8
0
 10
118.2944578911339
 20
50.837224103110749
 30
0.0
 11
126.2944578911339
 21
50.837224103110749
 31
0.0
  0
LINE
  5
9B
  8
0
 10
119.0444578911339
 20
52.937224103110758
 30
0.0
 11
119.0444578911339
 21
51.237224103110727
 31
0.0
  0
LINE
  5
9C
  8
0
 10
118.2944578911339
 20
41.537224103110752
 30
0.0
 11
119.49445789113391
 21
40.337224103110771
 31
0.0
  0
LINE
  5
9D
  8
0
 10
125.0944578911339
 20
40.337224103110707
 30
0.0
 11
126.2944578911339
 21
41.537224103110702
 31
0.0
  0
LINE
  5
9E
  8
0
 10
126.2944578911339
 20
41.537224103110752
 30
0.0
 11
118.2944578911339
 21
41.537224103110752
 31
0.0
  0
LINE
  5
9F
  8
1
 10
122.2944578911339
 20
84.587383183640497
 30
0.0
 11
122.2944578911339
 21
34.555794948714492
 31
0.0
  0
LINE
  5
A0
  8
0
 10
115.7944578911339
 20
78.192886535812235
 30
0.0
 11
115.794457891134
 21
53.48156167040819
 31
0.0
  0
LINE
  5
A1
  8
0
 10
128.79445789113399
 20
78.192886535812235
 30
0.0
 11
128.79445789113399
 21
53.481561670408212
 31
0.0
  0
LINE
  5
A2
  8
0
 10
128.79445789113379
 20
78.192886535812704
 30
0.0
 11
128.54445789113259
 21
78.337224103110771
 31
0.0
  0
ARC
  5
A3
  8
0
 10
125.5444578911338
 20
68.805734400564006
 30
0.0
 40
9.3871521352487513
 50
69.743841999583083
 51
110.2561580004169
  0
ARC
  5
A4
  8
0
 10
119.0444578911342
 20
68.805734400564006
 30
0.0
 40
9.3871521352487513
 50
69.743841999583083
 51
110.2561580004169
  0
LINE
  5
A5
  8
0
 10
115.7944578911342
 20
78.192886535812704
 30
0.0
 11
116.04445789113529
 21
78.337224103110771
 31
0.0
  0
LINE
  5
A6
  8
0
 10
116.04445789113529
 20
78.337224103110771
 30
0.0
 11
128.54445789113259
 21
78.337224103110771
 31
0.0
  0
LINE
  5
A7
  8
0
 10
115.7944578911342
 20
53.481561670408553
 30
0.0
 11
116.04445789113529
 21
53.337224103110479
 31
0.0
  0
ARC
  5
A8
  8
0
 10
119.0444578911342
 20
62.868713805657251
 30
0.0
 40
9.3871521352487513
 50
249.74384199958311
 51
290.25615800041692
  0
ARC
  5
A9
  8
0
 10
125.5444578911338
 20
62.868713805657251
 30
0.0
 40
9.3871521352487513
 50
249.74384199958311
 51
290.25615800041692
  0
LINE
  5
AA
  8
0
 10
128.79445789113379
 20
53.481561670408553
 30
0.0
 11
128.54445789113259
 21
53.337224103110479
 31
0.0
  0
LINE
  5
3E2
  8
2
 10
76.894457993206856
 20
78.337224103110813
 30
0.0
 11
75.694457936209915
 21
77.137224046113886
 31
0.0
  0
LINE
  5
3E3
  8
2
 10
75.694457936209915
 20
77.137224046113886
 30
0.0
 11
68.89445784605789
 21
77.137224046113829
 31
0.0
  0
LINE
  5
3E4
  8
2
 10
75.694457936209915
 20
58.337224550145663
 30
0.0
 11
72.294457891133902
 21
56.29429770221094
 31
0.0
  0
LINE
  5
3E5
  8
2
 10
75.694457936209915
 20
58.337224550145663
 30
0.0
 11
68.89445784605789
 21
58.337224550145599
 31
0.0
  0
LINE
  5
3E6
  8
2
 10
75.694457936209915
 20
77.137224046113886
 30
0.0
 11
75.694457936209915
 21
58.337224550145663
 31
0.0
  0
LINE
  5
3E7
  8
2
 10
76.294457891133902
 20
77.737224103110833
 30
0.0
 11
76.294457891133902
 21
62.337224103110827
 31
0.0
  0
LINE
  5
3E8
  8
2
 10
68.294457891133902
 20
62.337224103110827
 30
0.0
 11
76.294457891133902
 21
62.337224103110827
 31
0.0
  0
LINE
  5
3E9
  8
2
 10
68.89445784605789
 20
77.137224046113886
 30
0.0
 11
68.89445784605789
 21
58.337224550145663
 31
0.0
  0
LINE
  5
3EA
  8
2
 10
67.694457789060948
 20
78.337224103110813
 30
0.0
 11
68.89445784605789
 21
77.137224046113886
 31
0.0
  0
LINE
  5
3EB
  8
2
 10
68.294457891133902
 20
77.737224103110833
 30
0.0
 11
68.294457891133902
 21
62.337224103110827
 31
0.0
  0
LINE
  5
3EC
  8
2
 10
68.89445784605789
 20
58.337224550145663
 30
0.0
 11
72.294457891133902
 21
56.29429770221094
 31
0.0
  0
LINE
  5
3ED
  8
2
 10
118.894457846058
 20
58.337224550145677
 30
0.0
 11
122.294457891134
 21
56.294297702210947
 31
0.0
  0
LINE
  5
3EE
  8
2
 10
118.294457891134
 20
77.737224103110805
 30
0.0
 11
118.294457891134
 21
62.337224103110842
 31
0.0
  0
LINE
  5
3EF
  8
2
 10
117.694457789061
 20
78.337224103110813
 30
0.0
 11
118.894457846058
 21
77.137224046113886
 31
0.0
  0
LINE
  5
3F0
  8
2
 10
118.894457846058
 20
77.137224046113886
 30
0.0
 11
118.894457846058
 21
58.337224550145677
 31
0.0
  0
LINE
  5
3F1
  8
2
 10
118.294457891134
 20
62.337224103110842
 30
0.0
 11
126.294457891134
 21
62.337224103110842
 31
0.0
  0
LINE
  5
3F2
  8
2
 10
126.294457891134
 20
77.737224103110805
 30
0.0
 11
126.294457891134
 21
62.337224103110842
 31
0.0
  0
LINE
  5
3F3
  8
2
 10
125.69445793621
 20
77.137224046113886
 30
0.0
 11
125.69445793621
 21
58.337224550145677
 31
0.0
  0
LINE
  5
3F4
  8
2
 10
125.69445793621
 20
58.337224550145677
 30
0.0
 11
118.894457846058
 21
58.337224550145621
 31
0.0
  0
LINE
  5
3F5
  8
2
 10
125.69445793621
 20
58.337224550145677
 30
0.0
 11
122.294457891134
 21
56.294297702210947
 31
0.0
  0
LINE
  5
3F6
  8
2
 10
125.69445793621
 20
77.137224046113886
 30
0.0
 11
118.894457846058
 21
77.137224046113829
 31
0.0
  0
LINE
  5
3F7
  8
2
 10
126.8944579932069
 20
78.337224103110813
 30
0.0
 11
125.69445793621
 21
77.137224046113886
 31
0.0
  0
TEXT
  5
467
  8
0
 62
     3
 10
0.0
 20
0.0
 30
0.0
 40
10.0
  1
BJ610-08025
  7
STANDARD1
  0
ENDSEC
  0
EOF
